  0
SECTION
  2
HEADER
  9
$ACADVER
  1
AC1009
  9
$INSBASE
 10
0.0
 20
0.0
 30
0.0
  9
$EXTMIN
 10
1098.85036
 20
615.791617
 30
0.0
  9
$EXTMAX
 10
3413.85036
 20
5280.531223
 30
0.0
  9
$LIMMIN
 10
0.0
 20
0.0
  9
$LIMMAX
 10
4200.0
 20
5940.0
  9
$ORTHOMODE
 70
     0
  9
$REGENMODE
 70
     1
  9
$FILLMODE
 70
     1
  9
$QTEXTMODE
 70
     0
  9
$MIRRTEXT
 70
     1
  9
$DRAGMODE
 70
     2
  9
$LTSCALE
 40
20.0
  9
$OSMODE
 70
     0
  9
$ATTMODE
 70
     1
  9
$TEXTSIZE
 40
0.2
  9
$TRACEWID
 40
0.05
  9
$TEXTSTYLE
  7
STANDARD
  9
$CLAYER
  8
0
  9
$CELTYPE
  6
CONTINUOUS
  9
$CECOLOR
 62
   256
  9
$DIMSCALE
 40
1.0
  9
$DIMASZ
 40
0.18
  9
$DIMEXO
 40
0.0625
  9
$DIMDLI
 40
0.38
  9
$DIMRND
 40
0.0
  9
$DIMDLE
 40
0.0
  9
$DIMEXE
 40
0.18
  9
$DIMTP
 40
0.0
  9
$DIMTM
 40
0.0
  9
$DIMTXT
 40
0.18
  9
$DIMCEN
 40
0.09
  9
$DIMTSZ
 40
0.0
  9
$DIMTOL
 70
     0
  9
$DIMLIM
 70
     0
  9
$DIMTIH
 70
     1
  9
$DIMTOH
 70
     1
  9
$DIMSE1
 70
     0
  9
$DIMSE2
 70
     0
  9
$DIMTAD
 70
     0
  9
$DIMZIN
 70
     0
  9
$DIMBLK
  1

  9
$DIMASO
 70
     1
  9
$DIMSHO
 70
     1
  9
$DIMPOST
  1

  9
$DIMAPOST
  1

  9
$DIMALT
 70
     0
  9
$DIMALTD
 70
     2
  9
$DIMALTF
 40
25.4
  9
$DIMLFAC
 40
1.0
  9
$DIMTOFL
 70
     0
  9
$DIMTVP
 40
0.0
  9
$DIMTIX
 70
     0
  9
$DIMSOXD
 70
     0
  9
$DIMSAH
 70
     0
  9
$DIMBLK1
  1

  9
$DIMBLK2
  1

  9
$DIMSTYLE
  2
STANDARD
  9
$DIMCLRD
 70
     0
  9
$DIMCLRE
 70
     0
  9
$DIMCLRT
 70
     0
  9
$DIMTFAC
 40
1.0
  9
$DIMGAP
 40
0.09
  9
$LUNITS
 70
     2
  9
$LUPREC
 70
     4
  9
$AXISMODE
 70
     0
  9
$AXISUNIT
 10
0.0
 20
0.0
  9
$SKETCHINC
 40
0.1
  9
$FILLETRAD
 40
0.0
  9
$AUNITS
 70
     0
  9
$AUPREC
 70
     0
  9
$MENU
  1
acad
  9
$ELEVATION
 40
0.0
  9
$PELEVATION
 40
0.0
  9
$THICKNESS
 40
0.0
  9
$LIMCHECK
 70
     0
  9
$BLIPMODE
 70
     1
  9
$CHAMFERA
 40
0.0
  9
$CHAMFERB
 40
0.0
  9
$SKPOLY
 70
     0
  9
$TDCREATE
 40
0.000000000
  9
$TDUPDATE
 40
0.000000000
  9
$TDINDWG
 40
0.0000000000
  9
$TDUSRTIMER
 40
0.0000000000
  9
$USRTIMER
 70
     1
  9
$ANGBASE
 50
0.0
  9
$ANGDIR
 70
     0
  9
$PDMODE
 70
     0
  9
$PDSIZE
 40
0.0
  9
$PLINEWID
 40
0.0
  9
$COORDS
 70
     0
  9
$SPLFRAME
 70
     0
  9
$SPLINETYPE
 70
     6
  9
$SPLINESEGS
 70
     8
  9
$ATTDIA
 70
     0
  9
$ATTREQ
 70
     1
  9
$HANDLING
 70
     1
  9
$HANDSEED
  5
50D
  9
$SURFTAB1
 70
     6
  9
$SURFTAB2
 70
     6
  9
$SURFTYPE
 70
     6
  9
$SURFU
 70
     6
  9
$SURFV
 70
     6
  9
$UCSNAME
  2

  9
$UCSORG
 10
0.0
 20
0.0
 30
0.0
  9
$UCSXDIR
 10
1.0
 20
0.0
 30
0.0
  9
$UCSYDIR
 10
0.0
 20
1.0
 30
0.0
  9
$PUCSNAME
  2

  9
$PUCSORG
 10
0.0
 20
0.0
 30
0.0
  9
$PUCSXDIR
 10
1.0
 20
0.0
 30
0.0
  9
$PUCSYDIR
 10
0.0
 20
1.0
 30
0.0
  9
$USERI1
 70
     0
  9
$USERI2
 70
     0
  9
$USERI3
 70
     0
  9
$USERI4
 70
     0
  9
$USERI5
 70
     0
  9
$USERR1
 40
0.0
  9
$USERR2
 40
0.0
  9
$USERR3
 40
0.0
  9
$USERR4
 40
0.0
  9
$USERR5
 40
0.0
  9
$WORLDVIEW
 70
     1
  9
$SHADEDGE
 70
     3
  9
$SHADEDIF
 70
    70
  9
$TILEMODE
 70
     1
  9
$MAXACTVP
 70
    16
  9
$PINSBASE
 10
0.0
 20
0.0
 30
0.0
  9
$PLIMCHECK
 70
     0
  9
$PEXTMIN
 10
1.000000E+20
 20
1.000000E+20
 30
1.000000E+20
  9
$PEXTMAX
 10
-1.000000E+20
 20
-1.000000E+20
 30
-1.000000E+20
  9
$PLIMMIN
 10
0.0
 20
0.0
  9
$PLIMMAX
 10
12.0
 20
9.0
  9
$UNITMODE
 70
     0
  9
$VISRETAIN
 70
     0
  9
$PLINEGEN
 70
     1
  9
$PSLTSCALE
 70
     0
  9
$TREEDEPTH
 70
  3020
  9
$DWGCODEPAGE
  3
dos932
  0
ENDSEC
  0
SECTION
  2
TABLES
  0
TABLE
  2
VPORT
 70
     1
  0
VPORT
  2
*ACTIVE
 70
     0
 10
0.0
 20
0.0
 11
1.0
 21
1.0
 12
2100.0
 22
2970.0
 13
0.0
 23
0.0
 14
1000.0
 24
1000.0
 15
1000.0
 25
1000.0
 16
0.0
 26
0.0
 36
1.0
 17
0.0
 27
0.0
 37
0.0
 40
5940.0
 41
0.707071
 42
50.0
 43
0.0
 44
0.0
 50
0.0
 51
0.0
 71
     0
 72
   100
 73
     1
 74
     1
 75
     0
 76
     0
 77
     0
 78
     0
  0
ENDTAB
  0
TABLE
  2
LTYPE
 70
     5
  0
LTYPE
  2
CONTINUOUS
 70
    64
  3
Solid line
 72
    65
 73
     0
 40
0.0
  0
LTYPE
  2
HIDDEN
 70
    64
  3
__ __ __ __ __ __ __ __ __ __ __ __ __ __ __ __
 72
    65
 73
     5
 40
8.0
 49
1.0
 49
-2.0
 49
2.0
 49
-2.0
 49
1.0
  0
LTYPE
  2
DOT
 70
    64
  3
. . . . . . . . . . . . . . . . . . . . . . . .
 72
    65
 73
     3
 40
1.6
 49
0.4
 49
-0.8
 49
0.4
  0
LTYPE
  2
CENTER
 70
    64
  3
____ _ ____ _ ____ _ ____ _ ____ _ ____ _ ____ 
 72
    65
 73
     5
 40
12.0
 49
5.0
 49
-0.8
 49
0.4
 49
-0.8
 49
5.0
  0
LTYPE
  2
DIVIDE
 70
    64
  3
____ . . ____ . . ____ . . ____ . . ____ . . __
 72
    65
 73
     7
 40
13.2
 49
5.0
 49
-0.8
 49
0.4
 49
-0.8
 49
0.4
 49
-0.8
 49
5.0
  0
ENDTAB
  0
TABLE
  2
LAYER
 70
    14
  0
LAYER
  2
0
 70
     0
 62
     7
  6
CONTINUOUS
  0
LAYER
  2
1
 70
     0
 62
     1
  6
CONTINUOUS
  0
LAYER
  2
2
 70
     0
 62
     1
  6
CONTINUOUS
  0
LAYER
  2
3
 70
     0
 62
     1
  6
CONTINUOUS
  0
LAYER
  2
4
 70
     0
 62
     1
  6
CONTINUOUS
  0
LAYER
  2
5
 70
     0
 62
     1
  6
CONTINUOUS
  0
LAYER
  2
6
 70
     0
 62
     1
  6
CONTINUOUS
  0
LAYER
  2
7
 70
     0
 62
     1
  6
CONTINUOUS
  0
LAYER
  2
8
 70
     0
 62
     1
  6
CONTINUOUS
  0
LAYER
  2
10
 70
     0
 62
     1
  6
CONTINUOUS
  0
LAYER
  2
12
 70
     0
 62
     1
  6
CONTINUOUS
  0
LAYER
  2
40
 70
     0
 62
     1
  6
CONTINUOUS
  0
LAYER
  2
50
 70
     0
 62
     1
  6
CONTINUOUS
  0
LAYER
  2
151
 70
     0
 62
     1
  6
CONTINUOUS
  0
ENDTAB
  0
TABLE
  2
STYLE
 70
     3
  0
STYLE
  2
STANDARD
 70
     0
 40
0.0
 41
1.0
 50
0.0
 71
     0
 42
0.0
  3
txt
  4

  0
STYLE
  2

 70
     0
 40
1000.0
 41
1.0
 50
0.0
 71
     0
 42
1000.0
  3
txt
  4
extfont
  0
STYLE
  2

 70
     0
 40
1000.0
 41
1.0
 50
0.0
 71
     0
 42
1000.0
  3
txt
  4
extfont
  0
ENDTAB
  0
TABLE
  2
VIEW
 70
     0
  0
ENDTAB
  0
TABLE
  2
UCS
 70
     0
  0
ENDTAB
  0
TABLE
  2
APPID
 70
     1
  0
APPID
  2
ACAD
 70
     0
  0
ENDTAB
  0
TABLE
  2
DIMSTYLE
 70
     1
  0
DIMSTYLE
  2
STANDARD
 70
     0
  3

  4

  5

  6

  7

 40
1.0
 41
0.18
 42
0.0625
 43
0.38
 44
0.18
 45
0.0
 46
0.0
 47
0.0
 48
0.0
 71
     0
 72
     0
 73
     1
 74
     1
 75
     0
 76
     0
 77
     0
 78
     0
140
0.18
141
0.09
142
0.0
143
25.4
144
1.0
145
0.0
146
1.0
147
0.09
170
     0
171
     2
172
     0
173
     0
174
     0
175
     0
176
     0
177
     0
178
     0
  0
ENDTAB
  0
ENDSEC
  0
SECTION
  2
BLOCKS
  0
ENDSEC
  0
SECTION
  2
ENTITIES
  0
LINE
  8
2
  6
CONTINUOUS
 62
     6
  5
102
 10
2693.85036
 20
2988.801625
 30
0.0
 11
2693.85036
 21
1988.801625
 31
0.0
  0
LINE
  8
1
  6
CONTINUOUS
 62
     5
  5
103
 10
2168.85036
 20
888.801625
 30
0.0
 11
2168.85036
 21
1188.801625
 31
0.0
  0
LINE
  8
1
  6
CONTINUOUS
 62
     5
  5
104
 10
2693.85036
 20
888.801625
 30
0.0
 11
2168.85036
 21
888.801625
 31
0.0
  0
LINE
  8
1
  6
CONTINUOUS
 62
     5
  5
105
 10
2693.85036
 20
888.801625
 30
0.0
 11
2693.85036
 21
3188.801625
 31
0.0
  0
LINE
  8
2
  6
CONTINUOUS
 62
     3
  5
106
 10
2342.930885
 20
1188.801625
 30
0.0
 11
2693.85036
 21
1188.801625
 31
0.0
  0
LINE
  8
2
  6
CONTINUOUS
 62
     3
  5
107
 10
2249.489394
 20
1088.801625
 30
0.0
 11
2693.85036
 21
1088.801625
 31
0.0
  0
LINE
  8
2
  6
CONTINUOUS
 62
     3
  5
108
 10
2168.85036
 20
988.801625
 30
0.0
 11
2693.85036
 21
988.801625
 31
0.0
  0
LINE
  8
2
  6
CONTINUOUS
 62
     3
  5
109
 10
2693.85036
 20
1188.801625
 30
0.0
 11
2342.930885
 21
1188.801625
 31
0.0
  0
LINE
  8
2
  6
CONTINUOUS
 62
     3
  5
10A
 10
2693.85036
 20
1288.801625
 30
0.0
 11
1905.869408
 21
1288.801625
 31
0.0
  0
LINE
  8
2
  6
CONTINUOUS
 62
     3
  5
10B
 10
2693.85036
 20
1288.801625
 30
0.0
 11
1905.869408
 21
1288.801625
 31
0.0
  0
LINE
  8
1
  6
CONTINUOUS
 62
     3
  5
10C
 10
2193.85036
 20
888.801625
 30
0.0
 11
2193.85036
 21
1049.987621
 31
0.0
  0
LINE
  8
1
  6
CONTINUOUS
 62
     3
  5
10D
 10
2293.85036
 20
888.801625
 30
0.0
 11
2293.85036
 21
1119.885274
 31
0.0
  0
LINE
  8
2
  6
CONTINUOUS
 62
     6
  5
10E
 10
2290.150885
 20
1117.167237
 30
0.0
 11
2169.930585
 21
1033.301094
 31
0.0
  0
LINE
  8
2
  6
CONTINUOUS
 62
     6
  5
10F
 10
2332.930985
 20
1151.187237
 30
0.0
 11
2169.930585
 21
1151.187237
 31
0.0
  0
ARC
  8
2
  6
CONTINUOUS
 62
     6
  5
110
 10
2232.930885
 20
1199.187337
 30
0.0
 40
99.999998
 50
304.903
 51
328.17899
  0
ARC
  8
2
  6
CONTINUOUS
 62
     6
  5
111
 10
2326.390885
 20
1141.187437
 30
0.0
 40
10.0
 50
90.0
 51
148.178986
  0
ARC
  8
2
  6
CONTINUOUS
 62
     6
  5
112
 10
2332.930985
 20
1161.187537
 30
0.0
 40
10.0
 50
270.0
 51
0.0
  0
ARC
  8
2
  6
CONTINUOUS
 62
     6
  5
113
 10
2332.930985
 20
1223.187437
 30
0.0
 40
10.0
 50
0.0
 51
90.0
  0
LINE
  8
2
  6
CONTINUOUS
 62
     6
  5
114
 10
2342.930885
 20
1223.187437
 30
0.0
 11
2342.930885
 21
1161.187537
 31
0.0
  0
ARC
  8
2
  6
CONTINUOUS
 62
     6
  5
115
 10
1702.781085
 20
1323.187537
 30
0.0
 40
7.999999
 50
89.998292
 51
177.980988
  0
ARC
  8
2
  6
CONTINUOUS
 62
     6
  5
116
 10
4692.925285
 20
1217.747437
 30
0.0
 40
2999.9996
 50
177.827356
 51
180.552833
  0
LINE
  8
2
  6
CONTINUOUS
 62
     6
  5
117
 10
1702.781085
 20
1331.187437
 30
0.0
 11
1783.090785
 21
1331.187437
 31
0.0
  0
ARC
  8
2
  6
CONTINUOUS
 62
     6
  5
118
 10
1783.090785
 20
1339.187337
 30
0.0
 40
7.999999
 50
270.0
 51
321.14
  0
ARC
  8
2
  6
CONTINUOUS
 62
     6
  5
119
 10
2412.250785
 20
832.217337
 30
0.0
 40
799.99998
 50
137.990998
 51
141.138993
  0
ARC
  8
2
  6
CONTINUOUS
 62
     6
  5
11A
 10
1264.290785
 20
1006.587237
 30
0.0
 40
700.00006
 50
26.0394
 51
33.06339
  0
ARC
  8
2
  6
CONTINUOUS
 62
     6
  5
11B
 10
2926.501085
 20
1818.717637
 30
0.0
 40
1150.0
 50
206.03899
 51
208.83199
  0
LINE
  8
2
  6
CONTINUOUS
 62
     6
  5
11C
 10
1728.991085
 20
1237.187637
 30
0.0
 11
1864.370785
 21
1237.187637
 31
0.0
  0
LINE
  8
2
  6
CONTINUOUS
 62
     6
  5
11D
 10
1934.370985
 20
1233.187237
 30
0.0
 11
1864.370785
 21
1237.177537
 31
0.0
  0
LINE
  8
2
  6
CONTINUOUS
 62
     6
  5
11E
 10
1934.370985
 20
1233.187237
 30
0.0
 11
2332.930985
 21
1233.187237
 31
0.0
  0
ARC
  8
2
  6
CONTINUOUS
 62
     6
  5
11F
 10
1971.561085
 20
1293.187637
 30
0.0
 40
60.000001
 50
208.7
 51
270.0
  0
CIRCLE
  8
5
  6
CONTINUOUS
 62
     3
  5
120
 10
2823.85036
 20
888.801625
 30
0.0
 40
7.5
  0
LINE
  8
151
  6
CONTINUOUS
 62
     3
  5
121
 10
2593.85036
 20
888.801625
 30
0.0
 11
2593.85036
 21
3188.801625
 31
0.0
  0
LINE
  8
151
  6
CONTINUOUS
 62
     3
  5
122
 10
2493.85036
 20
888.801625
 30
0.0
 11
2493.85036
 21
3188.801625
 31
0.0
  0
LINE
  8
151
  6
CONTINUOUS
 62
     3
  5
123
 10
2393.85036
 20
888.801625
 30
0.0
 11
2393.85036
 21
3188.801625
 31
0.0
  0
LINE
  8
151
  6
CONTINUOUS
 62
     3
  5
124
 10
2293.85036
 20
3188.801625
 30
0.0
 11
2293.85036
 21
1233.187237
 31
0.0
  0
LINE
  8
151
  6
CONTINUOUS
 62
     3
  5
125
 10
2193.85036
 20
1233.187237
 30
0.0
 11
2193.85036
 21
1488.801625
 31
0.0
  0
LINE
  8
151
  6
CONTINUOUS
 62
     3
  5
126
 10
2193.85036
 20
2090.324116
 30
0.0
 11
2193.85036
 21
3188.801625
 31
0.0
  0
ARC
  8
2
  6
CONTINUOUS
 62
     6
  5
127
 10
1944.140685
 20
1253.837437
 30
0.0
 40
170.0
 50
126.765992
 51
137.990998
  0
ARC
  8
2
  6
CONTINUOUS
 62
     6
  5
128
 10
1845.930985
 20
1385.187437
 30
0.0
 40
5.99988
 50
33.82039
 51
128.529999
  0
LINE
  8
5
  6
CONTINUOUS
 62
     3
  5
129
 10
2823.85036
 20
888.801625
 30
0.0
 11
2723.85036
 21
888.801625
 31
0.0
  0
LINE
  8
5
  6
CONTINUOUS
 62
     3
  5
12A
 10
2823.85036
 20
3188.801625
 30
0.0
 11
2723.85036
 21
3188.801625
 31
0.0
  0
CIRCLE
  8
5
  6
CONTINUOUS
 62
     3
  5
12B
 10
2823.85036
 20
3188.801625
 30
0.0
 40
7.5
  0
ARC
  8
4
  6
CONTINUOUS
 62
     6
  5
12C
 10
2813.85036
 20
4860.531223
 30
0.0
 40
600.0
 50
270.0
 51
357.720072
  0
LINE
  8
5
  6
CONTINUOUS
 62
     6
  5
12D
 10
1854.09036
 20
4625.091106
 30
0.0
 11
2183.84936
 21
4625.091106
 31
0.0
  0
LINE
  8
5
  6
CONTINUOUS
 62
     6
  5
12E
 10
1929.75036
 20
4578.086106
 30
0.0
 11
2183.84936
 21
4578.086106
 31
0.0
  0
ARC
  8
5
  6
CONTINUOUS
 62
     6
  5
12F
 10
1958.31336
 20
4255.215106
 30
0.0
 40
359.99995
 50
91.505
 51
110.194
  0
ARC
  8
5
  6
CONTINUOUS
 62
     6
  5
130
 10
1958.31336
 20
4719.970106
 30
0.0
 40
359.99995
 50
249.847
 51
268.498809
  0
ARC
  8
5
  6
CONTINUOUS
 62
     6
  5
131
 10
1929.75036
 20
4458.088106
 30
0.0
 40
120.0
 50
90.0
 51
111.90901
  0
ARC
  8
5
  6
CONTINUOUS
 62
     6
  5
132
 10
1929.75036
 20
4517.090106
 30
0.0
 40
120.0
 50
248.091003
 51
270.0
  0
ARC
  8
5
  6
CONTINUOUS
 62
     6
  5
133
 10
1967.08936
 20
4679.565106
 30
0.0
 40
319.99999
 50
257.598007
 51
266.732406
  0
ARC
  8
5
  6
CONTINUOUS
 62
     6
  5
134
 10
2183.84936
 20
4525.089106
 30
0.0
 40
52.999998
 50
59.52301
 51
90.0
  0
ARC
  8
5
  6
CONTINUOUS
 62
     6
  5
135
 10
2183.84936
 20
4525.089106
 30
0.0
 40
99.999998
 50
53.76501
 51
90.0
  0
ARC
  8
5
  6
CONTINUOUS
 62
     6
  5
136
 10
2268.85236
 20
4487.589106
 30
0.0
 40
33.0
 50
311.3711
 51
48.12701
  0
ARC
  8
5
  6
CONTINUOUS
 62
     6
  5
137
 10
2268.85236
 20
4487.589106
 30
0.0
 40
74.999882
 50
312.5485
 51
48.12701
  0
ARC
  8
5
  6
CONTINUOUS
 62
     6
  5
138
 10
2134.84936
 20
4487.589106
 30
0.0
 40
149.99999
 50
352.31056
 51
7.68901
  0
ARC
  8
5
  6
CONTINUOUS
 62
     6
  5
139
 10
2275.57836
 20
4468.586106
 30
0.0
 40
7.9999
 50
270.001708
 51
352.3113
  0
ARC
  8
5
  6
CONTINUOUS
 62
     6
  5
13A
 10
2275.57836
 20
4506.591106
 30
0.0
 40
7.999999
 50
7.68901
 51
90.0
  0
LINE
  8
5
  6
CONTINUOUS
 62
     6
  5
13B
 10
2183.84936
 20
4350.086106
 30
0.0
 11
1875.61236
 21
4350.086106
 31
0.0
  0
LINE
  8
5
  6
CONTINUOUS
 62
     6
  5
13C
 10
2183.84936
 20
4397.084106
 30
0.0
 11
1930.76436
 21
4397.084106
 31
0.0
  0
ARC
  8
5
  6
CONTINUOUS
 62
     6
  5
13D
 10
1957.14436
 20
4139.850106
 30
0.0
 40
499.99996
 50
48.12701
 51
59.52301
  0
ARC
  8
5
  6
CONTINUOUS
 62
     6
  5
13E
 10
1710.98236
 20
3879.805106
 30
0.0
 40
899.99979
 50
47.45201
 51
53.76501
  0
ARC
  8
5
  6
CONTINUOUS
 62
     6
  5
13F
 10
2183.84936
 20
4450.088106
 30
0.0
 40
52.999899
 50
270.0
 51
300.4766
  0
ARC
  8
5
  6
CONTINUOUS
 62
     6
  5
140
 10
1957.14436
 20
4835.328106
 30
0.0
 40
499.99996
 50
300.47671
 51
311.87271
  0
ARC
  8
5
  6
CONTINUOUS
 62
     6
  5
141
 10
2183.84936
 20
4450.088106
 30
0.0
 40
99.999881
 50
270.0
 51
306.23471
  0
ARC
  8
5
  6
CONTINUOUS
 62
     6
  5
142
 10
1710.98236
 20
5095.369106
 30
0.0
 40
899.99979
 50
306.23471
 51
312.5485
  0
ARC
  8
5
  6
CONTINUOUS
 62
     6
  5
143
 10
2301.82436
 20
3983.355106
 30
0.0
 40
799.99998
 50
129.695
 51
138.30601
  0
ARC
  8
5
  6
CONTINUOUS
 62
     6
  5
144
 10
1948.68236
 20
4077.947106
 30
0.0
 40
499.99996
 50
112.277
 51
119.492
  0
ARC
  8
5
  6
CONTINUOUS
 62
     6
  5
145
 10
1735.84936
 20
4487.589106
 30
0.0
 40
41.999998
 50
138.21501
 51
221.698013
  0
ARC
  8
5
  6
CONTINUOUS
 62
     6
  5
146
 10
1743.84936
 20
4487.589106
 30
0.0
 40
39.999999
 50
99.04901
 51
260.951202
  0
ARC
  8
5
  6
CONTINUOUS
 62
     6
  5
147
 10
2301.82436
 20
4991.819106
 30
0.0
 40
799.99998
 50
221.694
 51
230.305007
  0
ARC
  8
5
  6
CONTINUOUS
 62
     6
  5
148
 10
1948.68236
 20
4897.227106
 30
0.0
 40
499.99897
 50
240.50801
 51
247.723007
  0
LINE
  8
5
  6
CONTINUOUS
 62
     6
  5
149
 10
1877.85236
 20
4543.588106
 30
0.0
 11
1888.85436
 21
4543.588106
 31
0.0
  0
LINE
  8
5
  6
CONTINUOUS
 62
     6
  5
14A
 10
1912.85436
 20
4455.589106
 30
0.0
 11
1912.85436
 21
4519.588106
 31
0.0
  0
LINE
  8
5
  6
CONTINUOUS
 62
     6
  5
14B
 10
1888.85436
 20
4431.590106
 30
0.0
 11
1877.85236
 21
4431.590106
 31
0.0
  0
LINE
  8
5
  6
CONTINUOUS
 62
     6
  5
14C
 10
1866.19236
 20
4434.620106
 30
0.0
 11
1865.97536
 21
4434.739106
 31
0.0
  0
ARC
  8
5
  6
CONTINUOUS
 62
     6
  5
14D
 10
1864.84836
 20
4465.591106
 30
0.0
 40
115.99999
 50
230.223007
 51
275.322204
  0
ARC
  8
5
  6
CONTINUOUS
 62
     6
  5
14E
 10
2546.85336
 20
4487.589106
 30
0.0
 40
700.00006
 50
174.604
 51
185.656006
  0
ARC
  8
5
  6
CONTINUOUS
 62
     6
  5
14F
 10
1888.85436
 20
4519.588106
 30
0.0
 40
23.999993
 50
0.0
 51
90.0
  0
ARC
  8
5
  6
CONTINUOUS
 62
     6
  5
150
 10
1864.84836
 20
4509.587106
 30
0.0
 40
88.999998
 50
110.09201
 51
125.79701
  0
ARC
  8
5
  6
CONTINUOUS
 62
     6
  5
151
 10
1743.84936
 20
4577.589106
 30
0.0
 40
39.999999
 50
292.1069
 51
311.91101
  0
ARC
  8
5
  6
CONTINUOUS
 62
     6
  5
152
 10
2104.56436
 20
4175.727106
 30
0.0
 40
499.99996
 50
125.65701
 51
131.91101
  0
ARC
  8
5
  6
CONTINUOUS
 62
     6
  5
153
 10
1907.85036
 20
4487.589106
 30
0.0
 40
120.0
 50
151.915
 51
208.073013
  0
ARC
  8
5
  6
CONTINUOUS
 62
     6
  5
154
 10
1888.85436
 20
4455.589106
 30
0.0
 40
23.999993
 50
270.0
 51
0.0
  0
ARC
  8
5
  6
CONTINUOUS
 62
     6
  5
155
 10
1877.85236
 20
4455.589106
 30
0.0
 40
23.999993
 50
240.925003
 51
270.0
  0
ARC
  8
5
  6
CONTINUOUS
 62
     6
  5
156
 10
1894.83936
 20
3539.541106
 30
0.0
 40
999.99905
 50
96.218
 51
99.04901
  0
ARC
  8
5
  6
CONTINUOUS
 62
     6
  5
157
 10
1864.84836
 20
4465.591106
 30
0.0
 40
88.999909
 50
234.203002
 51
249.908004
  0
ARC
  8
5
  6
CONTINUOUS
 62
     6
  5
158
 10
2104.56436
 20
4799.451106
 30
0.0
 40
499.99897
 50
228.089004
 51
234.343002
  0
ARC
  8
5
  6
CONTINUOUS
 62
     6
  5
159
 10
1896.16836
 20
4541.586106
 30
0.0
 40
30.000096
 50
111.90901
 51
175.083
  0
ARC
  8
5
  6
CONTINUOUS
 62
     6
  5
15A
 10
2523.85436
 20
4487.589106
 30
0.0
 40
660.0
 50
175.083
 51
184.917007
  0
ARC
  8
5
  6
CONTINUOUS
 62
     6
  5
15B
 10
1896.16836
 20
4433.591106
 30
0.0
 40
29.999901
 50
184.917007
 51
248.091003
  0
ARC
  8
5
  6
CONTINUOUS
 62
     6
  5
15C
 10
1877.85236
 20
4519.588106
 30
0.0
 40
23.999993
 50
90.0
 51
119.66801
  0
ARC
  8
5
  6
CONTINUOUS
 62
     6
  5
15D
 10
1911.67836
 20
4547.591106
 30
0.0
 40
61.999901
 50
102.402
 51
174.604
  0
ARC
  8
5
  6
CONTINUOUS
 62
     6
  5
15E
 10
1911.67836
 20
4427.586106
 30
0.0
 40
61.999996
 50
185.396011
 51
257.598007
  0
ARC
  8
5
  6
CONTINUOUS
 62
     6
  5
15F
 10
1784.35936
 20
4553.540106
 30
0.0
 40
20.000099
 50
276.218109
 51
331.8981
  0
ARC
  8
5
  6
CONTINUOUS
 62
     6
  5
160
 10
1784.35936
 20
4421.651106
 30
0.0
 40
19.999999
 50
28.10301
 51
83.78201
  0
ARC
  8
5
  6
CONTINUOUS
 62
     6
  5
161
 10
1894.83936
 20
5435.640106
 30
0.0
 40
999.99905
 50
260.951309
 51
263.782012
  0
ARC
  8
5
  6
CONTINUOUS
 62
     6
  5
162
 10
1743.84936
 20
4397.588106
 30
0.0
 40
39.999999
 50
48.089
 51
67.893
  0
ARC
  8
5
  6
CONTINUOUS
 62
     6
  5
163
 10
1967.08936
 20
4295.606106
 30
0.0
 40
319.99999
 50
93.268
 51
102.402
  0
ARC
  8
5
  6
CONTINUOUS
 62
     6
  5
164
 10
1864.84836
 20
4509.587106
 30
0.0
 40
115.99999
 50
95.322
 51
129.63301
  0
LINE
  8
6
  6
CONTINUOUS
 62
     3
  5
165
 10
1893.831798
 20
4080.531223
 30
0.0
 11
1893.831798
 21
4350.086106
 31
0.0
  0
LINE
  8
6
  6
CONTINUOUS
 62
     3
  5
166
 10
1693.831798
 20
4080.531223
 30
0.0
 11
1693.831798
 21
4107.070988
 31
0.0
  0
LINE
  8
6
  6
CONTINUOUS
 62
     3
  5
167
 10
1593.831798
 20
4080.531223
 30
0.0
 11
1593.831798
 21
4107.070988
 31
0.0
  0
LINE
  8
6
  6
CONTINUOUS
 62
     2
  5
168
 10
2761.35036
 20
4383.031223
 30
0.0
 11
2261.049959
 21
4383.031223
 31
0.0
  0
LINE
  8
6
  6
CONTINUOUS
 62
     2
  5
169
 10
2761.35036
 20
4483.031223
 30
0.0
 11
2343.713619
 21
4483.031223
 31
0.0
  0
LINE
  8
6
  6
CONTINUOUS
 62
     2
  5
16A
 10
2761.35036
 20
4583.031223
 30
0.0
 11
2272.815767
 21
4583.031223
 31
0.0
  0
LINE
  8
1
  6
CENTER
 62
     2
  5
16B
 10
2746.35036
 20
3975.531223
 30
0.0
 11
2746.35036
 21
4990.531223
 31
0.0
  0
LINE
  8
5
  6
CONTINUOUS
 62
     3
  5
16C
 10
3028.85036
 20
4028.031223
 30
0.0
 11
2828.85036
 21
4028.031223
 31
0.0
  0
LINE
  8
5
  6
CONTINUOUS
 62
     3
  5
16D
 10
3028.85036
 20
4938.031223
 30
0.0
 11
2828.85036
 21
4938.031223
 31
0.0
  0
CIRCLE
  8
5
  6
CONTINUOUS
 62
     3
  5
16E
 10
3028.85036
 20
4028.031223
 30
0.0
 40
7.5
  0
CIRCLE
  8
5
  6
CONTINUOUS
 62
     3
  5
16F
 10
3028.85036
 20
4938.031223
 30
0.0
 40
7.5
  0
CIRCLE
  8
5
  6
CONTINUOUS
 62
     3
  5
170
 10
2928.85036
 20
4938.031223
 30
0.0
 40
7.5
  0
CIRCLE
  8
5
  6
CONTINUOUS
 62
     3
  5
171
 10
2928.85036
 20
4028.031223
 30
0.0
 40
7.5
  0
LINE
  8
5
  6
CONTINUOUS
 62
     3
  5
172
 10
3028.85036
 20
4028.031223
 30
0.0
 11
3028.85036
 21
4938.031223
 31
0.0
  0
LINE
  8
6
  6
CONTINUOUS
 62
     3
  5
173
 10
2093.831798
 20
4350.086106
 30
0.0
 11
2093.831798
 21
4108.031223
 31
0.0
  0
LINE
  8
6
  6
CONTINUOUS
 62
     3
  5
174
 10
2293.831798
 20
4409.594977
 30
0.0
 11
2293.831798
 21
4108.031223
 31
0.0
  0
LINE
  8
6
  6
CONTINUOUS
 62
     3
  5
175
 10
2593.831798
 20
4108.031223
 30
0.0
 11
2593.831798
 21
4885.531223
 31
0.0
  0
LINE
  8
6
  6
CONTINUOUS
 62
     3
  5
176
 10
2493.831798
 20
4108.031223
 30
0.0
 11
2493.831798
 21
4885.531223
 31
0.0
  0
LINE
  8
6
  6
CONTINUOUS
 62
     3
  5
177
 10
2393.831798
 20
4108.031223
 30
0.0
 11
2393.831798
 21
4885.531223
 31
0.0
  0
LINE
  8
6
  6
CONTINUOUS
 62
     3
  5
178
 10
1993.831798
 20
4080.531223
 30
0.0
 11
1993.831798
 21
4350.086106
 31
0.0
  0
LINE
  8
2
  6
CONTINUOUS
 62
     5
  5
179
 10
2678.85036
 20
4233.531223
 30
0.0
 11
2813.85036
 21
4233.531223
 31
0.0
  0
LINE
  8
3
  6
CONTINUOUS
 62
     5
  5
17A
 10
2731.35036
 20
4273.531223
 30
0.0
 11
2761.35036
 21
4273.531223
 31
0.0
  0
LINE
  8
3
  6
CONTINUOUS
 62
     5
  5
17B
 10
2731.35036
 20
4273.531223
 30
0.0
 11
2731.35036
 21
4258.531223
 31
0.0
  0
LINE
  8
3
  6
CONTINUOUS
 62
     5
  5
17C
 10
2761.35036
 20
4273.531223
 30
0.0
 11
2761.35036
 21
4258.531223
 31
0.0
  0
LINE
  8
2
  6
CONTINUOUS
 62
     5
  5
17D
 10
2798.85036
 20
3975.531223
 30
0.0
 11
2798.85036
 21
4233.531223
 31
0.0
  0
LINE
  8
2
  6
CONTINUOUS
 62
     5
  5
17E
 10
2693.85036
 20
4080.531223
 30
0.0
 11
2693.85036
 21
4233.531223
 31
0.0
  0
CIRCLE
  8
5
  6
CONTINUOUS
 62
     3
  5
17F
 10
2928.85036
 20
4258.031223
 30
0.0
 40
7.5
  0
LINE
  8
3
  6
CONTINUOUS
 62
     5
  5
180
 10
2813.85036
 20
4258.031223
 30
0.0
 11
2813.85036
 21
4233.531223
 31
0.0
  0
LINE
  8
3
  6
CONTINUOUS
 62
     5
  5
181
 10
2678.85036
 20
4258.031223
 30
0.0
 11
2678.85036
 21
4233.531223
 31
0.0
  0
LINE
  8
3
  6
CONTINUOUS
 62
     5
  5
182
 10
2678.85036
 20
4258.031223
 30
0.0
 11
2813.85036
 21
4258.031223
 31
0.0
  0
LINE
  8
3
  6
CONTINUOUS
 62
     5
  5
183
 10
2798.85036
 20
4883.531223
 30
0.0
 11
2693.85036
 21
4883.531223
 31
0.0
  0
LINE
  8
2
  6
CONTINUOUS
 62
     5
  5
184
 10
2678.85036
 20
4883.531223
 30
0.0
 11
2813.85036
 21
4883.531223
 31
0.0
  0
LINE
  8
3
  6
CONTINUOUS
 62
     5
  5
185
 10
2731.35036
 20
4843.531223
 30
0.0
 11
2761.35036
 21
4843.531223
 31
0.0
  0
LINE
  8
3
  6
CONTINUOUS
 62
     5
  5
186
 10
2731.35036
 20
4843.531223
 30
0.0
 11
2731.35036
 21
4858.531223
 31
0.0
  0
LINE
  8
3
  6
CONTINUOUS
 62
     5
  5
187
 10
2761.35036
 20
4843.531223
 30
0.0
 11
2761.35036
 21
4858.531223
 31
0.0
  0
LINE
  8
3
  6
CONTINUOUS
 62
     5
  5
188
 10
2798.85036
 20
4990.531223
 30
0.0
 11
2798.85036
 21
4883.531223
 31
0.0
  0
LINE
  8
3
  6
CONTINUOUS
 62
     5
  5
189
 10
2798.85036
 20
4883.531223
 30
0.0
 11
2813.85036
 21
4883.531223
 31
0.0
  0
CIRCLE
  8
5
  6
CONTINUOUS
 62
     3
  5
18A
 10
2928.85036
 20
4858.031223
 30
0.0
 40
7.5
  0
LINE
  8
3
  6
CONTINUOUS
 62
     5
  5
18B
 10
2813.85036
 20
4858.031223
 30
0.0
 11
2813.85036
 21
4883.531223
 31
0.0
  0
LINE
  8
1
  6
CONTINUOUS
 62
     2
  5
18C
 10
2691.195552
 20
4858.678409
 30
0.0
 11
2688.548365
 21
4855.531223
 31
0.0
  0
LINE
  8
3
  6
CONTINUOUS
 62
     5
  5
18D
 10
2678.85036
 20
4858.031223
 30
0.0
 11
2678.85036
 21
4883.531223
 31
0.0
  0
LINE
  8
3
  6
CONTINUOUS
 62
     5
  5
18E
 10
2678.85036
 20
4858.031223
 30
0.0
 11
2813.85036
 21
4858.031223
 31
0.0
  0
LINE
  8
4
  6
CONTINUOUS
 62
     6
  5
18F
 10
2761.35036
 20
4273.531223
 30
0.0
 11
2761.35036
 21
4843.531223
 31
0.0
  0
LINE
  8
4
  6
CONTINUOUS
 62
     6
  5
190
 10
2813.85036
 20
4258.031223
 30
0.0
 11
2813.85036
 21
4834.643265
 31
0.0
  0
LINE
  8
5
  6
CONTINUOUS
 62
     3
  5
191
 10
2928.85036
 20
4858.031223
 30
0.0
 11
2928.85036
 21
4258.031223
 31
0.0
  0
LINE
  8
4
  6
CONTINUOUS
 62
     6
  5
192
 10
3413.85036
 20
4834.643265
 30
0.0
 11
2761.35036
 21
4834.643265
 31
0.0
  0
LINE
  8
3
  6
CONTINUOUS
 62
     5
  5
193
 10
2798.85036
 20
4990.531223
 30
0.0
 11
1676.35036
 21
4990.531223
 31
0.0
  0
LINE
  8
5
  6
CONTINUOUS
 62
     3
  5
194
 10
2928.85036
 20
4258.031223
 30
0.0
 11
2928.85036
 21
4028.031223
 31
0.0
  0
LINE
  8
5
  6
CONTINUOUS
 62
     3
  5
195
 10
2928.85036
 20
4258.031223
 30
0.0
 11
2828.85036
 21
4258.031223
 31
0.0
  0
LINE
  8
5
  6
CONTINUOUS
 62
     3
  5
196
 10
2928.85036
 20
4858.031223
 30
0.0
 11
2828.85036
 21
4858.031223
 31
0.0
  0
LINE
  8
5
  6
CONTINUOUS
 62
     3
  5
197
 10
2928.85036
 20
4938.031223
 30
0.0
 11
2928.85036
 21
4858.031223
 31
0.0
  0
LINE
  8
6
  6
CONTINUOUS
 62
     3
  5
198
 10
2693.831798
 20
4258.531223
 30
0.0
 11
2693.831798
 21
4858.031223
 31
0.0
  0
LINE
  8
3
  6
CONTINUOUS
 62
     6
  5
199
 10
2062.200353
 20
4017.031234
 30
0.0
 11
2062.200353
 21
3996.031238
 31
0.0
  0
LINE
  8
3
  6
CONTINUOUS
 62
     6
  5
19A
 10
2366.700202
 20
3961.031244
 30
0.0
 11
2321.70021
 21
3961.031244
 31
0.0
  0
LINE
  8
3
  6
CONTINUOUS
 62
     6
  5
19B
 10
2366.700202
 20
3982.031241
 30
0.0
 11
2321.70021
 21
3982.031241
 31
0.0
  0
LINE
  8
3
  6
CONTINUOUS
 62
     6
  5
19C
 10
2349.700205
 20
3993.031239
 30
0.0
 11
2321.70021
 21
3993.031239
 31
0.0
  0
LINE
  8
3
  6
CONTINUOUS
 62
     6
  5
19D
 10
2354.700204
 20
3961.031244
 30
0.0
 11
2354.700204
 21
3982.031241
 31
0.0
  0
LINE
  8
3
  6
CONTINUOUS
 62
     6
  5
19E
 10
2321.70021
 20
3961.031244
 30
0.0
 11
2321.70021
 21
3993.031239
 31
0.0
  0
LINE
  8
3
  6
CONTINUOUS
 62
     6
  5
19F
 10
2366.700202
 20
3995.031238
 30
0.0
 11
2321.70021
 21
3995.031238
 31
0.0
  0
LINE
  8
3
  6
CONTINUOUS
 62
     6
  5
1A0
 10
2366.700202
 20
4017.031234
 30
0.0
 11
2321.70021
 21
4017.031234
 31
0.0
  0
LINE
  8
3
  6
CONTINUOUS
 62
     6
  5
1A1
 10
2366.700202
 20
4043.03123
 30
0.0
 11
2321.70021
 21
4043.03123
 31
0.0
  0
LINE
  8
3
  6
CONTINUOUS
 62
     6
  5
1A2
 10
2366.700202
 20
3995.031238
 30
0.0
 11
2366.700202
 21
4043.03123
 31
0.0
  0
LINE
  8
3
  6
CONTINUOUS
 62
     6
  5
1A3
 10
2321.70021
 20
4017.031234
 30
0.0
 11
2321.70021
 21
4043.03123
 31
0.0
  0
LINE
  8
3
  6
CONTINUOUS
 62
     6
  5
1A4
 10
2333.700208
 20
3995.031238
 30
0.0
 11
2333.700208
 21
4017.031234
 31
0.0
  0
LINE
  8
3
  6
CONTINUOUS
 62
     5
  5
1A5
 10
2328.700208
 20
4007.031236
 30
0.0
 11
2067.200352
 21
4007.031236
 31
0.0
  0
LINE
  8
1
  6
CONTINUOUS
 62
     5
  5
1A6
 10
2691.195552
 20
4045.531223
 30
0.0
 11
2691.195552
 21
4108.031223
 31
0.0
  0
LINE
  8
1
  6
CONTINUOUS
 62
     2
  5
1A7
 10
2691.195552
 20
4091.241901
 30
0.0
 11
2674.40623
 21
4108.031223
 31
0.0
  0
LINE
  8
3
  6
CONTINUOUS
 62
     5
  5
1A8
 10
2678.85036
 20
4105.531223
 30
0.0
 11
2678.85036
 21
4080.531223
 31
0.0
  0
LINE
  8
5
  6
CONTINUOUS
 62
     3
  5
1A9
 10
2746.35036
 20
5220.531223
 30
0.0
 11
2746.35036
 21
5020.531223
 31
0.0
  0
CIRCLE
  8
5
  6
CONTINUOUS
 62
     3
  5
1AA
 10
2746.35036
 20
5220.531223
 30
0.0
 40
7.5
  0
LINE
  8
5
  6
CONTINUOUS
 62
     3
  5
1AB
 10
2746.35036
 20
3745.531223
 30
0.0
 11
2746.35036
 21
3945.531223
 31
0.0
  0
CIRCLE
  8
5
  6
CONTINUOUS
 62
     3
  5
1AC
 10
2746.35036
 20
3745.531223
 30
0.0
 40
7.5
  0
CIRCLE
  8
5
  6
CONTINUOUS
 62
     3
  5
1AD
 10
2746.35036
 20
3845.531223
 30
0.0
 40
7.5
  0
LINE
  8
1
  6
CONTINUOUS
 62
     2
  5
1AE
 10
2680.337687
 20
4045.531223
 30
0.0
 11
2666.345552
 21
4059.673358
 31
0.0
  0
LINE
  8
1
  6
CONTINUOUS
 62
     2
  5
1AF
 10
2691.195552
 20
4048.815494
 30
0.0
 11
2666.345552
 21
4073.815494
 31
0.0
  0
LINE
  8
3
  6
CONTINUOUS
 62
     6
  5
1B0
 10
2359.700203
 20
3972.031242
 30
0.0
 11
2621.350059
 21
3972.031242
 31
0.0
  0
LINE
  8
3
  6
CONTINUOUS
 62
     6
  5
1B1
 10
2626.350058
 20
3982.031241
 30
0.0
 11
2626.350058
 21
3961.031244
 31
0.0
  0
LINE
  8
3
  6
CONTINUOUS
 62
     6
  5
1B2
 10
2614.35006
 20
3961.031244
 30
0.0
 11
2664.350051
 21
3961.031244
 31
0.0
  0
LINE
  8
3
  6
CONTINUOUS
 62
     6
  5
1B3
 10
2614.35006
 20
3982.031241
 30
0.0
 11
2664.350051
 21
3982.031241
 31
0.0
  0
LINE
  8
3
  6
CONTINUOUS
 62
     6
  5
1B4
 10
2653.350053
 20
3982.031241
 30
0.0
 11
2653.350053
 21
3961.031244
 31
0.0
  0
LINE
  8
3
  6
CONTINUOUS
 62
     6
  5
1B5
 10
2666.350051
 20
4023.031233
 30
0.0
 11
2666.350051
 21
3953.031246
 31
0.0
  0
LINE
  8
3
  6
CONTINUOUS
 62
     6
  5
1B6
 10
2666.350051
 20
4023.031233
 30
0.0
 11
2666.350051
 21
4108.031223
 31
0.0
  0
LINE
  8
3
  6
CONTINUOUS
 62
     5
  5
1B7
 10
2376.7002
 20
4023.031233
 30
0.0
 11
2666.350051
 21
4023.031233
 31
0.0
  0
LINE
  8
1
  6
CONTINUOUS
 62
     2
  5
1B8
 10
2691.195552
 20
4062.957629
 30
0.0
 11
2666.345552
 21
4087.957629
 31
0.0
  0
LINE
  8
1
  6
CONTINUOUS
 62
     2
  5
1B9
 10
2691.195552
 20
4077.099765
 30
0.0
 11
2666.345552
 21
4102.099765
 31
0.0
  0
LINE
  8
1
  6
CONTINUOUS
 62
     5
  5
1BA
 10
2666.345552
 20
4108.031223
 30
0.0
 11
2691.195552
 21
4108.031223
 31
0.0
  0
CIRCLE
  8
5
  6
CONTINUOUS
 62
     3
  5
1BB
 10
2666.350051
 20
3845.531223
 30
0.0
 40
7.5
  0
LINE
  8
1
  6
CONTINUOUS
 62
     7
  5
1BC
 10
2033.70036
 20
3975.531223
 30
0.0
 11
1993.70036
 21
3975.531223
 31
0.0
  0
LINE
  8
1
  6
CONTINUOUS
 62
     2
  5
1BD
 10
2010.492496
 20
4045.531223
 30
0.0
 11
1996.35036
 21
4059.673358
 31
0.0
  0
LINE
  8
1
  6
CONTINUOUS
 62
     2
  5
1BE
 10
2021.35036
 20
4048.815494
 30
0.0
 11
1996.35036
 21
4073.815494
 31
0.0
  0
LINE
  8
1
  6
CONTINUOUS
 62
     2
  5
1BF
 10
2021.35036
 20
4062.957629
 30
0.0
 11
1996.35036
 21
4087.957629
 31
0.0
  0
LINE
  8
1
  6
CONTINUOUS
 62
     2
  5
1C0
 10
2021.35036
 20
4077.099765
 30
0.0
 11
1996.35036
 21
4102.099765
 31
0.0
  0
LINE
  8
1
  6
CONTINUOUS
 62
     2
  5
1C1
 10
2021.35036
 20
4091.241901
 30
0.0
 11
2004.561039
 21
4108.031223
 31
0.0
  0
LINE
  8
1
  6
CONTINUOUS
 62
     2
  5
1C2
 10
2021.35036
 20
4105.384036
 30
0.0
 11
2018.703174
 21
4108.031223
 31
0.0
  0
LINE
  8
3
  6
CONTINUOUS
 62
     6
  5
1C3
 10
2074.200351
 20
3996.031238
 30
0.0
 11
2024.35036
 21
3996.031238
 31
0.0
  0
LINE
  8
3
  6
CONTINUOUS
 62
     6
  5
1C4
 10
2074.200351
 20
4017.031234
 30
0.0
 11
2024.35036
 21
4017.031234
 31
0.0
  0
LINE
  8
3
  6
CONTINUOUS
 62
     6
  5
1C5
 10
2035.350358
 20
4017.031234
 30
0.0
 11
2035.350358
 21
3996.031238
 31
0.0
  0
LINE
  8
3
  6
CONTINUOUS
 62
     6
  5
1C6
 10
2311.700212
 20
4023.031233
 30
0.0
 11
2021.35036
 21
4023.031233
 31
0.0
  0
LINE
  8
3
  6
CONTINUOUS
 62
     6
  5
1C7
 10
2036.350358
 20
4023.031233
 30
0.0
 11
2021.35036
 21
4023.031233
 31
0.0
  0
LINE
  8
2
  6
CONTINUOUS
 62
     5
  5
1C8
 10
1993.70036
 20
3975.531223
 30
0.0
 11
1993.70036
 21
4080.531223
 31
0.0
  0
LINE
  8
1
  6
CONTINUOUS
 62
     5
  5
1C9
 10
1996.35036
 20
4108.031223
 30
0.0
 11
1996.35036
 21
4045.531223
 31
0.0
  0
LINE
  8
10
  6
CENTER
 62
     3
  5
1CA
 10
2013.706628
 20
4112.121486
 30
0.0
 11
2013.706628
 21
4031.987516
 31
0.0
  0
LINE
  8
6
  6
CONTINUOUS
 62
     3
  5
1CB
 10
1993.981798
 20
4080.531223
 30
0.0
 11
1993.981798
 21
4108.031223
 31
0.0
  0
LINE
  8
1
  6
CONTINUOUS
 62
     5
  5
1CC
 10
1996.35036
 20
4108.031223
 30
0.0
 11
2021.35036
 21
4108.031223
 31
0.0
  0
CIRCLE
  8
5
  6
CONTINUOUS
 62
     3
  5
1CD
 10
2021.35036
 20
3845.531223
 30
0.0
 40
7.5
  0
LINE
  8
3
  6
CONTINUOUS
 62
     6
  5
1CE
 10
2021.35036
 20
4108.031223
 30
0.0
 11
2666.350051
 21
4108.031223
 31
0.0
  0
LINE
  8
5
  6
CONTINUOUS
 62
     3
  5
1CF
 10
2666.350051
 20
3845.531223
 30
0.0
 11
2021.35036
 21
3845.531223
 31
0.0
  0
LINE
  8
5
  6
CONTINUOUS
 62
     3
  5
1D0
 10
2746.35036
 20
3845.531223
 30
0.0
 11
2666.350051
 21
3845.531223
 31
0.0
  0
LINE
  8
5
  6
CONTINUOUS
 62
     3
  5
1D1
 10
2666.350051
 20
3845.531223
 30
0.0
 11
2666.350051
 21
3945.531223
 31
0.0
  0
LINE
  8
5
  6
CONTINUOUS
 62
     3
  5
1D2
 10
2021.35036
 20
3845.531223
 30
0.0
 11
2021.35036
 21
3945.531223
 31
0.0
  0
LINE
  8
3
  6
CONTINUOUS
 62
     6
  5
1D3
 10
2021.35036
 20
3953.031246
 30
0.0
 11
2666.350051
 21
3953.031246
 31
0.0
  0
LINE
  8
1
  6
CONTINUOUS
 62
     5
  5
1D4
 10
2021.35036
 20
4108.031223
 30
0.0
 11
2021.35036
 21
4045.531223
 31
0.0
  0
LINE
  8
1
  6
CONTINUOUS
 62
     2
  5
1D5
 10
2033.70036
 20
3975.531223
 30
0.0
 11
2654.00036
 21
3975.531223
 31
0.0
  0
LINE
  8
3
  6
CONTINUOUS
 62
     6
  5
1D6
 10
2021.35036
 20
4023.031233
 30
0.0
 11
2021.35036
 21
3953.031246
 31
0.0
  0
LINE
  8
3
  6
CONTINUOUS
 62
     6
  5
1D7
 10
2021.35036
 20
4023.031233
 30
0.0
 11
2021.35036
 21
4108.031223
 31
0.0
  0
LINE
  8
1
  6
CONTINUOUS
 62
     5
  5
1D8
 10
2666.345552
 20
4045.531223
 30
0.0
 11
2666.345552
 21
4108.031223
 31
0.0
  0
LINE
  8
2
  6
CONTINUOUS
 62
     5
  5
1D9
 10
2673.85036
 20
3975.531223
 30
0.0
 11
2798.85036
 21
3975.531223
 31
0.0
  0
LINE
  8
1
  6
CONTINUOUS
 62
     5
  5
1DA
 10
2673.85036
 20
3975.531223
 30
0.0
 11
2673.85036
 21
4045.531223
 31
0.0
  0
LINE
  8
1
  6
CONTINUOUS
 62
     5
  5
1DB
 10
2013.70036
 20
3975.531223
 30
0.0
 11
2013.70036
 21
4045.531223
 31
0.0
  0
LINE
  8
1
  6
CONTINUOUS
 62
     5
  5
1DC
 10
2013.70036
 20
4045.531223
 30
0.0
 11
1993.70036
 21
4045.531223
 31
0.0
  0
LINE
  8
1
  6
CONTINUOUS
 62
     5
  5
1DD
 10
2673.85036
 20
4045.531223
 30
0.0
 11
2693.85036
 21
4045.531223
 31
0.0
  0
LINE
  8
1
  6
CONTINUOUS
 62
     2
  5
1DE
 10
2673.85036
 20
4045.531223
 30
0.0
 11
2013.70036
 21
4045.531223
 31
0.0
  0
LINE
  8
6
  6
CONTINUOUS
 62
     6
  5
1DF
 10
2193.831798
 20
4350.086106
 30
0.0
 11
2193.831798
 21
4108.031223
 31
0.0
  0
LINE
  8
6
  6
CONTINUOUS
 62
     3
  5
1E0
 10
1593.831798
 20
4374.270982
 30
0.0
 11
1593.831798
 21
4504.54605
 31
0.0
  0
LINE
  8
6
  6
CONTINUOUS
 62
     3
  5
1E1
 10
1593.831798
 20
4652.041056
 30
0.0
 11
1593.831798
 21
4885.531223
 31
0.0
  0
LINE
  8
7
  6
CONTINUOUS
 62
     3
  5
1E2
 10
2198.378944
 20
4865.132282
 30
0.0
 11
2198.378944
 21
4835.082073
 31
0.0
  0
LINE
  8
40
  6
CONTINUOUS
 62
     4
  5
1E3
 10
2199.839844
 20
4865.082323
 30
0.0
 11
2169.017304
 21
4865.082323
 31
0.0
  0
LINE
  8
40
  6
CONTINUOUS
 62
     4
  5
1E4
 10
2162.773864
 20
4867.082293
 30
0.0
 11
2206.054864
 21
4867.082293
 31
0.0
  0
LINE
  8
40
  6
CONTINUOUS
 62
     4
  5
1E5
 10
2139.379024
 20
4885.082303
 30
0.0
 11
2139.379024
 21
4874.595393
 31
0.0
  0
LINE
  8
40
  6
CONTINUOUS
 62
     4
  5
1E6
 10
2229.379004
 20
4885.082303
 30
0.0
 11
2229.379004
 21
4874.566763
 31
0.0
  0
LINE
  8
40
  6
CONTINUOUS
 62
     4
  5
1E7
 10
2228.632944
 20
4873.082343
 30
0.0
 11
2140.168484
 21
4873.082343
 31
0.0
  0
ARC
  8
40
  6
CONTINUOUS
 62
     4
  5
1E8
 10
2141.378924
 20
4874.698083
 30
0.0
 40
2.00004
 50
180.0
 51
255.529705
  0
ARC
  8
40
  6
CONTINUOUS
 62
     4
  5
1E9
 10
2227.377284
 20
4874.655033
 30
0.0
 40
2.00004
 50
284.069648
 51
360.0
  0
LINE
  8
1
  6
CONTINUOUS
 62
     4
  5
1EA
 10
2152.068064
 20
4892.268363
 30
0.0
 11
2156.068144
 21
4892.963393
 31
0.0
  0
LINE
  8
1
  6
CONTINUOUS
 62
     4
  5
1EB
 10
2152.068064
 20
4895.304683
 30
0.0
 11
2156.068144
 21
4896.013923
 31
0.0
  0
LINE
  8
1
  6
CONTINUOUS
 62
     4
  5
1EC
 10
2152.068064
 20
4898.357803
 30
0.0
 11
2156.068144
 21
4899.067043
 31
0.0
  0
LINE
  8
1
  6
CONTINUOUS
 62
     4
  5
1ED
 10
2152.068064
 20
4901.410923
 30
0.0
 11
2156.068144
 21
4902.120093
 31
0.0
  0
LINE
  8
1
  6
CONTINUOUS
 62
     4
  5
1EE
 10
2152.068064
 20
4904.461383
 30
0.0
 11
2156.068144
 21
4905.156343
 31
0.0
  0
LINE
  8
1
  6
CONTINUOUS
 62
     4
  5
1EF
 10
2152.068064
 20
4907.497493
 30
0.0
 11
2156.068144
 21
4908.206733
 31
0.0
  0
LINE
  8
1
  6
CONTINUOUS
 62
     4
  5
1F0
 10
2155.672924
 20
4891.373203
 30
0.0
 11
2152.463284
 21
4890.805573
 31
0.0
  0
LINE
  8
1
  6
CONTINUOUS
 62
     4
  5
1F1
 10
2155.672924
 20
4894.406653
 30
0.0
 11
2152.463284
 21
4893.839093
 31
0.0
  0
LINE
  8
1
  6
CONTINUOUS
 62
     4
  5
1F2
 10
2155.672924
 20
4897.459773
 30
0.0
 11
2152.463284
 21
4896.892213
 31
0.0
  0
LINE
  8
1
  6
CONTINUOUS
 62
     4
  5
1F3
 10
2155.672924
 20
4900.512893
 30
0.0
 11
2152.463284
 21
4899.945403
 31
0.0
  0
LINE
  8
1
  6
CONTINUOUS
 62
     4
  5
1F4
 10
2155.672924
 20
4903.566083
 30
0.0
 11
2152.463284
 21
4902.998523
 31
0.0
  0
LINE
  8
1
  6
CONTINUOUS
 62
     4
  5
1F5
 10
2155.672924
 20
4906.599603
 30
0.0
 11
2152.463284
 21
4906.032043
 31
0.0
  0
LINE
  8
1
  6
CONTINUOUS
 62
     4
  5
1F6
 10
2155.672924
 20
4909.652723
 30
0.0
 11
2152.463284
 21
4909.085093
 31
0.0
  0
LINE
  8
1
  6
CONTINUOUS
 62
     4
  5
1F7
 10
2152.068064
 20
4889.216993
 30
0.0
 11
2156.068144
 21
4889.921193
 31
0.0
  0
LINE
  8
1
  6
CONTINUOUS
 62
     4
  5
1F8
 10
2154.068104
 20
4879.082323
 30
0.0
 11
2149.818124
 21
4879.082323
 31
0.0
  0
LINE
  8
1
  6
CONTINUOUS
 62
     4
  5
1F9
 10
2152.068064
 20
4883.170463
 30
0.0
 11
2156.068144
 21
4883.879703
 31
0.0
  0
LINE
  8
1
  6
CONTINUOUS
 62
     4
  5
1FA
 10
2152.068064
 20
4886.184313
 30
0.0
 11
2156.068144
 21
4886.893553
 31
0.0
  0
LINE
  8
1
  6
CONTINUOUS
 62
     4
  5
1FB
 10
2155.672924
 20
4882.292033
 30
0.0
 11
2152.463284
 21
4881.724473
 31
0.0
  0
LINE
  8
1
  6
CONTINUOUS
 62
     4
  5
1FC
 10
2155.672924
 20
4885.305953
 30
0.0
 11
2152.463284
 21
4884.738393
 31
0.0
  0
LINE
  8
1
  6
CONTINUOUS
 62
     4
  5
1FD
 10
2155.672924
 20
4888.339543
 30
0.0
 11
2152.463284
 21
4887.771983
 31
0.0
  0
LINE
  8
1
  6
CONTINUOUS
 62
     4
  5
1FE
 10
2151.465084
 20
4879.082323
 30
0.0
 11
2152.668104
 21
4880.285273
 31
0.0
  0
LINE
  8
1
  6
CONTINUOUS
 62
     4
  5
1FF
 10
2151.465084
 20
4879.082323
 30
0.0
 11
2149.818124
 21
4879.082323
 31
0.0
  0
LINE
  8
1
  6
CONTINUOUS
 62
     4
  5
200
 10
2156.671124
 20
4879.082323
 30
0.0
 11
2155.468104
 21
4880.285273
 31
0.0
  0
LINE
  8
1
  6
CONTINUOUS
 62
     4
  5
201
 10
2156.671124
 20
4879.082323
 30
0.0
 11
2158.318084
 21
4879.082323
 31
0.0
  0
LINE
  8
1
  6
CONTINUOUS
 62
     4
  5
202
 10
2155.672924
 20
4880.765473
 30
0.0
 11
2152.463284
 21
4880.197983
 31
0.0
  0
LINE
  8
1
  6
CONTINUOUS
 62
     4
  5
203
 10
2153.461344
 20
4875.591283
 30
0.0
 11
2154.674864
 21
4875.591283
 31
0.0
  0
LINE
  8
1
  6
CONTINUOUS
 62
     4
  5
204
 10
2153.461344
 20
4875.082313
 30
0.0
 11
2153.461344
 21
4875.591283
 31
0.0
  0
LINE
  8
1
  6
CONTINUOUS
 62
     4
  5
205
 10
2154.674864
 20
4875.082313
 30
0.0
 11
2154.674864
 21
4875.591283
 31
0.0
  0
LINE
  8
1
  6
CONTINUOUS
 62
     4
  5
206
 10
2153.461344
 20
4875.082313
 30
0.0
 11
2154.674864
 21
4875.082313
 31
0.0
  0
LINE
  8
1
  6
CONTINUOUS
 62
     4
  5
207
 10
2152.068064
 20
4910.550613
 30
0.0
 11
2156.068144
 21
4911.259853
 31
0.0
  0
LINE
  8
1
  6
CONTINUOUS
 62
     4
  5
208
 10
2155.459424
 20
4914.205033
 30
0.0
 11
2152.574444
 21
4913.693473
 31
0.0
  0
LINE
  8
1
  6
CONTINUOUS
 62
     4
  5
209
 10
2155.672924
 20
4912.705773
 30
0.0
 11
2152.463284
 21
4912.138213
 31
0.0
  0
LINE
  8
1
  6
CONTINUOUS
 62
     4
  5
20A
 10
2155.166544
 20
4915.669293
 30
0.0
 11
2152.889164
 21
4915.266653
 31
0.0
  0
LINE
  8
1
  6
CONTINUOUS
 62
     4
  5
20B
 10
2212.689884
 20
4892.268363
 30
0.0
 11
2216.689824
 21
4892.963393
 31
0.0
  0
LINE
  8
1
  6
CONTINUOUS
 62
     4
  5
20C
 10
2212.689884
 20
4895.304683
 30
0.0
 11
2216.689824
 21
4896.013923
 31
0.0
  0
LINE
  8
1
  6
CONTINUOUS
 62
     4
  5
20D
 10
2212.689884
 20
4898.357803
 30
0.0
 11
2216.689824
 21
4899.067043
 31
0.0
  0
LINE
  8
1
  6
CONTINUOUS
 62
     4
  5
20E
 10
2212.689884
 20
4901.410923
 30
0.0
 11
2216.689824
 21
4902.120093
 31
0.0
  0
LINE
  8
1
  6
CONTINUOUS
 62
     4
  5
20F
 10
2212.689884
 20
4904.461383
 30
0.0
 11
2216.689824
 21
4905.156343
 31
0.0
  0
LINE
  8
1
  6
CONTINUOUS
 62
     4
  5
210
 10
2212.689884
 20
4907.497493
 30
0.0
 11
2216.689824
 21
4908.206733
 31
0.0
  0
LINE
  8
1
  6
CONTINUOUS
 62
     4
  5
211
 10
2216.294744
 20
4891.373203
 30
0.0
 11
2213.084964
 21
4890.805573
 31
0.0
  0
LINE
  8
1
  6
CONTINUOUS
 62
     4
  5
212
 10
2216.294744
 20
4894.406653
 30
0.0
 11
2213.084964
 21
4893.839093
 31
0.0
  0
LINE
  8
1
  6
CONTINUOUS
 62
     4
  5
213
 10
2216.294744
 20
4897.459773
 30
0.0
 11
2213.084964
 21
4896.892213
 31
0.0
  0
LINE
  8
1
  6
CONTINUOUS
 62
     4
  5
214
 10
2216.294744
 20
4900.512893
 30
0.0
 11
2213.084964
 21
4899.945403
 31
0.0
  0
LINE
  8
1
  6
CONTINUOUS
 62
     4
  5
215
 10
2216.294744
 20
4903.566083
 30
0.0
 11
2213.084964
 21
4902.998523
 31
0.0
  0
LINE
  8
1
  6
CONTINUOUS
 62
     4
  5
216
 10
2216.294744
 20
4906.599603
 30
0.0
 11
2213.084964
 21
4906.032043
 31
0.0
  0
LINE
  8
1
  6
CONTINUOUS
 62
     4
  5
217
 10
2216.294744
 20
4909.652723
 30
0.0
 11
2213.084964
 21
4909.085093
 31
0.0
  0
LINE
  8
1
  6
CONTINUOUS
 62
     4
  5
218
 10
2212.689884
 20
4889.216993
 30
0.0
 11
2216.689824
 21
4889.921193
 31
0.0
  0
LINE
  8
1
  6
CONTINUOUS
 62
     4
  5
219
 10
2214.689924
 20
4879.082323
 30
0.0
 11
2210.439804
 21
4879.082323
 31
0.0
  0
LINE
  8
1
  6
CONTINUOUS
 62
     4
  5
21A
 10
2212.689884
 20
4883.170463
 30
0.0
 11
2216.689824
 21
4883.879703
 31
0.0
  0
LINE
  8
1
  6
CONTINUOUS
 62
     4
  5
21B
 10
2212.689884
 20
4886.184313
 30
0.0
 11
2216.689824
 21
4886.893553
 31
0.0
  0
LINE
  8
1
  6
CONTINUOUS
 62
     4
  5
21C
 10
2216.294744
 20
4882.292033
 30
0.0
 11
2213.084964
 21
4881.724473
 31
0.0
  0
LINE
  8
1
  6
CONTINUOUS
 62
     4
  5
21D
 10
2216.294744
 20
4885.305953
 30
0.0
 11
2213.084964
 21
4884.738393
 31
0.0
  0
LINE
  8
1
  6
CONTINUOUS
 62
     4
  5
21E
 10
2216.294744
 20
4888.339543
 30
0.0
 11
2213.084964
 21
4887.771983
 31
0.0
  0
LINE
  8
1
  6
CONTINUOUS
 62
     4
  5
21F
 10
2212.086904
 20
4879.082323
 30
0.0
 11
2213.289924
 21
4880.285273
 31
0.0
  0
LINE
  8
1
  6
CONTINUOUS
 62
     4
  5
220
 10
2212.086904
 20
4879.082323
 30
0.0
 11
2210.439804
 21
4879.082323
 31
0.0
  0
LINE
  8
1
  6
CONTINUOUS
 62
     4
  5
221
 10
2217.292804
 20
4879.082323
 30
0.0
 11
2216.089924
 21
4880.285273
 31
0.0
  0
LINE
  8
1
  6
CONTINUOUS
 62
     4
  5
222
 10
2217.292804
 20
4879.082323
 30
0.0
 11
2218.939904
 21
4879.082323
 31
0.0
  0
LINE
  8
1
  6
CONTINUOUS
 62
     4
  5
223
 10
2216.294744
 20
4880.765473
 30
0.0
 11
2213.084964
 21
4880.197983
 31
0.0
  0
LINE
  8
1
  6
CONTINUOUS
 62
     4
  5
224
 10
2214.083164
 20
4875.591283
 30
0.0
 11
2215.296544
 21
4875.591283
 31
0.0
  0
LINE
  8
1
  6
CONTINUOUS
 62
     4
  5
225
 10
2214.083164
 20
4875.082313
 30
0.0
 11
2214.083164
 21
4875.591283
 31
0.0
  0
LINE
  8
1
  6
CONTINUOUS
 62
     4
  5
226
 10
2215.296544
 20
4875.082313
 30
0.0
 11
2215.296544
 21
4875.591283
 31
0.0
  0
LINE
  8
1
  6
CONTINUOUS
 62
     4
  5
227
 10
2214.083164
 20
4875.082313
 30
0.0
 11
2215.296544
 21
4875.082313
 31
0.0
  0
LINE
  8
1
  6
CONTINUOUS
 62
     4
  5
228
 10
2212.689884
 20
4910.550613
 30
0.0
 11
2216.689824
 21
4911.259853
 31
0.0
  0
LINE
  8
1
  6
CONTINUOUS
 62
     4
  5
229
 10
2216.081104
 20
4914.205033
 30
0.0
 11
2213.196264
 21
4913.693473
 31
0.0
  0
LINE
  8
1
  6
CONTINUOUS
 62
     4
  5
22A
 10
2216.294744
 20
4912.705773
 30
0.0
 11
2213.084964
 21
4912.138213
 31
0.0
  0
LINE
  8
1
  6
CONTINUOUS
 62
     4
  5
22B
 10
2215.788364
 20
4915.669293
 30
0.0
 11
2213.510844
 21
4915.266653
 31
0.0
  0
LINE
  8
40
  6
CONTINUOUS
 62
     4
  5
22C
 10
2229.353944
 20
4885.082303
 30
0.0
 11
2229.353944
 21
4874.566763
 31
0.0
  0
LINE
  8
40
  6
CONTINUOUS
 62
     4
  5
22D
 10
2226.853964
 20
4872.449823
 30
0.0
 11
2226.853964
 21
4880.082343
 31
0.0
  0
LINE
  8
40
  6
CONTINUOUS
 62
     4
  5
22E
 10
2166.648924
 20
4866.082343
 30
0.0
 11
2202.179944
 21
4866.082343
 31
0.0
  0
LINE
  8
40
  6
CONTINUOUS
 62
     4
  5
22F
 10
2170.378944
 20
4865.082323
 30
0.0
 11
2198.378944
 21
4865.082323
 31
0.0
  0
LINE
  8
40
  6
CONTINUOUS
 62
     4
  5
230
 10
2198.963304
 20
4864.082303
 30
0.0
 11
2169.862904
 21
4864.082303
 31
0.0
  0
LINE
  8
40
  6
CONTINUOUS
 62
     4
  5
231
 10
2198.524964
 20
4863.082213
 30
0.0
 11
2170.259804
 21
4863.082213
 31
0.0
  0
LINE
  8
12
  6
CONTINUOUS
 62
     4
  5
232
 10
2207.765944
 20
4880.082343
 30
0.0
 11
2229.379004
 21
4880.082343
 31
0.0
  0
LINE
  8
12
  6
CONTINUOUS
 62
     4
  5
233
 10
2141.879004
 20
4872.474603
 30
0.0
 11
2141.879004
 21
4880.082343
 31
0.0
  0
LINE
  8
12
  6
CONTINUOUS
 62
     4
  5
234
 10
2162.728364
 20
4867.094123
 30
0.0
 11
2162.728364
 21
4867.064583
 31
0.0
  0
LINE
  8
12
  6
CONTINUOUS
 62
     4
  5
235
 10
2161.010424
 20
4867.537363
 30
0.0
 11
2161.010424
 21
4880.082343
 31
0.0
  0
LINE
  8
12
  6
CONTINUOUS
 62
     4
  5
236
 10
2162.722204
 20
4867.189603
 30
0.0
 11
2161.097504
 21
4880.187623
 31
0.0
  0
LINE
  8
12
  6
CONTINUOUS
 62
     4
  5
237
 10
2206.048144
 20
4866.988703
 30
0.0
 11
2206.048144
 21
4866.959233
 31
0.0
  0
LINE
  8
12
  6
CONTINUOUS
 62
     4
  5
238
 10
2207.765944
 20
4867.432013
 30
0.0
 11
2207.765944
 21
4879.977063
 31
0.0
  0
LINE
  8
12
  6
CONTINUOUS
 62
     4
  5
239
 10
2206.054304
 20
4867.084323
 30
0.0
 11
2207.679004
 21
4880.082343
 31
0.0
  0
LINE
  8
12
  6
CONTINUOUS
 62
     4
  5
23A
 10
2161.110664
 20
4880.082343
 30
0.0
 11
2141.879004
 21
4880.082343
 31
0.0
  0
LINE
  8
12
  6
CONTINUOUS
 62
     4
  5
23B
 10
2161.110664
 20
4879.082323
 30
0.0
 11
2141.879004
 21
4879.082323
 31
0.0
  0
LINE
  8
12
  6
CONTINUOUS
 62
     4
  5
23C
 10
2207.765944
 20
4879.082323
 30
0.0
 11
2229.379004
 21
4879.082323
 31
0.0
  0
LINE
  8
12
  6
CONTINUOUS
 62
     4
  5
23D
 10
2158.318084
 20
4879.082323
 30
0.0
 11
2149.818124
 21
4879.082323
 31
0.0
  0
LINE
  8
12
  6
CONTINUOUS
 62
     4
  5
23E
 10
2149.818124
 20
4879.082323
 30
0.0
 11
2149.818124
 21
4876.082333
 31
0.0
  0
LINE
  8
12
  6
CONTINUOUS
 62
     4
  5
23F
 10
2158.318084
 20
4879.082323
 30
0.0
 11
2158.318084
 21
4876.082333
 31
0.0
  0
LINE
  8
12
  6
CONTINUOUS
 62
     4
  5
240
 10
2158.318084
 20
4876.082333
 30
0.0
 11
2158.318084
 21
4879.082323
 31
0.0
  0
LINE
  8
12
  6
CONTINUOUS
 62
     4
  5
241
 10
2149.818124
 20
4876.082333
 30
0.0
 11
2149.818124
 21
4879.082323
 31
0.0
  0
LINE
  8
12
  6
CONTINUOUS
 62
     4
  5
242
 10
2149.818124
 20
4876.082333
 30
0.0
 11
2158.318084
 21
4876.082333
 31
0.0
  0
ARC
  8
12
  6
CONTINUOUS
 62
     4
  5
243
 10
2154.068104
 20
4884.613583
 30
0.0
 40
9.53134
 50
243.51896
 51
296.48104
  0
LINE
  8
12
  6
CONTINUOUS
 62
     4
  5
244
 10
2155.468104
 20
4879.082323
 30
0.0
 11
2155.468104
 21
4910.082313
 31
0.0
  0
LINE
  8
12
  6
CONTINUOUS
 62
     4
  5
245
 10
2152.668104
 20
4879.082323
 30
0.0
 11
2152.668104
 21
4910.082313
 31
0.0
  0
LINE
  8
12
  6
CONTINUOUS
 62
     4
  5
246
 10
2155.468104
 20
4910.082313
 30
0.0
 11
2152.668104
 21
4910.082313
 31
0.0
  0
LINE
  8
12
  6
CONTINUOUS
 62
     4
  5
247
 10
2154.068104
 20
4917.082313
 30
0.0
 11
2152.668104
 21
4910.082313
 31
0.0
  0
LINE
  8
12
  6
CONTINUOUS
 62
     4
  5
248
 10
2154.068104
 20
4917.082313
 30
0.0
 11
2155.468104
 21
4910.082313
 31
0.0
  0
LINE
  8
12
  6
CENTER
 62
     4
  5
249
 10
2154.068104
 20
4876.082333
 30
0.0
 11
2154.068104
 21
4917.082313
 31
0.0
  0
LINE
  8
12
  6
CENTER
 62
     4
  5
24A
 10
2154.068104
 20
4917.082313
 30
0.0
 11
2154.068104
 21
4877.575293
 31
0.0
  0
LINE
  8
12
  6
CONTINUOUS
 62
     4
  5
24B
 10
2218.939904
 20
4879.082323
 30
0.0
 11
2210.439804
 21
4879.082323
 31
0.0
  0
LINE
  8
12
  6
CONTINUOUS
 62
     4
  5
24C
 10
2210.439804
 20
4879.082323
 30
0.0
 11
2210.439804
 21
4876.082333
 31
0.0
  0
LINE
  8
12
  6
CONTINUOUS
 62
     4
  5
24D
 10
2218.939904
 20
4879.082323
 30
0.0
 11
2218.939904
 21
4876.082333
 31
0.0
  0
LINE
  8
12
  6
CONTINUOUS
 62
     4
  5
24E
 10
2218.939904
 20
4876.082333
 30
0.0
 11
2218.939904
 21
4879.082323
 31
0.0
  0
LINE
  8
12
  6
CONTINUOUS
 62
     4
  5
24F
 10
2210.439804
 20
4876.082333
 30
0.0
 11
2210.439804
 21
4879.082323
 31
0.0
  0
LINE
  8
12
  6
CONTINUOUS
 62
     4
  5
250
 10
2210.439804
 20
4876.082333
 30
0.0
 11
2218.939904
 21
4876.082333
 31
0.0
  0
ARC
  8
12
  6
CONTINUOUS
 62
     4
  5
251
 10
2214.689924
 20
4884.613583
 30
0.0
 40
9.53134
 50
243.51896
 51
296.48104
  0
LINE
  8
12
  6
CONTINUOUS
 62
     4
  5
252
 10
2216.089924
 20
4879.082323
 30
0.0
 11
2216.089924
 21
4910.082313
 31
0.0
  0
LINE
  8
12
  6
CONTINUOUS
 62
     4
  5
253
 10
2213.289924
 20
4879.082323
 30
0.0
 11
2213.289924
 21
4910.082313
 31
0.0
  0
LINE
  8
12
  6
CONTINUOUS
 62
     4
  5
254
 10
2216.089924
 20
4910.082313
 30
0.0
 11
2213.289924
 21
4910.082313
 31
0.0
  0
LINE
  8
12
  6
CONTINUOUS
 62
     4
  5
255
 10
2214.689924
 20
4917.082313
 30
0.0
 11
2213.289924
 21
4910.082313
 31
0.0
  0
LINE
  8
12
  6
CONTINUOUS
 62
     4
  5
256
 10
2214.689924
 20
4917.082313
 30
0.0
 11
2216.089924
 21
4910.082313
 31
0.0
  0
LINE
  8
12
  6
CENTER
 62
     4
  5
257
 10
2214.689924
 20
4876.082333
 30
0.0
 11
2214.689924
 21
4917.082313
 31
0.0
  0
LINE
  8
12
  6
CENTER
 62
     4
  5
258
 10
2214.689924
 20
4917.082313
 30
0.0
 11
2214.689924
 21
4877.575293
 31
0.0
  0
LINE
  8
12
  6
CONTINUOUS
 62
     4
  5
259
 10
2159.776604
 20
4879.329563
 30
0.0
 11
2148.276584
 21
4879.329563
 31
0.0
  0
LINE
  8
12
  6
CONTINUOUS
 62
     4
  5
25A
 10
2159.776604
 20
4880.129453
 30
0.0
 11
2148.276584
 21
4880.129453
 31
0.0
  0
LINE
  8
12
  6
CONTINUOUS
 62
     4
  5
25B
 10
2159.776604
 20
4879.329563
 30
0.0
 11
2159.776604
 21
4880.129453
 31
0.0
  0
LINE
  8
12
  6
CONTINUOUS
 62
     4
  5
25C
 10
2156.776684
 20
4879.329563
 30
0.0
 11
2156.776684
 21
4880.129453
 31
0.0
  0
LINE
  8
12
  6
CONTINUOUS
 62
     4
  5
25D
 10
2151.276644
 20
4879.329563
 30
0.0
 11
2151.276644
 21
4880.129453
 31
0.0
  0
LINE
  8
12
  6
CONTINUOUS
 62
     4
  5
25E
 10
2148.276584
 20
4879.329563
 30
0.0
 11
2148.276584
 21
4880.129453
 31
0.0
  0
LINE
  8
12
  6
CONTINUOUS
 62
     4
  5
25F
 10
2220.394784
 20
4879.329563
 30
0.0
 11
2208.894764
 21
4879.329563
 31
0.0
  0
LINE
  8
12
  6
CONTINUOUS
 62
     4
  5
260
 10
2220.394784
 20
4880.129453
 30
0.0
 11
2208.894764
 21
4880.129453
 31
0.0
  0
LINE
  8
12
  6
CONTINUOUS
 62
     4
  5
261
 10
2220.394784
 20
4879.329563
 30
0.0
 11
2220.394784
 21
4880.129453
 31
0.0
  0
LINE
  8
12
  6
CONTINUOUS
 62
     4
  5
262
 10
2217.394724
 20
4879.329563
 30
0.0
 11
2217.394724
 21
4880.129453
 31
0.0
  0
LINE
  8
12
  6
CONTINUOUS
 62
     4
  5
263
 10
2211.894684
 20
4879.329563
 30
0.0
 11
2211.894684
 21
4880.129453
 31
0.0
  0
LINE
  8
12
  6
CONTINUOUS
 62
     4
  5
264
 10
2208.894764
 20
4879.329563
 30
0.0
 11
2208.894764
 21
4880.129453
 31
0.0
  0
LINE
  8
8
  6
CONTINUOUS
 62
     4
  5
265
 10
2201.379424
 20
4865.875703
 30
0.0
 11
2227.874984
 21
4872.713233
 31
0.0
  0
LINE
  8
8
  6
CONTINUOUS
 62
     4
  5
266
 10
2167.567184
 20
4865.845253
 30
0.0
 11
2140.836144
 21
4872.743613
 31
0.0
  0
ARC
  8
8
  6
CONTINUOUS
 62
     4
  5
267
 10
2166.411204
 20
4862.046353
 30
0.0
 40
4.00008
 50
360.0
 51
75.529706
  0
LINE
  8
50
  6
CENTER
 62
     4
  5
268
 10
2154.026664
 20
4879.329563
 30
0.0
 11
2154.026664
 21
4881.451543
 31
0.0
  0
LINE
  8
50
  6
CENTER
 62
     4
  5
269
 10
2214.644704
 20
4879.329563
 30
0.0
 11
2214.644704
 21
4881.451543
 31
0.0
  0
ARC
  8
8
  6
CONTINUOUS
 62
     4
  5
26A
 10
2202.373424
 20
4861.995463
 30
0.0
 40
4.00008
 50
104.470294
 51
180.0
  0
LINE
  8
40
  6
CONTINUOUS
 62
     4
  5
26B
 10
1738.151517
 20
4865.082323
 30
0.0
 11
1768.974057
 21
4865.082323
 31
0.0
  0
LINE
  8
40
  6
CONTINUOUS
 62
     4
  5
26C
 10
1775.217497
 20
4867.082293
 30
0.0
 11
1731.936497
 21
4867.082293
 31
0.0
  0
LINE
  8
40
  6
CONTINUOUS
 62
     4
  5
26D
 10
1798.612337
 20
4885.082303
 30
0.0
 11
1798.612337
 21
4874.595393
 31
0.0
  0
LINE
  8
40
  6
CONTINUOUS
 62
     4
  5
26E
 10
1708.612357
 20
4885.082303
 30
0.0
 11
1708.612357
 21
4874.566763
 31
0.0
  0
LINE
  8
40
  6
CONTINUOUS
 62
     4
  5
26F
 10
1709.358417
 20
4873.082343
 30
0.0
 11
1797.822877
 21
4873.082343
 31
0.0
  0
ARC
  8
40
  6
CONTINUOUS
 62
     4
  5
270
 10
1796.612437
 20
4874.698083
 30
0.0
 40
2.00004
 50
284.470295
 51
360.0
  0
ARC
  8
40
  6
CONTINUOUS
 62
     4
  5
271
 10
1710.614077
 20
4874.655033
 30
0.0
 40
2.00004
 50
180.0
 51
255.930352
  0
LINE
  8
1
  6
CONTINUOUS
 62
     4
  5
272
 10
1785.923297
 20
4892.268363
 30
0.0
 11
1781.923217
 21
4892.963393
 31
0.0
  0
LINE
  8
1
  6
CONTINUOUS
 62
     4
  5
273
 10
1785.923297
 20
4895.304683
 30
0.0
 11
1781.923217
 21
4896.013923
 31
0.0
  0
LINE
  8
1
  6
CONTINUOUS
 62
     4
  5
274
 10
1785.923297
 20
4898.357803
 30
0.0
 11
1781.923217
 21
4899.067043
 31
0.0
  0
LINE
  8
1
  6
CONTINUOUS
 62
     4
  5
275
 10
1785.923297
 20
4901.410923
 30
0.0
 11
1781.923217
 21
4902.120093
 31
0.0
  0
LINE
  8
1
  6
CONTINUOUS
 62
     4
  5
276
 10
1785.923297
 20
4904.461383
 30
0.0
 11
1781.923217
 21
4905.156343
 31
0.0
  0
LINE
  8
1
  6
CONTINUOUS
 62
     4
  5
277
 10
1785.923297
 20
4907.497493
 30
0.0
 11
1781.923217
 21
4908.206733
 31
0.0
  0
LINE
  8
1
  6
CONTINUOUS
 62
     4
  5
278
 10
1782.318437
 20
4891.373203
 30
0.0
 11
1785.528077
 21
4890.805573
 31
0.0
  0
LINE
  8
1
  6
CONTINUOUS
 62
     4
  5
279
 10
1782.318437
 20
4894.406653
 30
0.0
 11
1785.528077
 21
4893.839093
 31
0.0
  0
LINE
  8
1
  6
CONTINUOUS
 62
     4
  5
27A
 10
1782.318437
 20
4897.459773
 30
0.0
 11
1785.528077
 21
4896.892213
 31
0.0
  0
LINE
  8
1
  6
CONTINUOUS
 62
     4
  5
27B
 10
1782.318437
 20
4900.512893
 30
0.0
 11
1785.528077
 21
4899.945403
 31
0.0
  0
LINE
  8
1
  6
CONTINUOUS
 62
     4
  5
27C
 10
1782.318437
 20
4903.566083
 30
0.0
 11
1785.528077
 21
4902.998523
 31
0.0
  0
LINE
  8
1
  6
CONTINUOUS
 62
     4
  5
27D
 10
1782.318437
 20
4906.599603
 30
0.0
 11
1785.528077
 21
4906.032043
 31
0.0
  0
LINE
  8
1
  6
CONTINUOUS
 62
     4
  5
27E
 10
1782.318437
 20
4909.652723
 30
0.0
 11
1785.528077
 21
4909.085093
 31
0.0
  0
LINE
  8
1
  6
CONTINUOUS
 62
     4
  5
27F
 10
1785.923297
 20
4889.216993
 30
0.0
 11
1781.923217
 21
4889.921193
 31
0.0
  0
LINE
  8
1
  6
CONTINUOUS
 62
     4
  5
280
 10
1783.923257
 20
4879.082323
 30
0.0
 11
1788.173237
 21
4879.082323
 31
0.0
  0
LINE
  8
1
  6
CONTINUOUS
 62
     4
  5
281
 10
1785.923297
 20
4883.170463
 30
0.0
 11
1781.923217
 21
4883.879703
 31
0.0
  0
LINE
  8
1
  6
CONTINUOUS
 62
     4
  5
282
 10
1785.923297
 20
4886.184313
 30
0.0
 11
1781.923217
 21
4886.893553
 31
0.0
  0
LINE
  8
1
  6
CONTINUOUS
 62
     4
  5
283
 10
1782.318437
 20
4882.292033
 30
0.0
 11
1785.528077
 21
4881.724473
 31
0.0
  0
LINE
  8
1
  6
CONTINUOUS
 62
     4
  5
284
 10
1782.318437
 20
4885.305953
 30
0.0
 11
1785.528077
 21
4884.738393
 31
0.0
  0
LINE
  8
1
  6
CONTINUOUS
 62
     4
  5
285
 10
1782.318437
 20
4888.339543
 30
0.0
 11
1785.528077
 21
4887.771983
 31
0.0
  0
LINE
  8
1
  6
CONTINUOUS
 62
     4
  5
286
 10
1786.526277
 20
4879.082323
 30
0.0
 11
1785.323257
 21
4880.285273
 31
0.0
  0
LINE
  8
1
  6
CONTINUOUS
 62
     4
  5
287
 10
1786.526277
 20
4879.082323
 30
0.0
 11
1788.173237
 21
4879.082323
 31
0.0
  0
LINE
  8
1
  6
CONTINUOUS
 62
     4
  5
288
 10
1781.320237
 20
4879.082323
 30
0.0
 11
1782.523257
 21
4880.285273
 31
0.0
  0
LINE
  8
1
  6
CONTINUOUS
 62
     4
  5
289
 10
1781.320237
 20
4879.082323
 30
0.0
 11
1779.673277
 21
4879.082323
 31
0.0
  0
LINE
  8
1
  6
CONTINUOUS
 62
     4
  5
28A
 10
1782.318437
 20
4880.765473
 30
0.0
 11
1785.528077
 21
4880.197983
 31
0.0
  0
LINE
  8
1
  6
CONTINUOUS
 62
     4
  5
28B
 10
1784.530017
 20
4875.591283
 30
0.0
 11
1783.316497
 21
4875.591283
 31
0.0
  0
LINE
  8
1
  6
CONTINUOUS
 62
     4
  5
28C
 10
1784.530017
 20
4875.082313
 30
0.0
 11
1784.530017
 21
4875.591283
 31
0.0
  0
LINE
  8
1
  6
CONTINUOUS
 62
     4
  5
28D
 10
1783.316497
 20
4875.082313
 30
0.0
 11
1783.316497
 21
4875.591283
 31
0.0
  0
LINE
  8
1
  6
CONTINUOUS
 62
     4
  5
28E
 10
1784.530017
 20
4875.082313
 30
0.0
 11
1783.316497
 21
4875.082313
 31
0.0
  0
LINE
  8
1
  6
CONTINUOUS
 62
     4
  5
28F
 10
1785.923297
 20
4910.550613
 30
0.0
 11
1781.923217
 21
4911.259853
 31
0.0
  0
LINE
  8
1
  6
CONTINUOUS
 62
     4
  5
290
 10
1782.531937
 20
4914.205033
 30
0.0
 11
1785.416917
 21
4913.693473
 31
0.0
  0
LINE
  8
1
  6
CONTINUOUS
 62
     4
  5
291
 10
1782.318437
 20
4912.705773
 30
0.0
 11
1785.528077
 21
4912.138213
 31
0.0
  0
LINE
  8
1
  6
CONTINUOUS
 62
     4
  5
292
 10
1782.824817
 20
4915.669293
 30
0.0
 11
1785.102197
 21
4915.266653
 31
0.0
  0
LINE
  8
1
  6
CONTINUOUS
 62
     4
  5
293
 10
1725.301477
 20
4892.268363
 30
0.0
 11
1721.301537
 21
4892.963393
 31
0.0
  0
LINE
  8
1
  6
CONTINUOUS
 62
     4
  5
294
 10
1725.301477
 20
4895.304683
 30
0.0
 11
1721.301537
 21
4896.013923
 31
0.0
  0
LINE
  8
1
  6
CONTINUOUS
 62
     4
  5
295
 10
1725.301477
 20
4898.357803
 30
0.0
 11
1721.301537
 21
4899.067043
 31
0.0
  0
LINE
  8
1
  6
CONTINUOUS
 62
     4
  5
296
 10
1725.301477
 20
4901.410923
 30
0.0
 11
1721.301537
 21
4902.120093
 31
0.0
  0
LINE
  8
1
  6
CONTINUOUS
 62
     4
  5
297
 10
1725.301477
 20
4904.461383
 30
0.0
 11
1721.301537
 21
4905.156343
 31
0.0
  0
LINE
  8
1
  6
CONTINUOUS
 62
     4
  5
298
 10
1725.301477
 20
4907.497493
 30
0.0
 11
1721.301537
 21
4908.206733
 31
0.0
  0
LINE
  8
1
  6
CONTINUOUS
 62
     4
  5
299
 10
1721.696617
 20
4891.373203
 30
0.0
 11
1724.906397
 21
4890.805573
 31
0.0
  0
LINE
  8
1
  6
CONTINUOUS
 62
     4
  5
29A
 10
1721.696617
 20
4894.406653
 30
0.0
 11
1724.906397
 21
4893.839093
 31
0.0
  0
LINE
  8
1
  6
CONTINUOUS
 62
     4
  5
29B
 10
1721.696617
 20
4897.459773
 30
0.0
 11
1724.906397
 21
4896.892213
 31
0.0
  0
LINE
  8
1
  6
CONTINUOUS
 62
     4
  5
29C
 10
1721.696617
 20
4900.512893
 30
0.0
 11
1724.906397
 21
4899.945403
 31
0.0
  0
LINE
  8
1
  6
CONTINUOUS
 62
     4
  5
29D
 10
1721.696617
 20
4903.566083
 30
0.0
 11
1724.906397
 21
4902.998523
 31
0.0
  0
LINE
  8
1
  6
CONTINUOUS
 62
     4
  5
29E
 10
1721.696617
 20
4906.599603
 30
0.0
 11
1724.906397
 21
4906.032043
 31
0.0
  0
LINE
  8
1
  6
CONTINUOUS
 62
     4
  5
29F
 10
1721.696617
 20
4909.652723
 30
0.0
 11
1724.906397
 21
4909.085093
 31
0.0
  0
LINE
  8
1
  6
CONTINUOUS
 62
     4
  5
2A0
 10
1725.301477
 20
4889.216993
 30
0.0
 11
1721.301537
 21
4889.921193
 31
0.0
  0
LINE
  8
1
  6
CONTINUOUS
 62
     4
  5
2A1
 10
1723.301437
 20
4879.082323
 30
0.0
 11
1727.551557
 21
4879.082323
 31
0.0
  0
LINE
  8
1
  6
CONTINUOUS
 62
     4
  5
2A2
 10
1725.301477
 20
4883.170463
 30
0.0
 11
1721.301537
 21
4883.879703
 31
0.0
  0
LINE
  8
1
  6
CONTINUOUS
 62
     4
  5
2A3
 10
1725.301477
 20
4886.184313
 30
0.0
 11
1721.301537
 21
4886.893553
 31
0.0
  0
LINE
  8
1
  6
CONTINUOUS
 62
     4
  5
2A4
 10
1721.696617
 20
4882.292033
 30
0.0
 11
1724.906397
 21
4881.724473
 31
0.0
  0
LINE
  8
1
  6
CONTINUOUS
 62
     4
  5
2A5
 10
1721.696617
 20
4885.305953
 30
0.0
 11
1724.906397
 21
4884.738393
 31
0.0
  0
LINE
  8
1
  6
CONTINUOUS
 62
     4
  5
2A6
 10
1721.696617
 20
4888.339543
 30
0.0
 11
1724.906397
 21
4887.771983
 31
0.0
  0
LINE
  8
1
  6
CONTINUOUS
 62
     4
  5
2A7
 10
1725.904457
 20
4879.082323
 30
0.0
 11
1724.701437
 21
4880.285273
 31
0.0
  0
LINE
  8
1
  6
CONTINUOUS
 62
     4
  5
2A8
 10
1725.904457
 20
4879.082323
 30
0.0
 11
1727.551557
 21
4879.082323
 31
0.0
  0
LINE
  8
1
  6
CONTINUOUS
 62
     4
  5
2A9
 10
1720.698557
 20
4879.082323
 30
0.0
 11
1721.901437
 21
4880.285273
 31
0.0
  0
LINE
  8
1
  6
CONTINUOUS
 62
     4
  5
2AA
 10
1720.698557
 20
4879.082323
 30
0.0
 11
1719.051457
 21
4879.082323
 31
0.0
  0
LINE
  8
1
  6
CONTINUOUS
 62
     4
  5
2AB
 10
1721.696617
 20
4880.765473
 30
0.0
 11
1724.906397
 21
4880.197983
 31
0.0
  0
LINE
  8
1
  6
CONTINUOUS
 62
     4
  5
2AC
 10
1723.908197
 20
4875.591283
 30
0.0
 11
1722.694817
 21
4875.591283
 31
0.0
  0
LINE
  8
1
  6
CONTINUOUS
 62
     4
  5
2AD
 10
1723.908197
 20
4875.082313
 30
0.0
 11
1723.908197
 21
4875.591283
 31
0.0
  0
LINE
  8
1
  6
CONTINUOUS
 62
     4
  5
2AE
 10
1722.694817
 20
4875.082313
 30
0.0
 11
1722.694817
 21
4875.591283
 31
0.0
  0
LINE
  8
1
  6
CONTINUOUS
 62
     4
  5
2AF
 10
1723.908197
 20
4875.082313
 30
0.0
 11
1722.694817
 21
4875.082313
 31
0.0
  0
LINE
  8
1
  6
CONTINUOUS
 62
     4
  5
2B0
 10
1725.301477
 20
4910.550613
 30
0.0
 11
1721.301537
 21
4911.259853
 31
0.0
  0
LINE
  8
1
  6
CONTINUOUS
 62
     4
  5
2B1
 10
1721.910257
 20
4914.205033
 30
0.0
 11
1724.795097
 21
4913.693473
 31
0.0
  0
LINE
  8
1
  6
CONTINUOUS
 62
     4
  5
2B2
 10
1721.696617
 20
4912.705773
 30
0.0
 11
1724.906397
 21
4912.138213
 31
0.0
  0
LINE
  8
1
  6
CONTINUOUS
 62
     4
  5
2B3
 10
1722.202997
 20
4915.669293
 30
0.0
 11
1724.480517
 21
4915.266653
 31
0.0
  0
LINE
  8
40
  6
CONTINUOUS
 62
     4
  5
2B4
 10
1708.637417
 20
4885.082303
 30
0.0
 11
1708.637417
 21
4874.566763
 31
0.0
  0
LINE
  8
40
  6
CONTINUOUS
 62
     4
  5
2B5
 10
1711.137397
 20
4872.449823
 30
0.0
 11
1711.137397
 21
4880.082343
 31
0.0
  0
LINE
  8
40
  6
CONTINUOUS
 62
     4
  5
2B6
 10
1771.342437
 20
4866.082343
 30
0.0
 11
1735.811417
 21
4866.082343
 31
0.0
  0
LINE
  8
40
  6
CONTINUOUS
 62
     4
  5
2B7
 10
1767.612417
 20
4865.082323
 30
0.0
 11
1739.612417
 21
4865.082323
 31
0.0
  0
LINE
  8
40
  6
CONTINUOUS
 62
     4
  5
2B8
 10
1739.028057
 20
4864.082303
 30
0.0
 11
1768.128457
 21
4864.082303
 31
0.0
  0
LINE
  8
40
  6
CONTINUOUS
 62
     4
  5
2B9
 10
1739.466397
 20
4863.082213
 30
0.0
 11
1767.731557
 21
4863.082213
 31
0.0
  0
LINE
  8
12
  6
CONTINUOUS
 62
     4
  5
2BA
 10
1730.225417
 20
4880.082343
 30
0.0
 11
1708.612357
 21
4880.082343
 31
0.0
  0
LINE
  8
12
  6
CONTINUOUS
 62
     4
  5
2BB
 10
1796.112357
 20
4872.474603
 30
0.0
 11
1796.112357
 21
4880.082343
 31
0.0
  0
LINE
  8
12
  6
CONTINUOUS
 62
     4
  5
2BC
 10
1775.262997
 20
4867.094123
 30
0.0
 11
1775.262997
 21
4867.064583
 31
0.0
  0
LINE
  8
12
  6
CONTINUOUS
 62
     4
  5
2BD
 10
1776.980937
 20
4867.537363
 30
0.0
 11
1776.980937
 21
4880.082343
 31
0.0
  0
LINE
  8
12
  6
CONTINUOUS
 62
     4
  5
2BE
 10
1775.269157
 20
4867.189603
 30
0.0
 11
1776.893857
 21
4880.187623
 31
0.0
  0
LINE
  8
12
  6
CONTINUOUS
 62
     4
  5
2BF
 10
1731.943217
 20
4866.988703
 30
0.0
 11
1731.943217
 21
4866.959233
 31
0.0
  0
LINE
  8
12
  6
CONTINUOUS
 62
     4
  5
2C0
 10
1730.225417
 20
4867.432013
 30
0.0
 11
1730.225417
 21
4879.977063
 31
0.0
  0
LINE
  8
12
  6
CONTINUOUS
 62
     4
  5
2C1
 10
1731.937057
 20
4867.084323
 30
0.0
 11
1730.312357
 21
4880.082343
 31
0.0
  0
LINE
  8
12
  6
CONTINUOUS
 62
     4
  5
2C2
 10
1776.880697
 20
4880.082343
 30
0.0
 11
1796.112357
 21
4880.082343
 31
0.0
  0
LINE
  8
12
  6
CONTINUOUS
 62
     4
  5
2C3
 10
1776.880697
 20
4879.082323
 30
0.0
 11
1796.112357
 21
4879.082323
 31
0.0
  0
LINE
  8
12
  6
CONTINUOUS
 62
     4
  5
2C4
 10
1730.225417
 20
4879.082323
 30
0.0
 11
1708.612357
 21
4879.082323
 31
0.0
  0
LINE
  8
12
  6
CONTINUOUS
 62
     4
  5
2C5
 10
1779.673277
 20
4879.082323
 30
0.0
 11
1788.173237
 21
4879.082323
 31
0.0
  0
LINE
  8
12
  6
CONTINUOUS
 62
     4
  5
2C6
 10
1788.173237
 20
4879.082323
 30
0.0
 11
1788.173237
 21
4876.082333
 31
0.0
  0
LINE
  8
12
  6
CONTINUOUS
 62
     4
  5
2C7
 10
1779.673277
 20
4879.082323
 30
0.0
 11
1779.673277
 21
4876.082333
 31
0.0
  0
LINE
  8
12
  6
CONTINUOUS
 62
     4
  5
2C8
 10
1779.673277
 20
4876.082333
 30
0.0
 11
1779.673277
 21
4879.082323
 31
0.0
  0
LINE
  8
12
  6
CONTINUOUS
 62
     4
  5
2C9
 10
1788.173237
 20
4876.082333
 30
0.0
 11
1788.173237
 21
4879.082323
 31
0.0
  0
LINE
  8
12
  6
CONTINUOUS
 62
     4
  5
2CA
 10
1788.173237
 20
4876.082333
 30
0.0
 11
1779.673277
 21
4876.082333
 31
0.0
  0
ARC
  8
12
  6
CONTINUOUS
 62
     4
  5
2CB
 10
1783.923257
 20
4884.613583
 30
0.0
 40
9.53134
 50
243.51896
 51
296.48104
  0
LINE
  8
12
  6
CONTINUOUS
 62
     4
  5
2CC
 10
1782.523257
 20
4879.082323
 30
0.0
 11
1782.523257
 21
4910.082313
 31
0.0
  0
LINE
  8
12
  6
CONTINUOUS
 62
     4
  5
2CD
 10
1785.323257
 20
4879.082323
 30
0.0
 11
1785.323257
 21
4910.082313
 31
0.0
  0
LINE
  8
12
  6
CONTINUOUS
 62
     4
  5
2CE
 10
1782.523257
 20
4910.082313
 30
0.0
 11
1785.323257
 21
4910.082313
 31
0.0
  0
LINE
  8
12
  6
CONTINUOUS
 62
     4
  5
2CF
 10
1783.923257
 20
4917.082313
 30
0.0
 11
1785.323257
 21
4910.082313
 31
0.0
  0
LINE
  8
12
  6
CONTINUOUS
 62
     4
  5
2D0
 10
1783.923257
 20
4917.082313
 30
0.0
 11
1782.523257
 21
4910.082313
 31
0.0
  0
LINE
  8
12
  6
CENTER
 62
     4
  5
2D1
 10
1783.923257
 20
4876.082333
 30
0.0
 11
1783.923257
 21
4917.082313
 31
0.0
  0
LINE
  8
12
  6
CENTER
 62
     4
  5
2D2
 10
1783.923257
 20
4917.082313
 30
0.0
 11
1783.923257
 21
4877.575293
 31
0.0
  0
LINE
  8
12
  6
CONTINUOUS
 62
     4
  5
2D3
 10
1719.051457
 20
4879.082323
 30
0.0
 11
1727.551557
 21
4879.082323
 31
0.0
  0
LINE
  8
12
  6
CONTINUOUS
 62
     4
  5
2D4
 10
1727.551557
 20
4879.082323
 30
0.0
 11
1727.551557
 21
4876.082333
 31
0.0
  0
LINE
  8
12
  6
CONTINUOUS
 62
     4
  5
2D5
 10
1719.051457
 20
4879.082323
 30
0.0
 11
1719.051457
 21
4876.082333
 31
0.0
  0
LINE
  8
12
  6
CONTINUOUS
 62
     4
  5
2D6
 10
1719.051457
 20
4876.082333
 30
0.0
 11
1719.051457
 21
4879.082323
 31
0.0
  0
LINE
  8
12
  6
CONTINUOUS
 62
     4
  5
2D7
 10
1727.551557
 20
4876.082333
 30
0.0
 11
1727.551557
 21
4879.082323
 31
0.0
  0
LINE
  8
12
  6
CONTINUOUS
 62
     4
  5
2D8
 10
1727.551557
 20
4876.082333
 30
0.0
 11
1719.051457
 21
4876.082333
 31
0.0
  0
ARC
  8
12
  6
CONTINUOUS
 62
     4
  5
2D9
 10
1723.301437
 20
4884.613583
 30
0.0
 40
9.53134
 50
243.51896
 51
296.48104
  0
LINE
  8
12
  6
CONTINUOUS
 62
     4
  5
2DA
 10
1721.901437
 20
4879.082323
 30
0.0
 11
1721.901437
 21
4910.082313
 31
0.0
  0
LINE
  8
12
  6
CONTINUOUS
 62
     4
  5
2DB
 10
1724.701437
 20
4879.082323
 30
0.0
 11
1724.701437
 21
4910.082313
 31
0.0
  0
LINE
  8
12
  6
CONTINUOUS
 62
     4
  5
2DC
 10
1721.901437
 20
4910.082313
 30
0.0
 11
1724.701437
 21
4910.082313
 31
0.0
  0
LINE
  8
12
  6
CONTINUOUS
 62
     4
  5
2DD
 10
1723.301437
 20
4917.082313
 30
0.0
 11
1724.701437
 21
4910.082313
 31
0.0
  0
LINE
  8
12
  6
CONTINUOUS
 62
     4
  5
2DE
 10
1723.301437
 20
4917.082313
 30
0.0
 11
1721.901437
 21
4910.082313
 31
0.0
  0
LINE
  8
12
  6
CENTER
 62
     4
  5
2DF
 10
1723.301437
 20
4876.082333
 30
0.0
 11
1723.301437
 21
4917.082313
 31
0.0
  0
LINE
  8
12
  6
CENTER
 62
     4
  5
2E0
 10
1723.301437
 20
4917.082313
 30
0.0
 11
1723.301437
 21
4877.575293
 31
0.0
  0
LINE
  8
12
  6
CONTINUOUS
 62
     4
  5
2E1
 10
1778.214757
 20
4879.329563
 30
0.0
 11
1789.714777
 21
4879.329563
 31
0.0
  0
LINE
  8
12
  6
CONTINUOUS
 62
     4
  5
2E2
 10
1778.214757
 20
4880.129453
 30
0.0
 11
1789.714777
 21
4880.129453
 31
0.0
  0
LINE
  8
12
  6
CONTINUOUS
 62
     4
  5
2E3
 10
1778.214757
 20
4879.329563
 30
0.0
 11
1778.214757
 21
4880.129453
 31
0.0
  0
LINE
  8
12
  6
CONTINUOUS
 62
     4
  5
2E4
 10
1781.214677
 20
4879.329563
 30
0.0
 11
1781.214677
 21
4880.129453
 31
0.0
  0
LINE
  8
12
  6
CONTINUOUS
 62
     4
  5
2E5
 10
1786.714717
 20
4879.329563
 30
0.0
 11
1786.714717
 21
4880.129453
 31
0.0
  0
LINE
  8
12
  6
CONTINUOUS
 62
     4
  5
2E6
 10
1789.714777
 20
4879.329563
 30
0.0
 11
1789.714777
 21
4880.129453
 31
0.0
  0
LINE
  8
12
  6
CONTINUOUS
 62
     4
  5
2E7
 10
1717.596577
 20
4879.329563
 30
0.0
 11
1729.096597
 21
4879.329563
 31
0.0
  0
LINE
  8
12
  6
CONTINUOUS
 62
     4
  5
2E8
 10
1717.596577
 20
4880.129453
 30
0.0
 11
1729.096597
 21
4880.129453
 31
0.0
  0
LINE
  8
12
  6
CONTINUOUS
 62
     4
  5
2E9
 10
1717.596577
 20
4879.329563
 30
0.0
 11
1717.596577
 21
4880.129453
 31
0.0
  0
LINE
  8
12
  6
CONTINUOUS
 62
     4
  5
2EA
 10
1720.596637
 20
4879.329563
 30
0.0
 11
1720.596637
 21
4880.129453
 31
0.0
  0
LINE
  8
12
  6
CONTINUOUS
 62
     4
  5
2EB
 10
1726.096677
 20
4879.329563
 30
0.0
 11
1726.096677
 21
4880.129453
 31
0.0
  0
LINE
  8
12
  6
CONTINUOUS
 62
     4
  5
2EC
 10
1729.096597
 20
4879.329563
 30
0.0
 11
1729.096597
 21
4880.129453
 31
0.0
  0
LINE
  8
8
  6
CONTINUOUS
 62
     4
  5
2ED
 10
1736.611937
 20
4865.875703
 30
0.0
 11
1710.116377
 21
4872.713233
 31
0.0
  0
LINE
  8
8
  6
CONTINUOUS
 62
     4
  5
2EE
 10
1770.424177
 20
4865.845253
 30
0.0
 11
1797.155217
 21
4872.743613
 31
0.0
  0
ARC
  8
8
  6
CONTINUOUS
 62
     4
  5
2EF
 10
1771.580157
 20
4862.046353
 30
0.0
 40
4.00008
 50
104.470294
 51
180.0
  0
LINE
  8
50
  6
CENTER
 62
     4
  5
2F0
 10
1783.964697
 20
4879.329563
 30
0.0
 11
1783.964697
 21
4881.451543
 31
0.0
  0
LINE
  8
50
  6
CENTER
 62
     4
  5
2F1
 10
1723.346657
 20
4879.329563
 30
0.0
 11
1723.346657
 21
4881.451543
 31
0.0
  0
ARC
  8
8
  6
CONTINUOUS
 62
     4
  5
2F2
 10
1735.617937
 20
4861.995463
 30
0.0
 40
4.00008
 50
360.0
 51
75.529706
  0
LINE
  8
40
  6
DOT
 62
     3
  5
2F3
 10
2176.879004
 20
4829.082093
 30
0.0
 11
2191.879024
 21
4829.082093
 31
0.0
  0
LINE
  8
40
  6
DOT
 62
     3
  5
2F4
 10
2176.879004
 20
4829.082093
 30
0.0
 11
2176.879004
 21
4835.082213
 31
0.0
  0
LINE
  8
40
  6
DOT
 62
     3
  5
2F5
 10
2191.879024
 20
4829.082093
 30
0.0
 11
2191.879024
 21
4835.082213
 31
0.0
  0
LINE
  8
40
  6
CONTINUOUS
 62
     4
  5
2F6
 10
2198.378944
 20
4835.082073
 30
0.0
 11
2198.378944
 21
4857.666406
 31
0.0
  0
LINE
  8
40
  6
CONTINUOUS
 62
     4
  5
2F7
 10
2170.378944
 20
4835.082073
 30
0.0
 11
2170.378944
 21
4857.666406
 31
0.0
  0
LINE
  8
40
  6
CONTINUOUS
 62
     4
  5
2F8
 10
2198.378944
 20
4835.082213
 30
0.0
 11
2170.378944
 21
4835.082213
 31
0.0
  0
LINE
  8
40
  6
DOT
 62
     3
  5
2F9
 10
1761.112357
 20
4829.082093
 30
0.0
 11
1746.112337
 21
4829.082093
 31
0.0
  0
LINE
  8
40
  6
DOT
 62
     3
  5
2FA
 10
1761.112357
 20
4829.082093
 30
0.0
 11
1761.112357
 21
4835.082213
 31
0.0
  0
LINE
  8
40
  6
DOT
 62
     3
  5
2FB
 10
1746.112337
 20
4829.082093
 30
0.0
 11
1746.112337
 21
4835.082213
 31
0.0
  0
LINE
  8
40
  6
CONTINUOUS
 62
     4
  5
2FC
 10
1767.612417
 20
4835.082073
 30
0.0
 11
1767.612417
 21
4857.666406
 31
0.0
  0
LINE
  8
7
  6
CONTINUOUS
 62
     4
  5
2FD
 10
1739.612417
 20
4865.132282
 30
0.0
 11
1739.612417
 21
4835.082073
 31
0.0
  0
LINE
  8
7
  6
CONTINUOUS
 62
     4
  5
2FE
 10
1739.612417
 20
4810.040232
 30
0.0
 11
2198.378944
 21
4810.040232
 31
0.0
  0
ARC
  8
7
  6
CONTINUOUS
 62
     4
  5
2FF
 10
1739.612417
 20
4820.056968
 30
0.0
 40
10.016736
 50
180.0
 51
270.0
  0
LINE
  8
7
  6
CONTINUOUS
 62
     4
  5
300
 10
1729.595681
 20
4820.056968
 30
0.0
 11
1729.595681
 21
4835.082073
 31
0.0
  0
LINE
  8
40
  6
CONTINUOUS
 62
     4
  5
301
 10
1739.612417
 20
4835.082073
 30
0.0
 11
1739.612417
 21
4857.666406
 31
0.0
  0
LINE
  8
40
  6
CONTINUOUS
 62
     4
  5
302
 10
1739.612417
 20
4835.082213
 30
0.0
 11
1767.612417
 21
4835.082213
 31
0.0
  0
LINE
  8
7
  6
CONTINUOUS
 62
     4
  5
303
 10
2208.395681
 20
4820.056968
 30
0.0
 11
2208.395681
 21
4835.082073
 31
0.0
  0
LINE
  8
7
  6
CONTINUOUS
 62
     4
  5
304
 10
1729.595681
 20
4835.082073
 30
0.0
 11
2208.395681
 21
4835.082073
 31
0.0
  0
ARC
  8
7
  6
CONTINUOUS
 62
     4
  5
305
 10
2198.378944
 20
4820.056968
 30
0.0
 40
10.016736
 50
270.0
 51
360.0
  0
LINE
  8
6
  6
CONTINUOUS
 62
     3
  5
306
 10
2293.831798
 20
4565.604952
 30
0.0
 11
2293.831798
 21
4884.209669
 31
0.0
  0
LINE
  8
6
  6
CONTINUOUS
 62
     6
  5
307
 10
2193.831798
 20
4625.091106
 30
0.0
 11
2193.831798
 21
4810.040232
 31
0.0
  0
LINE
  8
6
  6
CONTINUOUS
 62
     3
  5
308
 10
1893.831798
 20
4625.091106
 30
0.0
 11
1893.831798
 21
4810.040232
 31
0.0
  0
LINE
  8
6
  6
CONTINUOUS
 62
     3
  5
309
 10
1893.831798
 20
4835.082073
 30
0.0
 11
1893.831798
 21
4884.914515
 31
0.0
  0
LINE
  8
6
  6
CONTINUOUS
 62
     3
  5
30A
 10
2093.831798
 20
4625.091106
 30
0.0
 11
2093.831798
 21
4810.040232
 31
0.0
  0
LINE
  8
6
  6
CONTINUOUS
 62
     3
  5
30B
 10
2093.831798
 20
4835.082073
 30
0.0
 11
2093.831798
 21
4884.562092
 31
0.0
  0
LINE
  8
6
  6
CONTINUOUS
 62
     3
  5
30C
 10
1993.831798
 20
4625.091106
 30
0.0
 11
1993.831798
 21
4810.040232
 31
0.0
  0
LINE
  8
6
  6
CONTINUOUS
 62
     3
  5
30D
 10
1993.831798
 20
4835.082073
 30
0.0
 11
1993.831798
 21
4884.738304
 31
0.0
  0
LINE
  8
6
  6
CONTINUOUS
 62
     3
  5
30E
 10
1793.831798
 20
4602.910419
 30
0.0
 11
1793.831798
 21
4810.040232
 31
0.0
  0
LINE
  8
6
  6
CONTINUOUS
 62
     3
  5
30F
 10
1793.831798
 20
4835.082073
 30
0.0
 11
1793.831798
 21
4871.885953
 31
0.0
  0
TEXT
  8
5
  6
CONTINUOUS
 62
     3
  5
310
 10
2284.000206
 20
3845.531223
 30
0.0
 40
60.0
  1
645
 50
360.0
 41
0.666667
  7

 72
     5
 11
2404.000206
 21
3845.531223
 31
0.0
  0
TEXT
  8
5
  6
CONTINUOUS
 62
     3
  5
311
 10
2661.425206
 20
3845.531223
 30
0.0
 40
60.0
  1
80
 50
360.0
 41
0.75
  7

 72
     5
 11
2751.425206
 21
3845.531223
 31
0.0
  0
TEXT
  8
5
  6
CONTINUOUS
 62
     3
  5
312
 10
2928.85036
 20
4851.781223
 30
0.0
 40
60.0
  1
80
 50
90.0
 41
0.75
  7

 72
     5
 11
2928.85036
 21
4941.781223
 31
0.0
  0
TEXT
  8
5
  6
CONTINUOUS
 62
     3
  5
313
 10
2928.85036
 20
4495.531223
 30
0.0
 40
60.0
  1
600
 50
90.0
 41
0.666667
  7

 72
     5
 11
2928.85036
 21
4615.531223
 31
0.0
  0
TEXT
  8
5
  6
CONTINUOUS
 62
     3
  5
314
 10
2928.85036
 20
4081.781223
 30
0.0
 40
60.0
  1
230
 50
90.0
 41
0.666667
  7

 72
     5
 11
2928.85036
 21
4201.781223
 31
0.0
  0
TEXT
  8
5
  6
CONTINUOUS
 62
     3
  5
315
 10
3028.85036
 20
4423.031223
 30
0.0
 40
60.0
  1
910
 50
90.0
 41
0.666667
  7

 72
     5
 11
3028.85036
 21
4543.031223
 31
0.0
  0
LINE
  8
151
  6
CONTINUOUS
 62
     3
  5
316
 10
1593.85036
 20
1526.301615
 30
0.0
 11
1593.85036
 21
1188.801625
 31
0.0
  0
LINE
  8
151
  6
CONTINUOUS
 62
     3
  5
317
 10
1493.85036
 20
1526.301615
 30
0.0
 11
1493.85036
 21
1188.801625
 31
0.0
  0
ARC
  8
40
  6
CONTINUOUS
 62
     6
  5
318
 10
1565.8504
 20
1577.736215
 30
0.0
 40
30.00004
 50
360.0
 51
87.193615
  0
LINE
  8
40
  6
CONTINUOUS
 62
     6
  5
319
 10
1595.85023
 20
1526.301615
 30
0.0
 11
1493.85036
 21
1526.301615
 31
0.0
  0
LINE
  8
40
  6
CONTINUOUS
 62
     6
  5
31A
 10
1567.31914
 20
1607.700275
 30
0.0
 11
1493.85036
 21
1611.301635
 31
0.0
  0
LINE
  8
40
  6
CONTINUOUS
 62
     6
  5
31B
 10
1595.85023
 20
1577.736215
 30
0.0
 11
1595.85023
 21
1526.301615
 31
0.0
  0
LINE
  8
1
  6
CONTINUOUS
 62
     6
  5
31C
 10
1752.67094
 20
4144.974987
 30
0.0
 11
1752.67094
 21
4182.734986
 31
0.0
  0
LINE
  8
1
  6
CONTINUOUS
 62
     6
  5
31D
 10
1778.27094
 20
4127.870987
 30
0.0
 11
1778.27094
 21
4189.294986
 31
0.0
  0
ARC
  8
1
  6
CONTINUOUS
 62
     6
  5
31E
 10
1732.670941
 20
4144.974987
 30
0.0
 40
20.0
 50
274.42
 51
360.0
  0
ARC
  8
1
  6
CONTINUOUS
 62
     6
  5
31F
 10
1567.070944
 20
4163.070986
 30
0.0
 40
39.199999
 50
183.31
 51
266.54
  0
ARC
  8
1
  6
CONTINUOUS
 62
     6
  5
320
 10
1535.070945
 20
4131.070987
 30
0.0
 40
23.999999
 50
179.99
 51
270.0
  0
ARC
  8
1
  6
CONTINUOUS
 62
     6
  5
321
 10
1757.47094
 20
4127.870987
 30
0.0
 40
20.8
 50
270.0
 51
360.0
  0
LINE
  8
1
  6
CONTINUOUS
 62
     6
  5
322
 10
1586.734944
 20
4348.670982
 30
0.0
 11
1548.670945
 21
4348.670982
 31
0.0
  0
ARC
  8
1
  6
CONTINUOUS
 62
     6
  5
323
 10
1531.870945
 20
4353.470982
 30
0.0
 40
20.8
 50
90.0
 51
180.0
  0
ARC
  8
1
  6
CONTINUOUS
 62
     6
  5
324
 10
1548.974945
 20
4328.670983
 30
0.0
 40
20.0
 50
90.0
 51
175.57
  0
LINE
  8
1
  6
CONTINUOUS
 62
     6
  5
325
 10
1529.038945
 20
4330.206983
 30
0.0
 11
1527.966945
 21
4160.382986
 31
0.0
  0
LINE
  8
1
  6
CONTINUOUS
 62
     6
  5
326
 10
1743.03894
 20
4208.750985
 30
0.0
 11
1612.766943
 21
4339.038982
 31
0.0
  0
ARC
  8
1
  6
CONTINUOUS
 62
     6
  5
327
 10
1712.670941
 20
4182.734986
 30
0.0
 40
39.999999
 50
360.0
 51
40.59
  0
ARC
  8
1
  6
CONTINUOUS
 62
     6
  5
328
 10
1755.07094
 20
4189.294986
 30
0.0
 40
23.199999
 50
360.0
 51
45.0
  0
ARC
  8
1
  6
CONTINUOUS
 62
     6
  5
329
 10
1586.734944
 20
4308.670983
 30
0.0
 40
39.983999
 50
49.4
 51
90.0
  0
LINE
  8
1
  6
CONTINUOUS
 62
     6
  5
32A
 10
1511.070946
 20
4131.070987
 30
0.0
 11
1511.070946
 21
4353.470982
 31
0.0
  0
LINE
  8
1
  6
CONTINUOUS
 62
     6
  5
32B
 10
1593.294944
 20
4374.270982
 30
0.0
 11
1531.870945
 21
4374.270982
 31
0.0
  0
LINE
  8
1
  6
CONTINUOUS
 62
     6
  5
32C
 10
1757.47094
 20
4107.070988
 30
0.0
 11
1535.070945
 21
4107.070988
 31
0.0
  0
LINE
  8
1
  6
CONTINUOUS
 62
     6
  5
32D
 10
1564.414944
 20
4123.950987
 30
0.0
 11
1734.222941
 21
4125.038987
 31
0.0
  0
LINE
  8
1
  6
CONTINUOUS
 62
     6
  5
32E
 10
1771.475817
 20
4205.699863
 30
0.0
 11
1609.715821
 21
4367.475859
 31
0.0
  0
ARC
  8
1
  6
CONTINUOUS
 62
     6
  5
32F
 10
1593.322257
 20
4351.082296
 30
0.0
 40
23.183999
 50
45.0
 51
90.0
  0
LINE
  8
1
  6
CENTER
 62
     2
  5
330
 10
1441.35036
 20
3975.531223
 30
0.0
 11
1441.35036
 21
4990.531223
 31
0.0
  0
LINE
  8
5
  6
CONTINUOUS
 62
     3
  5
331
 10
1158.85036
 20
4028.031223
 30
0.0
 11
1358.85036
 21
4028.031223
 31
0.0
  0
LINE
  8
5
  6
CONTINUOUS
 62
     3
  5
332
 10
1158.85036
 20
4938.031223
 30
0.0
 11
1358.85036
 21
4938.031223
 31
0.0
  0
CIRCLE
  8
5
  6
CONTINUOUS
 62
     3
  5
333
 10
1158.85036
 20
4938.031223
 30
0.0
 40
7.5
  0
CIRCLE
  8
5
  6
CONTINUOUS
 62
     3
  5
334
 10
1158.85036
 20
4028.031223
 30
0.0
 40
7.5
  0
LINE
  8
5
  6
CONTINUOUS
 62
     3
  5
335
 10
1158.85036
 20
4938.031223
 30
0.0
 11
1158.85036
 21
4028.031223
 31
0.0
  0
ARC
  8
1
  6
CONTINUOUS
 62
     6
  5
336
 10
1755.07094
 20
4189.294986
 30
0.0
 40
23.199999
 50
360.0
 51
45.0
  0
CIRCLE
  8
5
  6
CONTINUOUS
 62
     3
  5
337
 10
1441.35036
 20
5220.531223
 30
0.0
 40
7.5
  0
CIRCLE
  8
5
  6
CONTINUOUS
 62
     3
  5
338
 10
1441.35036
 20
3745.531223
 30
0.0
 40
7.5
  0
CIRCLE
  8
5
  6
CONTINUOUS
 62
     3
  5
339
 10
1441.35036
 20
3845.531223
 30
0.0
 40
7.5
  0
LINE
  8
40
  6
CONTINUOUS
 62
     6
  5
33A
 10
1595.85023
 20
4652.041056
 30
0.0
 11
1595.85023
 21
4504.54605
 31
0.0
  0
LINE
  8
5
  6
CONTINUOUS
 62
     6
  5
33B
 10
1595.85023
 20
4504.54605
 30
0.0
 11
1493.85036
 21
4504.54605
 31
0.0
  0
LINE
  8
5
  6
CONTINUOUS
 62
     6
  5
33C
 10
1595.85023
 20
4652.041056
 30
0.0
 11
1493.85036
 21
4652.041056
 31
0.0
  0
TEXT
  8
5
  6
CONTINUOUS
 62
     3
  5
33D
 10
1158.85036
 20
4423.031223
 30
0.0
 40
60.0
  1
910
 50
90.0
 41
0.666667
  7

 72
     5
 11
1158.85036
 21
4543.031223
 31
0.0
  0
LINE
  8
4
  6
CENTER
 62
     2
  5
33E
 10
1388.85036
 20
4938.031223
 30
0.0
 11
2798.85036
 21
4938.031223
 31
0.0
  0
LINE
  8
2
  6
CONTINUOUS
 62
     5
  5
33F
 10
1676.35036
 20
4990.531223
 30
0.0
 11
1388.85036
 21
4990.531223
 31
0.0
  0
LINE
  8
2
  6
CONTINUOUS
 62
     5
  5
340
 10
1493.85036
 20
4885.619328
 30
0.0
 11
2678.85036
 21
4883.531223
 31
0.0
  0
LINE
  8
4
  6
CENTER
 62
     2
  5
341
 10
1388.85036
 20
4028.031223
 30
0.0
 11
2798.85036
 21
4028.031223
 31
0.0
  0
LINE
  8
2
  6
CONTINUOUS
 62
     5
  5
342
 10
1388.85036
 20
4990.531223
 30
0.0
 11
1388.85036
 21
3975.531223
 31
0.0
  0
LINE
  8
2
  6
CONTINUOUS
 62
     5
  5
343
 10
1388.85036
 20
3975.531223
 30
0.0
 11
2013.70036
 21
3975.531223
 31
0.0
  0
LINE
  8
2
  6
CONTINUOUS
 62
     5
  5
344
 10
1493.85036
 20
4885.619328
 30
0.0
 11
1493.85036
 21
4080.531223
 31
0.0
  0
LINE
  8
2
  6
CONTINUOUS
 62
     5
  5
345
 10
1493.85036
 20
4080.531223
 30
0.0
 11
1993.70036
 21
4080.531223
 31
0.0
  0
LINE
  8
1
  6
CONTINUOUS
 62
     5
  5
346
 10
1493.85036
 20
3188.801625
 30
0.0
 11
2693.85036
 21
3188.801625
 31
0.0
  0
LINE
  8
1
  6
CONTINUOUS
 62
     5
  5
347
 10
1493.85036
 20
1188.801625
 30
0.0
 11
1493.85036
 21
3188.801625
 31
0.0
  0
LINE
  8
1
  6
CONTINUOUS
 62
     5
  5
348
 10
1493.85036
 20
1188.801625
 30
0.0
 11
2168.85036
 21
1188.801625
 31
0.0
  0
LINE
  8
5
  6
CONTINUOUS
 62
     3
  5
349
 10
2021.35036
 20
3845.531223
 30
0.0
 11
1441.35036
 21
3845.531223
 31
0.0
  0
TEXT
  8
5
  6
CONTINUOUS
 62
     3
  5
34A
 10
1696.42536
 20
3845.531223
 30
0.0
 40
60.0
  1
580
 50
360.0
 41
0.666667
  7

 72
     5
 11
1816.42536
 21
3845.531223
 31
0.0
  0
LINE
  8
5
  6
CONTINUOUS
 62
     3
  5
34B
 10
1441.35036
 20
3745.531223
 30
0.0
 11
1441.35036
 21
3945.531223
 31
0.0
  0
LINE
  8
5
  6
CONTINUOUS
 62
     3
  5
34C
 10
2746.35036
 20
3745.531223
 30
0.0
 11
1441.35036
 21
3745.531223
 31
0.0
  0
TEXT
  8
5
  6
CONTINUOUS
 62
     3
  5
34D
 10
2028.85036
 20
3745.531223
 30
0.0
 40
60.0
  1
1,305
 50
360.0
 41
0.6
  7

 72
     5
 11
2208.85036
 21
3745.531223
 31
0.0
  0
LINE
  8
6
  6
CONTINUOUS
 62
     2
  5
34E
 10
1511.070946
 20
4169.281223
 30
0.0
 11
1493.85036
 21
4169.281223
 31
0.0
  0
LINE
  8
6
  6
CONTINUOUS
 62
     2
  5
34F
 10
1511.070946
 20
4269.281223
 30
0.0
 11
1493.85036
 21
4269.281223
 31
0.0
  0
LINE
  8
6
  6
CONTINUOUS
 62
     3
  5
350
 10
1793.831798
 20
4080.531223
 30
0.0
 11
1793.831798
 21
4372.707199
 31
0.0
  0
LINE
  8
6
  6
CONTINUOUS
 62
     2
  5
351
 10
2761.35036
 20
4683.031223
 30
0.0
 11
1493.85036
 21
4683.031223
 31
0.0
  0
LINE
  8
6
  6
CONTINUOUS
 62
     2
  5
352
 10
2761.35036
 20
4783.031223
 30
0.0
 11
1493.85036
 21
4783.031223
 31
0.0
  0
LINE
  8
6
  6
CONTINUOUS
 62
     2
  5
353
 10
1698.049608
 20
4483.031223
 30
0.0
 11
1493.85036
 21
4483.031223
 31
0.0
  0
LINE
  8
6
  6
CONTINUOUS
 62
     2
  5
354
 10
1782.808675
 20
4383.031223
 30
0.0
 11
1493.85036
 21
4383.031223
 31
0.0
  0
LINE
  8
6
  6
CONTINUOUS
 62
     3
  5
355
 10
1693.831798
 20
4885.531223
 30
0.0
 11
1693.831798
 21
4283.351561
 31
0.0
  0
LINE
  8
6
  6
CONTINUOUS
 62
     2
  5
356
 10
2761.35036
 20
4283.031223
 30
0.0
 11
1694.152105
 21
4283.031223
 31
0.0
  0
LINE
  8
6
  6
CONTINUOUS
 62
     2
  5
357
 10
2693.85036
 20
4183.031223
 30
0.0
 11
1778.27094
 21
4183.031223
 31
0.0
  0
LINE
  8
2
  6
CONTINUOUS
 62
     3
  5
358
 10
1693.767253
 20
1288.801625
 30
0.0
 11
1493.85036
 21
1288.801625
 31
0.0
  0
LINE
  8
2
  6
CONTINUOUS
 62
     3
  5
359
 10
1693.767253
 20
1288.801625
 30
0.0
 11
1493.85036
 21
1288.801625
 31
0.0
  0
LINE
  8
2
  6
CONTINUOUS
 62
     3
  5
35A
 10
2693.85036
 20
1388.801625
 30
0.0
 11
1493.85036
 21
1388.801625
 31
0.0
  0
LINE
  8
2
  6
CONTINUOUS
 62
     3
  5
35B
 10
2693.85036
 20
2388.801625
 30
0.0
 11
1493.85036
 21
2388.801625
 31
0.0
  0
LINE
  8
2
  6
CONTINUOUS
 62
     3
  5
35C
 10
2693.85036
 20
2588.801625
 30
0.0
 11
1493.85036
 21
2588.801625
 31
0.0
  0
LINE
  8
2
  6
CONTINUOUS
 62
     3
  5
35D
 10
2693.85036
 20
2688.801625
 30
0.0
 11
1493.85036
 21
2688.801625
 31
0.0
  0
LINE
  8
2
  6
CONTINUOUS
 62
     3
  5
35E
 10
2693.85036
 20
2788.801625
 30
0.0
 11
1493.85036
 21
2788.801625
 31
0.0
  0
LINE
  8
2
  6
CONTINUOUS
 62
     3
  5
35F
 10
2693.85036
 20
2888.801625
 30
0.0
 11
1493.85036
 21
2888.801625
 31
0.0
  0
LINE
  8
2
  6
CONTINUOUS
 62
     3
  5
360
 10
2693.85036
 20
2988.801625
 30
0.0
 11
1493.85036
 21
2988.801625
 31
0.0
  0
LINE
  8
2
  6
CONTINUOUS
 62
     3
  5
361
 10
2693.85036
 20
3088.801625
 30
0.0
 11
1493.85036
 21
3088.801625
 31
0.0
  0
LINE
  8
2
  6
CONTINUOUS
 62
     3
  5
362
 10
1729.85036
 20
1788.801625
 30
0.0
 11
1493.85036
 21
1788.801625
 31
0.0
  0
LINE
  8
2
  6
CONTINUOUS
 62
     3
  5
363
 10
1742.304708
 20
2088.801625
 30
0.0
 11
1493.85036
 21
2088.801625
 31
0.0
  0
LINE
  8
2
  6
CONTINUOUS
 62
     3
  5
364
 10
1729.3505
 20
1988.801625
 30
0.0
 11
1493.85036
 21
1988.801625
 31
0.0
  0
LINE
  8
2
  6
CONTINUOUS
 62
     3
  5
365
 10
1729.3505
 20
1888.801625
 30
0.0
 11
1493.85036
 21
1888.801625
 31
0.0
  0
LINE
  8
10
  6
CENTER
 62
     3
  5
366
 10
2193.85045
 20
2132.373505
 30
0.0
 11
2193.85045
 21
1374.801625
 31
0.0
  0
LINE
  8
2
  6
CONTINUOUS
 62
     3
  5
367
 10
2693.85036
 20
2488.801625
 30
0.0
 11
1493.85036
 21
2488.801625
 31
0.0
  0
LINE
  8
2
  6
CONTINUOUS
 62
     3
  5
368
 10
1593.735147
 20
1588.801625
 30
0.0
 11
2693.85036
 21
1588.801625
 31
0.0
  0
LINE
  8
2
  6
CONTINUOUS
 62
     3
  5
369
 10
2693.85036
 20
1488.801625
 30
0.0
 11
1493.85036
 21
1488.801625
 31
0.0
  0
LINE
  8
2
  6
CONTINUOUS
 62
     3
  5
36A
 10
1727.8505
 20
2188.801625
 30
0.0
 11
1493.85036
 21
2188.801625
 31
0.0
  0
LINE
  8
10
  6
CENTER
 62
     3
  5
36B
 10
1520.78929
 20
2288.801585
 30
0.0
 11
2156.35026
 21
2288.801585
 31
0.0
  0
LINE
  8
10
  6
CENTER
 62
     3
  5
36C
 10
1520.78929
 20
1988.801605
 30
0.0
 11
2156.35026
 21
1988.801605
 31
0.0
  0
LINE
  8
10
  6
CENTER
 62
     3
  5
36D
 10
1520.78929
 20
2138.801665
 30
0.0
 11
2156.35026
 21
2138.801665
 31
0.0
  0
LINE
  8
10
  6
CENTER
 62
     3
  5
36E
 10
1520.78929
 20
1838.801685
 30
0.0
 11
2156.35026
 21
1838.801685
 31
0.0
  0
LINE
  8
10
  6
CENTER
 62
     3
  5
36F
 10
1520.78929
 20
1688.801625
 30
0.0
 11
2156.35026
 21
1688.801625
 31
0.0
  0
LINE
  8
8
  6
CONTINUOUS
 62
     1
  5
370
 10
2010.85025
 20
2124.801665
 30
0.0
 11
1924.35041
 21
2124.801665
 31
0.0
  0
LINE
  8
8
  6
CONTINUOUS
 62
     1
  5
371
 10
1774.35021
 20
2124.801665
 30
0.0
 11
1860.35025
 21
2124.801665
 31
0.0
  0
LINE
  8
8
  6
CONTINUOUS
 62
     1
  5
372
 10
1906.35026
 20
2170.801605
 30
0.0
 11
1906.35026
 21
2256.801645
 31
0.0
  0
ARC
  8
8
  6
CONTINUOUS
 62
     1
  5
373
 10
1774.35021
 20
2106.801585
 30
0.0
 40
18.00008
 50
90.0
 51
180.0
  0
ARC
  8
8
  6
CONTINUOUS
 62
     1
  5
374
 10
1860.35025
 20
2106.801585
 30
0.0
 40
18.00008
 50
0.0
 51
90.0
  0
LINE
  8
8
  6
CONTINUOUS
 62
     1
  5
375
 10
1756.35041
 20
2256.801645
 30
0.0
 11
1756.35041
 21
2170.801605
 31
0.0
  0
ARC
  8
8
  6
CONTINUOUS
 62
     1
  5
376
 10
1924.35041
 20
2256.801645
 30
0.0
 40
18.00008
 50
90.0
 51
180.0
  0
ARC
  8
8
  6
CONTINUOUS
 62
     1
  5
377
 10
1924.35041
 20
2170.801605
 30
0.0
 40
18.00008
 50
180.0
 51
270.0
  0
LINE
  8
8
  6
CONTINUOUS
 62
     1
  5
378
 10
2010.85025
 20
2152.801665
 30
0.0
 11
1924.35041
 21
2152.801665
 31
0.0
  0
ARC
  8
8
  6
CONTINUOUS
 62
     1
  5
379
 10
1860.35025
 20
2170.801605
 30
0.0
 40
18.00008
 50
270.0
 51
0.0
  0
ARC
  8
8
  6
CONTINUOUS
 62
     1
  5
37A
 10
1774.35021
 20
2170.801605
 30
0.0
 40
18.00008
 50
180.0
 51
270.0
  0
LINE
  8
8
  6
CONTINUOUS
 62
     1
  5
37B
 10
1774.35021
 20
2152.801665
 30
0.0
 11
1860.35025
 21
2152.801665
 31
0.0
  0
ARC
  8
8
  6
CONTINUOUS
 62
     1
  5
37C
 10
1860.35025
 20
2020.801685
 30
0.0
 40
18.00008
 50
270.0
 51
0.0
  0
ARC
  8
8
  6
CONTINUOUS
 62
     1
  5
37D
 10
1774.35021
 20
2020.801685
 30
0.0
 40
18.00008
 50
180.0
 51
270.0
  0
LINE
  8
8
  6
CONTINUOUS
 62
     1
  5
37E
 10
1774.35021
 20
2002.801605
 30
0.0
 11
1860.35025
 21
2002.801605
 31
0.0
  0
LINE
  8
8
  6
CONTINUOUS
 62
     1
  5
37F
 10
1878.35026
 20
2170.801605
 30
0.0
 11
1878.35026
 21
2256.801645
 31
0.0
  0
LINE
  8
10
  6
CENTER
 62
     3
  5
380
 10
2042.85026
 20
1688.801625
 30
0.0
 11
2082.85036
 21
1688.801625
 31
0.0
  0
LINE
  8
8
  6
CONTINUOUS
 62
     4
  5
381
 10
2056.85026
 20
2256.801645
 30
0.0
 11
2056.85026
 21
1720.801565
 31
0.0
  0
ARC
  8
8
  6
CONTINUOUS
 62
     4
  5
382
 10
2010.85025
 20
2256.801645
 30
0.0
 40
46.00008
 50
0.0
 51
90.0
  0
LINE
  8
8
  6
CONTINUOUS
 62
     4
  5
383
 10
2028.85026
 20
2170.801605
 30
0.0
 11
2028.85026
 21
2256.801645
 31
0.0
  0
LINE
  8
8
  6
CONTINUOUS
 62
     4
  5
384
 10
1906.35026
 20
2170.801605
 30
0.0
 11
1906.35026
 21
2256.801645
 31
0.0
  0
ARC
  8
8
  6
CONTINUOUS
 62
     4
  5
385
 10
1924.35041
 20
2256.801645
 30
0.0
 40
18.00008
 50
90.0
 51
180.0
  0
ARC
  8
8
  6
CONTINUOUS
 62
     4
  5
386
 10
2010.85025
 20
2256.801645
 30
0.0
 40
18.00008
 50
0.0
 51
90.0
  0
LINE
  8
8
  6
CONTINUOUS
 62
     4
  5
387
 10
1924.35041
 20
2274.801585
 30
0.0
 11
2010.85025
 21
2274.801585
 31
0.0
  0
LINE
  8
8
  6
CONTINUOUS
 62
     4
  5
388
 10
2010.85025
 20
2152.801665
 30
0.0
 11
1924.35041
 21
2152.801665
 31
0.0
  0
ARC
  8
8
  6
CONTINUOUS
 62
     4
  5
389
 10
1924.35041
 20
2170.801605
 30
0.0
 40
18.00008
 50
180.0
 51
270.0
  0
LINE
  8
8
  6
CONTINUOUS
 62
     4
  5
38A
 10
2010.85025
 20
2302.801585
 30
0.0
 11
1623.85021
 21
2302.801585
 31
0.0
  0
ARC
  8
8
  6
CONTINUOUS
 62
     4
  5
38B
 10
1860.35025
 20
2106.801585
 30
0.0
 40
18.00008
 50
0.0
 51
90.0
  0
LINE
  8
8
  6
CONTINUOUS
 62
     4
  5
38C
 10
1878.35026
 20
2020.801545
 30
0.0
 11
1878.35026
 21
2106.801585
 31
0.0
  0
LINE
  8
8
  6
CONTINUOUS
 62
     4
  5
38D
 10
1774.35021
 20
2124.801665
 30
0.0
 11
1860.35025
 21
2124.801665
 31
0.0
  0
LINE
  8
8
  6
CONTINUOUS
 62
     4
  5
38E
 10
1756.35041
 20
2020.801545
 30
0.0
 11
1756.35041
 21
2106.801585
 31
0.0
  0
ARC
  8
8
  6
CONTINUOUS
 62
     4
  5
38F
 10
1774.35021
 20
2106.801585
 30
0.0
 40
18.00008
 50
90.0
 51
180.0
  0
LINE
  8
8
  6
CONTINUOUS
 62
     4
  5
390
 10
1756.35041
 20
2170.801605
 30
0.0
 11
1756.35041
 21
2256.801645
 31
0.0
  0
LINE
  8
8
  6
CONTINUOUS
 62
     4
  5
391
 10
1878.35026
 20
2170.801605
 30
0.0
 11
1878.35026
 21
2256.801645
 31
0.0
  0
ARC
  8
8
  6
CONTINUOUS
 62
     4
  5
392
 10
1774.35021
 20
2256.801645
 30
0.0
 40
18.00008
 50
90.0
 51
180.0
  0
ARC
  8
8
  6
CONTINUOUS
 62
     4
  5
393
 10
1860.35025
 20
2256.801645
 30
0.0
 40
18.00008
 50
0.0
 51
90.0
  0
LINE
  8
8
  6
CONTINUOUS
 62
     4
  5
394
 10
1774.35021
 20
2274.801585
 30
0.0
 11
1860.35025
 21
2274.801585
 31
0.0
  0
LINE
  8
8
  6
CONTINUOUS
 62
     4
  5
395
 10
1860.35025
 20
2152.801665
 30
0.0
 11
1774.35021
 21
2152.801665
 31
0.0
  0
ARC
  8
8
  6
CONTINUOUS
 62
     4
  5
396
 10
1774.35021
 20
2170.801605
 30
0.0
 40
18.00008
 50
180.0
 51
270.0
  0
ARC
  8
8
  6
CONTINUOUS
 62
     4
  5
397
 10
1860.35025
 20
2170.801605
 30
0.0
 40
18.00008
 50
270.0
 51
0.0
  0
LINE
  8
8
  6
CONTINUOUS
 62
     4
  5
398
 10
1860.35025
 20
2002.801605
 30
0.0
 11
1774.35021
 21
2002.801605
 31
0.0
  0
ARC
  8
8
  6
CONTINUOUS
 62
     4
  5
399
 10
1774.35021
 20
2020.801685
 30
0.0
 40
18.00008
 50
180.0
 51
270.0
  0
ARC
  8
8
  6
CONTINUOUS
 62
     4
  5
39A
 10
1860.35025
 20
2020.801685
 30
0.0
 40
18.00008
 50
270.0
 51
0.0
  0
LINE
  8
10
  6
CENTER
 62
     4
  5
39B
 10
2012.45906
 20
2098.286505
 30
0.0
 11
2027.76729
 21
2124.801525
 31
0.0
  0
LINE
  8
10
  6
CENTER
 62
     4
  5
39C
 10
2035.85026
 20
2138.801525
 30
0.0
 11
2027.76729
 21
2124.801525
 31
0.0
  0
LINE
  8
10
  6
CENTER
 62
     4
  5
39D
 10
2035.85026
 20
2138.801525
 30
0.0
 11
2018.35026
 21
2169.112645
 31
0.0
  0
LINE
  8
8
  6
CONTINUOUS
 62
     4
  5
39E
 10
2010.85025
 20
1852.801545
 30
0.0
 11
1924.35041
 21
1852.801545
 31
0.0
  0
ARC
  8
8
  6
CONTINUOUS
 62
     4
  5
39F
 10
1924.35041
 20
1870.801625
 30
0.0
 40
18.00008
 50
180.0
 51
270.0
  0
LINE
  8
8
  6
CONTINUOUS
 62
     4
  5
3A0
 10
2028.85026
 20
2106.801585
 30
0.0
 11
2028.85026
 21
2020.801545
 31
0.0
  0
LINE
  8
8
  6
CONTINUOUS
 62
     4
  5
3A1
 10
2010.85025
 20
2124.801665
 30
0.0
 11
1924.35041
 21
2124.801665
 31
0.0
  0
ARC
  8
8
  6
CONTINUOUS
 62
     4
  5
3A2
 10
1924.35041
 20
2106.801585
 30
0.0
 40
18.00008
 50
90.0
 51
180.0
  0
LINE
  8
8
  6
CONTINUOUS
 62
     4
  5
3A3
 10
1906.35026
 20
2020.801545
 30
0.0
 11
1906.35026
 21
2106.801585
 31
0.0
  0
LINE
  8
8
  6
CONTINUOUS
 62
     4
  5
3A4
 10
2028.85026
 20
2020.801545
 30
0.0
 11
2028.85026
 21
2106.801585
 31
0.0
  0
ARC
  8
8
  6
CONTINUOUS
 62
     4
  5
3A5
 10
1924.35041
 20
1956.801665
 30
0.0
 40
18.00008
 50
90.0
 51
180.0
  0
LINE
  8
8
  6
CONTINUOUS
 62
     4
  5
3A6
 10
1924.35041
 20
1974.801745
 30
0.0
 11
2010.85025
 21
1974.801745
 31
0.0
  0
ARC
  8
8
  6
CONTINUOUS
 62
     4
  5
3A7
 10
1924.35041
 20
1956.801665
 30
0.0
 40
18.00008
 50
90.0
 51
180.0
  0
ARC
  8
8
  6
CONTINUOUS
 62
     4
  5
3A8
 10
2010.85025
 20
2020.801685
 30
0.0
 40
18.00008
 50
270.0
 51
0.0
  0
ARC
  8
8
  6
CONTINUOUS
 62
     4
  5
3A9
 10
2010.85025
 20
2020.801685
 30
0.0
 40
18.00008
 50
270.0
 51
0.0
  0
LINE
  8
8
  6
CONTINUOUS
 62
     4
  5
3AA
 10
2010.85025
 20
2002.801605
 30
0.0
 11
1924.35041
 21
2002.801605
 31
0.0
  0
ARC
  8
8
  6
CONTINUOUS
 62
     4
  5
3AB
 10
1924.35041
 20
2020.801685
 30
0.0
 40
18.00008
 50
180.0
 51
270.0
  0
ARC
  8
8
  6
CONTINUOUS
 62
     4
  5
3AC
 10
1924.35041
 20
2020.801685
 30
0.0
 40
18.00008
 50
180.0
 51
270.0
  0
LINE
  8
8
  6
CONTINUOUS
 62
     4
  5
3AD
 10
2010.85025
 20
2002.801605
 30
0.0
 11
1924.35041
 21
2002.801605
 31
0.0
  0
LINE
  8
50
  6
CONTINUOUS
 62
     4
  5
3AE
 10
1906.35026
 20
1870.801625
 30
0.0
 11
1906.35026
 21
1956.801665
 31
0.0
  0
ARC
  8
8
  6
CONTINUOUS
 62
     4
  5
3AF
 10
2010.85025
 20
1956.801665
 30
0.0
 40
18.00008
 50
0.0
 51
90.0
  0
LINE
  8
50
  6
CONTINUOUS
 62
     4
  5
3B0
 10
2028.85026
 20
1956.801665
 30
0.0
 11
2028.85026
 21
1870.801625
 31
0.0
  0
LINE
  8
8
  6
CONTINUOUS
 62
     4
  5
3B1
 10
1995.19314
 20
2124.801525
 30
0.0
 11
2011.85041
 21
2124.801525
 31
0.0
  0
ARC
  8
8
  6
CONTINUOUS
 62
     4
  5
3B2
 10
2035.85026
 20
2138.801525
 30
0.0
 40
45.00006
 50
300.576746
 51
60.54555
  0
ARC
  8
8
  6
CONTINUOUS
 62
     4
  5
3B3
 10
2035.85026
 20
2138.801525
 30
0.0
 40
45.00006
 50
198.126181
 51
262.33778
  0
CIRCLE
  8
8
  6
CONTINUOUS
 62
     4
  5
3B4
 10
2070.86664
 20
2138.848565
 30
0.0
 40
4.50002
  0
ARC
  8
8
  6
CONTINUOUS
 62
     4
  5
3B5
 10
2035.85026
 20
2138.801525
 30
0.0
 40
43.00002
 50
300.576818
 51
60.545482
  0
LINE
  8
8
  6
CONTINUOUS
 62
     4
  5
3B6
 10
2025.28012
 20
2104.493265
 30
0.0
 11
2021.61177
 21
2098.139785
 31
0.0
  0
LINE
  8
8
  6
CONTINUOUS
 62
     4
  5
3B7
 10
2011.42278
 20
2112.491885
 30
0.0
 11
2007.76122
 21
2106.149745
 31
0.0
  0
LINE
  8
8
  6
CONTINUOUS
 62
     4
  5
3B8
 10
2022.24744
 20
2106.240605
 30
0.0
 11
2014.45322
 21
2110.740625
 31
0.0
  0
LINE
  8
8
  6
CONTINUOUS
 62
     4
  5
3B9
 10
2018.35026
 20
2108.490545
 30
0.0
 11
2020.60041
 21
2112.387725
 31
0.0
  0
ARC
  8
8
  6
CONTINUOUS
 62
     4
  5
3BA
 10
2019.34811
 20
2110.219405
 30
0.0
 40
8.00002
 50
329.258179
 51
149.621122
  0
CIRCLE
  8
8
  6
CONTINUOUS
 62
     4
  5
3BB
 10
2018.34634
 20
2108.476545
 30
0.0
 40
4.50002
  0
CIRCLE
  8
8
  6
CONTINUOUS
 62
     4
  5
3BC
 10
2018.35026
 20
2108.490545
 30
0.0
 40
8.00002
  0
LINE
  8
8
  6
CONTINUOUS
 62
     4
  5
3BD
 10
2070.84732
 20
2146.801685
 30
0.0
 11
2078.1836
 21
2146.801685
 31
0.0
  0
LINE
  8
8
  6
CONTINUOUS
 62
     4
  5
3BE
 10
2070.84879
 20
2130.801505
 30
0.0
 11
2078.17198
 21
2130.801505
 31
0.0
  0
LINE
  8
8
  6
CONTINUOUS
 62
     4
  5
3BF
 10
2070.85026
 20
2143.301685
 30
0.0
 11
2070.85026
 21
2134.301505
 31
0.0
  0
LINE
  8
8
  6
CONTINUOUS
 62
     4
  5
3C0
 10
2070.85026
 20
2138.801525
 30
0.0
 11
2066.35038
 21
2138.801525
 31
0.0
  0
ARC
  8
8
  6
CONTINUOUS
 62
     4
  5
3C1
 10
2068.85428
 20
2138.801105
 30
0.0
 40
8.00002
 50
89.258177
 51
269.621121
  0
CIRCLE
  8
8
  6
CONTINUOUS
 62
     4
  5
3C2
 10
2070.85026
 20
2138.801525
 30
0.0
 40
8.00002
  0
LINE
  8
8
  6
CONTINUOUS
 62
     4
  5
3C3
 10
2011.42362
 20
2165.110045
 30
0.0
 11
2007.75548
 21
2171.463385
 31
0.0
  0
LINE
  8
8
  6
CONTINUOUS
 62
     4
  5
3C4
 10
2025.27921
 20
2173.111465
 30
0.0
 11
2021.61772
 21
2179.453465
 31
0.0
  0
LINE
  8
8
  6
CONTINUOUS
 62
     4
  5
3C5
 10
2014.45322
 20
2166.862705
 30
0.0
 11
2022.24744
 21
2171.362585
 31
0.0
  0
LINE
  8
8
  6
CONTINUOUS
 62
     4
  5
3C6
 10
2018.35026
 20
2169.112645
 30
0.0
 11
2020.60041
 21
2165.215465
 31
0.0
  0
ARC
  8
8
  6
CONTINUOUS
 62
     4
  5
3C7
 10
2019.34867
 20
2167.384205
 30
0.0
 40
8.00002
 50
209.258177
 51
29.621122
  0
CIRCLE
  8
8
  6
CONTINUOUS
 62
     4
  5
3C8
 10
2018.34004
 20
2169.123145
 30
0.0
 40
4.50002
  0
CIRCLE
  8
8
  6
CONTINUOUS
 62
     4
  5
3C9
 10
2018.35026
 20
2169.112645
 30
0.0
 40
8.00002
  0
ARC
  8
8
  6
CONTINUOUS
 62
     4
  5
3CA
 10
2035.85026
 20
2138.801525
 30
0.0
 40
43.00002
 50
198.126181
 51
262.513205
  0
ARC
  8
8
  6
CONTINUOUS
 62
     4
  5
3CB
 10
2035.85026
 20
2138.801525
 30
0.0
 40
45.00006
 50
97.66222
 51
161.873821
  0
ARC
  8
8
  6
CONTINUOUS
 62
     4
  5
3CC
 10
2035.85026
 20
2138.801525
 30
0.0
 40
45.00006
 50
299.267566
 51
60.416488
  0
ARC
  8
8
  6
CONTINUOUS
 62
     4
  5
3CD
 10
2035.85026
 20
2138.801525
 30
0.0
 40
43.00002
 50
199.000793
 51
261.979098
  0
ARC
  8
8
  6
CONTINUOUS
 62
     4
  5
3CE
 10
2035.85026
 20
2138.801525
 30
0.0
 40
43.00002
 50
98.020902
 51
160.999208
  0
ARC
  8
8
  6
CONTINUOUS
 62
     4
  5
3CF
 10
2035.85026
 20
2138.801525
 30
0.0
 40
43.00002
 50
98.020902
 51
160.999208
  0
ARC
  8
8
  6
CONTINUOUS
 62
     4
  5
3D0
 10
2035.85026
 20
2138.801525
 30
0.0
 40
43.00002
 50
300.77234
 51
59.22766
  0
ARC
  8
8
  6
CONTINUOUS
 62
     4
  5
3D1
 10
2035.85026
 20
2138.801525
 30
0.0
 40
43.00002
 50
199.206874
 51
261.979098
  0
CIRCLE
  8
8
  6
HIDDEN
 62
     4
  5
3D2
 10
2035.85026
 20
2138.801525
 30
0.0
 40
14.0
  0
CIRCLE
  8
8
  6
HIDDEN
 62
     4
  5
3D3
 10
2035.85026
 20
2138.801525
 30
0.0
 40
7.50008
  0
CIRCLE
  8
8
  6
HIDDEN
 62
     4
  5
3D4
 10
2035.85026
 20
2138.801525
 30
0.0
 40
3.00006
  0
ARC
  8
8
  6
CONTINUOUS
 62
     4
  5
3D5
 10
2010.85025
 20
2106.801585
 30
0.0
 40
18.00008
 50
0.0
 51
90.0
  0
ARC
  8
8
  6
CONTINUOUS
 62
     4
  5
3D6
 10
2010.85025
 20
2170.801745
 30
0.0
 40
18.00008
 50
270.0
 51
0.0
  0
ARC
  8
8
  6
CONTINUOUS
 62
     4
  5
3D7
 10
1924.35041
 20
1720.801565
 30
0.0
 40
18.00008
 50
180.0
 51
270.0
  0
LINE
  8
8
  6
CONTINUOUS
 62
     4
  5
3D8
 10
1906.35026
 20
1720.801565
 30
0.0
 11
1906.35026
 21
1806.801605
 31
0.0
  0
ARC
  8
8
  6
CONTINUOUS
 62
     4
  5
3D9
 10
1924.35041
 20
1806.801605
 30
0.0
 40
18.00008
 50
90.0
 51
180.0
  0
LINE
  8
10
  6
CENTER
 62
     4
  5
3DA
 10
2012.45906
 20
1798.286525
 30
0.0
 11
2027.76729
 21
1824.801545
 31
0.0
  0
LINE
  8
8
  6
CONTINUOUS
 62
     4
  5
3DB
 10
2010.85025
 20
1702.801625
 30
0.0
 11
1924.35041
 21
1702.801625
 31
0.0
  0
LINE
  8
8
  6
CONTINUOUS
 62
     4
  5
3DC
 10
2028.85026
 20
1720.801565
 30
0.0
 11
2028.85026
 21
1806.801605
 31
0.0
  0
LINE
  8
8
  6
CONTINUOUS
 62
     4
  5
3DD
 10
2010.85025
 20
1824.801545
 30
0.0
 11
1924.35041
 21
1824.801545
 31
0.0
  0
LINE
  8
8
  6
CONTINUOUS
 62
     4
  5
3DE
 10
1995.19314
 20
1824.801545
 30
0.0
 11
2011.85041
 21
1824.801545
 31
0.0
  0
ARC
  8
8
  6
CONTINUOUS
 62
     4
  5
3DF
 10
2035.85026
 20
1838.801545
 30
0.0
 40
45.00006
 50
300.576746
 51
60.54555
  0
ARC
  8
8
  6
CONTINUOUS
 62
     4
  5
3E0
 10
2035.85026
 20
1838.801545
 30
0.0
 40
45.00006
 50
198.126181
 51
262.33778
  0
CIRCLE
  8
8
  6
CONTINUOUS
 62
     4
  5
3E1
 10
2070.86664
 20
1838.848585
 30
0.0
 40
4.50002
  0
ARC
  8
8
  6
CONTINUOUS
 62
     4
  5
3E2
 10
2035.85026
 20
1838.801545
 30
0.0
 40
43.00002
 50
300.576818
 51
60.545482
  0
LINE
  8
8
  6
CONTINUOUS
 62
     4
  5
3E3
 10
2025.28012
 20
1804.493285
 30
0.0
 11
2021.61177
 21
1798.139805
 31
0.0
  0
CIRCLE
  8
8
  6
CONTINUOUS
 62
     4
  5
3E4
 10
2018.34634
 20
1808.476565
 30
0.0
 40
4.50002
  0
CIRCLE
  8
8
  6
CONTINUOUS
 62
     4
  5
3E5
 10
2018.35026
 20
1808.490565
 30
0.0
 40
8.00002
  0
LINE
  8
8
  6
CONTINUOUS
 62
     4
  5
3E6
 10
2070.84732
 20
1846.801705
 30
0.0
 11
2078.1836
 21
1846.801705
 31
0.0
  0
LINE
  8
8
  6
CONTINUOUS
 62
     4
  5
3E7
 10
2070.84879
 20
1830.801525
 30
0.0
 11
2078.17198
 21
1830.801525
 31
0.0
  0
LINE
  8
8
  6
CONTINUOUS
 62
     4
  5
3E8
 10
2070.85026
 20
1843.301705
 30
0.0
 11
2070.85026
 21
1834.301525
 31
0.0
  0
LINE
  8
8
  6
CONTINUOUS
 62
     4
  5
3E9
 10
2070.85026
 20
1838.801545
 30
0.0
 11
2066.35038
 21
1838.801545
 31
0.0
  0
ARC
  8
8
  6
CONTINUOUS
 62
     4
  5
3EA
 10
2068.85428
 20
1838.801125
 30
0.0
 40
8.00002
 50
89.258177
 51
269.621121
  0
CIRCLE
  8
8
  6
CONTINUOUS
 62
     4
  5
3EB
 10
2070.85026
 20
1838.801545
 30
0.0
 40
8.00002
  0
ARC
  8
8
  6
CONTINUOUS
 62
     4
  5
3EC
 10
2035.85026
 20
1838.801545
 30
0.0
 40
43.00002
 50
198.126181
 51
262.513205
  0
ARC
  8
8
  6
CONTINUOUS
 62
     4
  5
3ED
 10
2035.85026
 20
1838.801545
 30
0.0
 40
45.00006
 50
299.267566
 51
60.416488
  0
ARC
  8
8
  6
CONTINUOUS
 62
     4
  5
3EE
 10
2035.85026
 20
1838.801545
 30
0.0
 40
43.00002
 50
199.000793
 51
261.979098
  0
ARC
  8
8
  6
CONTINUOUS
 62
     4
  5
3EF
 10
2035.85026
 20
1838.801545
 30
0.0
 40
43.00002
 50
300.77234
 51
59.22766
  0
ARC
  8
8
  6
CONTINUOUS
 62
     4
  5
3F0
 10
2035.85026
 20
1838.801545
 30
0.0
 40
43.00002
 50
199.206874
 51
261.979098
  0
CIRCLE
  8
8
  6
HIDDEN
 62
     4
  5
3F1
 10
2035.85026
 20
1838.801545
 30
0.0
 40
14.0
  0
CIRCLE
  8
8
  6
HIDDEN
 62
     4
  5
3F2
 10
2035.85026
 20
1838.801545
 30
0.0
 40
7.50008
  0
LINE
  8
10
  6
CENTER
 62
     4
  5
3F3
 10
2035.85026
 20
1838.801545
 30
0.0
 11
2027.76729
 21
1824.801545
 31
0.0
  0
LINE
  8
10
  6
CENTER
 62
     4
  5
3F4
 10
2035.85026
 20
1838.801545
 30
0.0
 11
2018.35026
 21
1869.112665
 31
0.0
  0
LINE
  8
8
  6
CONTINUOUS
 62
     4
  5
3F5
 10
2011.42278
 20
1812.491905
 30
0.0
 11
2007.76122
 21
1806.149765
 31
0.0
  0
LINE
  8
8
  6
CONTINUOUS
 62
     4
  5
3F6
 10
2022.24744
 20
1806.240625
 30
0.0
 11
2014.45322
 21
1810.740645
 31
0.0
  0
LINE
  8
8
  6
CONTINUOUS
 62
     4
  5
3F7
 10
2018.35026
 20
1808.490565
 30
0.0
 11
2020.60041
 21
1812.387745
 31
0.0
  0
ARC
  8
8
  6
CONTINUOUS
 62
     4
  5
3F8
 10
2019.34811
 20
1810.219425
 30
0.0
 40
8.00002
 50
329.258179
 51
149.621122
  0
LINE
  8
8
  6
CONTINUOUS
 62
     4
  5
3F9
 10
2011.42362
 20
1865.110065
 30
0.0
 11
2007.75548
 21
1871.463405
 31
0.0
  0
LINE
  8
8
  6
CONTINUOUS
 62
     4
  5
3FA
 10
2025.27921
 20
1873.111485
 30
0.0
 11
2021.61772
 21
1879.453485
 31
0.0
  0
LINE
  8
8
  6
CONTINUOUS
 62
     4
  5
3FB
 10
2014.45322
 20
1866.862725
 30
0.0
 11
2022.24744
 21
1871.362605
 31
0.0
  0
LINE
  8
8
  6
CONTINUOUS
 62
     4
  5
3FC
 10
2018.35026
 20
1869.112665
 30
0.0
 11
2020.60041
 21
1865.215485
 31
0.0
  0
ARC
  8
8
  6
CONTINUOUS
 62
     4
  5
3FD
 10
2019.34867
 20
1867.384225
 30
0.0
 40
8.00002
 50
209.258177
 51
29.621122
  0
CIRCLE
  8
8
  6
CONTINUOUS
 62
     4
  5
3FE
 10
2018.34004
 20
1869.123165
 30
0.0
 40
4.50002
  0
CIRCLE
  8
8
  6
CONTINUOUS
 62
     4
  5
3FF
 10
2018.35026
 20
1869.112665
 30
0.0
 40
8.00002
  0
ARC
  8
8
  6
CONTINUOUS
 62
     4
  5
400
 10
2035.85026
 20
1838.801545
 30
0.0
 40
45.00006
 50
97.66222
 51
161.873821
  0
ARC
  8
8
  6
CONTINUOUS
 62
     4
  5
401
 10
2035.85026
 20
1838.801545
 30
0.0
 40
43.00002
 50
98.020902
 51
160.999208
  0
ARC
  8
8
  6
CONTINUOUS
 62
     4
  5
402
 10
2035.85026
 20
1838.801545
 30
0.0
 40
43.00002
 50
98.020902
 51
160.999208
  0
CIRCLE
  8
8
  6
HIDDEN
 62
     4
  5
403
 10
2035.85026
 20
1838.801545
 30
0.0
 40
3.00006
  0
ARC
  8
8
  6
CONTINUOUS
 62
     4
  5
404
 10
2010.85025
 20
1806.801465
 30
0.0
 40
18.00008
 50
0.0
 51
90.0
  0
ARC
  8
8
  6
CONTINUOUS
 62
     4
  5
405
 10
2010.85025
 20
1870.801625
 30
0.0
 40
18.00008
 50
270.0
 51
0.0
  0
ARC
  8
8
  6
CONTINUOUS
 62
     4
  5
406
 10
2010.85025
 20
1720.801565
 30
0.0
 40
46.00008
 50
270.0
 51
0.0
  0
ARC
  8
8
  6
CONTINUOUS
 62
     4
  5
407
 10
2010.85025
 20
1720.801565
 30
0.0
 40
18.00008
 50
270.0
 51
0.0
  0
ARC
  8
8
  6
CONTINUOUS
 62
     4
  5
408
 10
1860.35025
 20
1720.801565
 30
0.0
 40
18.00008
 50
270.0
 51
0.0
  0
LINE
  8
8
  6
CONTINUOUS
 62
     4
  5
409
 10
1878.35026
 20
1720.801565
 30
0.0
 11
1878.35026
 21
1806.801605
 31
0.0
  0
ARC
  8
8
  6
CONTINUOUS
 62
     4
  5
40A
 10
1860.35025
 20
1956.801665
 30
0.0
 40
18.00008
 50
0.0
 51
90.0
  0
LINE
  8
50
  6
CONTINUOUS
 62
     4
  5
40B
 10
1878.35026
 20
1956.801665
 30
0.0
 11
1878.35026
 21
1870.801625
 31
0.0
  0
ARC
  8
8
  6
CONTINUOUS
 62
     4
  5
40C
 10
1860.35025
 20
1806.801605
 30
0.0
 40
18.00008
 50
0.0
 51
90.0
  0
ARC
  8
8
  6
CONTINUOUS
 62
     4
  5
40D
 10
1860.35025
 20
1870.801625
 30
0.0
 40
18.00008
 50
270.0
 51
0.0
  0
LINE
  8
8
  6
CONTINUOUS
 62
     4
  5
40E
 10
1728.35041
 20
1806.801605
 30
0.0
 11
1728.35041
 21
1720.801565
 31
0.0
  0
ARC
  8
8
  6
CONTINUOUS
 62
     4
  5
40F
 10
1710.35026
 20
1720.801565
 30
0.0
 40
18.00008
 50
270.0
 51
0.0
  0
ARC
  8
8
  6
CONTINUOUS
 62
     4
  5
410
 10
1774.35021
 20
1720.801565
 30
0.0
 40
18.00008
 50
180.0
 51
270.0
  0
LINE
  8
8
  6
CONTINUOUS
 62
     4
  5
411
 10
1756.35041
 20
1806.801605
 30
0.0
 11
1756.35041
 21
1720.801565
 31
0.0
  0
ARC
  8
8
  6
CONTINUOUS
 62
     4
  5
412
 10
1710.35026
 20
1806.801605
 30
0.0
 40
18.00008
 50
0.0
 51
90.0
  0
ARC
  8
8
  6
CONTINUOUS
 62
     4
  5
413
 10
1710.35026
 20
1870.801625
 30
0.0
 40
18.00008
 50
270.0
 51
0.0
  0
ARC
  8
8
  6
CONTINUOUS
 62
     4
  5
414
 10
1774.35021
 20
1870.801625
 30
0.0
 40
18.00008
 50
180.0
 51
270.0
  0
ARC
  8
8
  6
CONTINUOUS
 62
     4
  5
415
 10
1774.35021
 20
1806.801605
 30
0.0
 40
18.00008
 50
90.0
 51
180.0
  0
ARC
  8
8
  6
CONTINUOUS
 62
     4
  5
416
 10
1774.35021
 20
1956.801665
 30
0.0
 40
18.00008
 50
90.0
 51
180.0
  0
ARC
  8
8
  6
CONTINUOUS
 62
     4
  5
417
 10
1710.35026
 20
1956.801665
 30
0.0
 40
18.00008
 50
0.0
 51
90.0
  0
LINE
  8
50
  6
CONTINUOUS
 62
     4
  5
418
 10
1756.35041
 20
1870.801625
 30
0.0
 11
1756.35041
 21
1958.490065
 31
0.0
  0
LINE
  8
50
  6
CONTINUOUS
 62
     4
  5
419
 10
1728.3502
 20
1956.801665
 30
0.0
 11
1728.3502
 21
1870.801625
 31
0.0
  0
LINE
  8
8
  6
CONTINUOUS
 62
     4
  5
41A
 10
1728.35041
 20
2106.801585
 30
0.0
 11
1728.35041
 21
2020.801545
 31
0.0
  0
ARC
  8
8
  6
CONTINUOUS
 62
     4
  5
41B
 10
1710.35026
 20
2106.801585
 30
0.0
 40
18.00008
 50
0.0
 51
90.0
  0
ARC
  8
8
  6
CONTINUOUS
 62
     4
  5
41C
 10
1710.35026
 20
2106.801585
 30
0.0
 40
18.00008
 50
0.0
 51
90.0
  0
LINE
  8
8
  6
CONTINUOUS
 62
     4
  5
41D
 10
1728.35041
 20
2256.801645
 30
0.0
 11
1728.35041
 21
2170.801605
 31
0.0
  0
LINE
  8
8
  6
CONTINUOUS
 62
     4
  5
41E
 10
1728.35041
 20
2256.801645
 30
0.0
 11
1728.35041
 21
2170.801605
 31
0.0
  0
ARC
  8
8
  6
CONTINUOUS
 62
     4
  5
41F
 10
1710.35026
 20
2256.801645
 30
0.0
 40
18.00008
 50
0.0
 51
90.0
  0
ARC
  8
8
  6
CONTINUOUS
 62
     4
  5
420
 10
1710.35026
 20
2170.801605
 30
0.0
 40
18.00008
 50
270.0
 51
0.0
  0
ARC
  8
8
  6
CONTINUOUS
 62
     4
  5
421
 10
1710.35026
 20
2170.801605
 30
0.0
 40
18.00008
 50
270.0
 51
0.0
  0
ARC
  8
8
  6
CONTINUOUS
 62
     4
  5
422
 10
1710.35026
 20
2020.801685
 30
0.0
 40
18.00008
 50
270.0
 51
0.0
  0
ARC
  8
8
  6
CONTINUOUS
 62
     4
  5
423
 10
1710.35026
 20
2020.801685
 30
0.0
 40
18.00008
 50
270.0
 51
0.0
  0
LINE
  8
8
  6
CONTINUOUS
 62
     4
  5
424
 10
1605.85041
 20
2020.801545
 30
0.0
 11
1605.85041
 21
2106.801585
 31
0.0
  0
LINE
  8
8
  6
CONTINUOUS
 62
     4
  5
425
 10
1605.85041
 20
2170.801605
 30
0.0
 11
1605.85041
 21
2256.801645
 31
0.0
  0
LINE
  8
8
  6
CONTINUOUS
 62
     4
  5
426
 10
1605.85041
 20
2256.801645
 30
0.0
 11
1605.85041
 21
2170.801605
 31
0.0
  0
ARC
  8
8
  6
CONTINUOUS
 62
     4
  5
427
 10
1623.85021
 20
2020.801685
 30
0.0
 40
18.00008
 50
180.0
 51
270.0
  0
ARC
  8
8
  6
CONTINUOUS
 62
     4
  5
428
 10
1623.85021
 20
2020.801685
 30
0.0
 40
18.00008
 50
180.0
 51
270.0
  0
LINE
  8
10
  6
CENTER
 62
     4
  5
429
 10
1599.85036
 20
2138.801665
 30
0.0
 11
1607.93319
 21
2124.801665
 31
0.0
  0
LINE
  8
10
  6
CENTER
 62
     4
  5
42A
 10
1599.85036
 20
2138.801665
 30
0.0
 11
1617.35036
 21
2169.112505
 31
0.0
  0
ARC
  8
8
  6
CONTINUOUS
 62
     4
  5
42B
 10
1599.85036
 20
2138.801665
 30
0.0
 40
45.00006
 50
119.454452
 51
239.423257
  0
ARC
  8
8
  6
CONTINUOUS
 62
     4
  5
42C
 10
1599.85036
 20
2138.801665
 30
0.0
 40
45.00006
 50
277.66222
 51
341.873823
  0
CIRCLE
  8
8
  6
CONTINUOUS
 62
     4
  5
42D
 10
1564.83398
 20
2138.848425
 30
0.0
 40
4.50002
  0
ARC
  8
8
  6
CONTINUOUS
 62
     4
  5
42E
 10
1599.85036
 20
2138.801665
 30
0.0
 40
43.00002
 50
119.454518
 51
239.423182
  0
LINE
  8
8
  6
CONTINUOUS
 62
     4
  5
42F
 10
1564.85323
 20
2146.801545
 30
0.0
 11
1557.51702
 21
2146.801545
 31
0.0
  0
LINE
  8
8
  6
CONTINUOUS
 62
     4
  5
430
 10
1564.85169
 20
2130.801645
 30
0.0
 11
1557.52864
 21
2130.801645
 31
0.0
  0
LINE
  8
8
  6
CONTINUOUS
 62
     4
  5
431
 10
1564.85036
 20
2143.301545
 30
0.0
 11
1564.85036
 21
2134.301645
 31
0.0
  0
LINE
  8
8
  6
CONTINUOUS
 62
     4
  5
432
 10
1564.85036
 20
2138.801665
 30
0.0
 11
1569.35024
 21
2138.801665
 31
0.0
  0
ARC
  8
8
  6
CONTINUOUS
 62
     4
  5
433
 10
1566.84634
 20
2138.801245
 30
0.0
 40
8.00002
 50
270.378881
 51
90.741825
  0
CIRCLE
  8
8
  6
CONTINUOUS
 62
     4
  5
434
 10
1564.85036
 20
2138.801665
 30
0.0
 40
8.00002
  0
ARC
  8
8
  6
CONTINUOUS
 62
     4
  5
435
 10
1599.85036
 20
2138.801665
 30
0.0
 40
43.00002
 50
277.486801
 51
341.873823
  0
ARC
  8
8
  6
CONTINUOUS
 62
     4
  5
436
 10
1599.85036
 20
2138.801665
 30
0.0
 40
45.00006
 50
18.126179
 51
82.337781
  0
ARC
  8
8
  6
CONTINUOUS
 62
     4
  5
437
 10
1599.85036
 20
2138.801665
 30
0.0
 40
45.00006
 50
119.583513
 51
240.732436
  0
ARC
  8
8
  6
CONTINUOUS
 62
     4
  5
438
 10
1599.85036
 20
2138.801665
 30
0.0
 40
43.00002
 50
278.020904
 51
340.999207
  0
ARC
  8
8
  6
CONTINUOUS
 62
     4
  5
439
 10
1599.85036
 20
2138.801665
 30
0.0
 40
43.00002
 50
19.000794
 51
81.979099
  0
ARC
  8
8
  6
CONTINUOUS
 62
     4
  5
43A
 10
1599.85036
 20
2138.801665
 30
0.0
 40
43.00002
 50
19.000794
 51
81.979099
  0
ARC
  8
8
  6
CONTINUOUS
 62
     4
  5
43B
 10
1599.85036
 20
2138.801665
 30
0.0
 40
43.00002
 50
120.77234
 51
239.22766
  0
ARC
  8
8
  6
CONTINUOUS
 62
     4
  5
43C
 10
1599.85036
 20
2138.801665
 30
0.0
 40
43.00002
 50
278.020904
 51
340.793127
  0
CIRCLE
  8
8
  6
HIDDEN
 62
     4
  5
43D
 10
1599.85036
 20
2138.801665
 30
0.0
 40
14.0
  0
CIRCLE
  8
8
  6
HIDDEN
 62
     4
  5
43E
 10
1599.85036
 20
2138.801665
 30
0.0
 40
7.50008
  0
CIRCLE
  8
8
  6
HIDDEN
 62
     4
  5
43F
 10
1599.85036
 20
2138.801665
 30
0.0
 40
3.00006
  0
LINE
  8
10
  6
CENTER
 62
     4
  5
440
 10
1623.24156
 20
2098.286645
 30
0.0
 11
1607.93319
 21
2124.801665
 31
0.0
  0
ARC
  8
8
  6
CONTINUOUS
 62
     4
  5
441
 10
1623.85021
 20
2106.801585
 30
0.0
 40
18.00008
 50
90.0
 51
180.0
  0
LINE
  8
8
  6
CONTINUOUS
 62
     4
  5
442
 10
1610.4205
 20
2104.493405
 30
0.0
 11
1614.08871
 21
2098.139925
 31
0.0
  0
ARC
  8
8
  6
CONTINUOUS
 62
     4
  5
443
 10
1616.35251
 20
2110.219545
 30
0.0
 40
8.00002
 50
30.378879
 51
210.741823
  0
CIRCLE
  8
8
  6
CONTINUOUS
 62
     4
  5
444
 10
1617.35428
 20
2108.476685
 30
0.0
 40
4.50002
  0
CIRCLE
  8
8
  6
CONTINUOUS
 62
     4
  5
445
 10
1617.35036
 20
2108.490685
 30
0.0
 40
8.00002
  0
ARC
  8
8
  6
CONTINUOUS
 62
     4
  5
446
 10
1623.85021
 20
2106.801585
 30
0.0
 40
18.00008
 50
90.0
 51
180.0
  0
LINE
  8
8
  6
CONTINUOUS
 62
     4
  5
447
 10
1610.42134
 20
2173.111325
 30
0.0
 11
1614.0829
 21
2179.453325
 31
0.0
  0
ARC
  8
8
  6
CONTINUOUS
 62
     4
  5
448
 10
1616.35195
 20
2167.384065
 30
0.0
 40
8.00002
 50
150.378879
 51
330.741823
  0
CIRCLE
  8
8
  6
CONTINUOUS
 62
     4
  5
449
 10
1617.35036
 20
2169.112505
 30
0.0
 40
8.00002
  0
ARC
  8
8
  6
CONTINUOUS
 62
     4
  5
44A
 10
1623.85021
 20
2170.801605
 30
0.0
 40
18.00008
 50
180.0
 51
270.0
  0
ARC
  8
8
  6
CONTINUOUS
 62
     4
  5
44B
 10
1623.85021
 20
2170.801605
 30
0.0
 40
18.00008
 50
180.0
 51
270.0
  0
LINE
  8
10
  6
CENTER
 62
     4
  5
44C
 10
1599.85036
 20
1838.801545
 30
0.0
 11
1617.35036
 21
1869.112525
 31
0.0
  0
LINE
  8
8
  6
CONTINUOUS
 62
     4
  5
44D
 10
1577.85041
 20
1720.801565
 30
0.0
 11
1577.85041
 21
1852.801545
 31
0.0
  0
LINE
  8
8
  6
CONTINUOUS
 62
     4
  5
44E
 10
1577.85041
 20
2138.801665
 30
0.0
 11
1577.85041
 21
1853.729605
 31
0.0
  0
LINE
  8
8
  6
CONTINUOUS
 62
     4
  5
44F
 10
1577.85041
 20
2256.801645
 30
0.0
 11
1577.85041
 21
2152.801665
 31
0.0
  0
ARC
  8
8
  6
CONTINUOUS
 62
     4
  5
450
 10
1623.85021
 20
2256.801645
 30
0.0
 40
46.00008
 50
90.0
 51
180.0
  0
LINE
  8
8
  6
CONTINUOUS
 62
     4
  5
451
 10
1577.85041
 20
1988.801605
 30
0.0
 11
1577.85041
 21
2152.801665
 31
0.0
  0
LINE
  8
8
  6
CONTINUOUS
 62
     4
  5
452
 10
1623.85021
 20
2274.801585
 30
0.0
 11
1710.35026
 21
2274.801585
 31
0.0
  0
ARC
  8
8
  6
CONTINUOUS
 62
     4
  5
453
 10
1599.85036
 20
1838.801545
 30
0.0
 40
45.00006
 50
119.454452
 51
239.423257
  0
ARC
  8
8
  6
CONTINUOUS
 62
     4
  5
454
 10
1599.85036
 20
1838.801545
 30
0.0
 40
45.00006
 50
277.66222
 51
341.873823
  0
CIRCLE
  8
8
  6
CONTINUOUS
 62
     4
  5
455
 10
1564.83398
 20
1838.848445
 30
0.0
 40
4.50002
  0
ARC
  8
8
  6
CONTINUOUS
 62
     4
  5
456
 10
1599.85036
 20
1838.801545
 30
0.0
 40
43.00002
 50
119.454518
 51
239.423182
  0
LINE
  8
8
  6
CONTINUOUS
 62
     4
  5
457
 10
1564.85323
 20
1846.801565
 30
0.0
 11
1557.51702
 21
1846.801565
 31
0.0
  0
LINE
  8
8
  6
CONTINUOUS
 62
     4
  5
458
 10
1564.85169
 20
1830.801525
 30
0.0
 11
1557.52864
 21
1830.801525
 31
0.0
  0
LINE
  8
8
  6
CONTINUOUS
 62
     4
  5
459
 10
1564.85036
 20
1843.301565
 30
0.0
 11
1564.85036
 21
1834.301525
 31
0.0
  0
LINE
  8
8
  6
CONTINUOUS
 62
     4
  5
45A
 10
1564.85036
 20
1838.801545
 30
0.0
 11
1569.35024
 21
1838.801545
 31
0.0
  0
ARC
  8
8
  6
CONTINUOUS
 62
     4
  5
45B
 10
1566.84634
 20
1838.801125
 30
0.0
 40
8.00002
 50
270.378881
 51
90.741825
  0
CIRCLE
  8
8
  6
CONTINUOUS
 62
     4
  5
45C
 10
1564.85036
 20
1838.801545
 30
0.0
 40
8.00002
  0
ARC
  8
8
  6
CONTINUOUS
 62
     4
  5
45D
 10
1599.85036
 20
1838.801545
 30
0.0
 40
43.00002
 50
277.486801
 51
341.873823
  0
ARC
  8
8
  6
CONTINUOUS
 62
     4
  5
45E
 10
1599.85036
 20
1838.801545
 30
0.0
 40
45.00006
 50
18.126179
 51
82.337781
  0
ARC
  8
8
  6
CONTINUOUS
 62
     4
  5
45F
 10
1599.85036
 20
1838.801545
 30
0.0
 40
45.00006
 50
119.583513
 51
240.732436
  0
ARC
  8
8
  6
CONTINUOUS
 62
     4
  5
460
 10
1599.85036
 20
1838.801545
 30
0.0
 40
43.00002
 50
278.020904
 51
340.999207
  0
ARC
  8
8
  6
CONTINUOUS
 62
     4
  5
461
 10
1599.85036
 20
1838.801545
 30
0.0
 40
43.00002
 50
19.000794
 51
81.979099
  0
ARC
  8
8
  6
CONTINUOUS
 62
     4
  5
462
 10
1599.85036
 20
1838.801545
 30
0.0
 40
43.00002
 50
19.000794
 51
81.979099
  0
ARC
  8
8
  6
CONTINUOUS
 62
     4
  5
463
 10
1599.85036
 20
1838.801545
 30
0.0
 40
43.00002
 50
120.77234
 51
239.22766
  0
ARC
  8
8
  6
CONTINUOUS
 62
     4
  5
464
 10
1599.85036
 20
1838.801545
 30
0.0
 40
43.00002
 50
278.020904
 51
340.793127
  0
CIRCLE
  8
8
  6
HIDDEN
 62
     4
  5
465
 10
1599.85036
 20
1838.801545
 30
0.0
 40
14.0
  0
ARC
  8
8
  6
CONTINUOUS
 62
     4
  5
466
 10
1623.85021
 20
2256.801645
 30
0.0
 40
18.00008
 50
90.0
 51
180.0
  0
LINE
  8
8
  6
CONTINUOUS
 62
     4
  5
467
 10
1710.35026
 20
1702.801625
 30
0.0
 11
1623.85021
 21
1702.801625
 31
0.0
  0
LINE
  8
8
  6
CONTINUOUS
 62
     4
  5
468
 10
1605.85041
 20
1806.801605
 30
0.0
 11
1605.85041
 21
1720.801565
 31
0.0
  0
LINE
  8
8
  6
CONTINUOUS
 62
     4
  5
469
 10
1623.85021
 20
1824.801545
 30
0.0
 11
1710.35026
 21
1824.801545
 31
0.0
  0
LINE
  8
8
  6
CONTINUOUS
 62
     4
  5
46A
 10
1623.85021
 20
1852.801545
 30
0.0
 11
1710.35026
 21
1852.801545
 31
0.0
  0
LINE
  8
10
  6
CENTER
 62
     4
  5
46B
 10
1599.85036
 20
1838.801545
 30
0.0
 11
1607.93319
 21
1824.801545
 31
0.0
  0
LINE
  8
8
  6
CONTINUOUS
 62
     4
  5
46C
 10
1640.50748
 20
1824.801545
 30
0.0
 11
1623.85021
 21
1824.801545
 31
0.0
  0
CIRCLE
  8
8
  6
HIDDEN
 62
     4
  5
46D
 10
1599.85036
 20
1838.801545
 30
0.0
 40
7.50008
  0
CIRCLE
  8
8
  6
HIDDEN
 62
     4
  5
46E
 10
1599.85036
 20
1838.801545
 30
0.0
 40
3.00006
  0
ARC
  8
8
  6
CONTINUOUS
 62
     4
  5
46F
 10
1623.85021
 20
1956.801665
 30
0.0
 40
18.00008
 50
90.0
 51
180.0
  0
LINE
  8
50
  6
CONTINUOUS
 62
     4
  5
470
 10
1605.8502
 20
1956.801665
 30
0.0
 11
1605.8502
 21
1870.801625
 31
0.0
  0
LINE
  8
10
  6
CENTER
 62
     4
  5
471
 10
1623.24156
 20
1798.286525
 30
0.0
 11
1607.93319
 21
1824.801545
 31
0.0
  0
CIRCLE
  8
8
  6
CONTINUOUS
 62
     4
  5
472
 10
1617.35036
 20
1808.490565
 30
0.0
 40
8.00002
  0
LINE
  8
8
  6
CONTINUOUS
 62
     4
  5
473
 10
1624.277
 20
1865.109925
 30
0.0
 11
1627.94514
 21
1871.463265
 31
0.0
  0
LINE
  8
8
  6
CONTINUOUS
 62
     4
  5
474
 10
1610.42134
 20
1873.111345
 30
0.0
 11
1614.0829
 21
1879.453345
 31
0.0
  0
LINE
  8
8
  6
CONTINUOUS
 62
     4
  5
475
 10
1621.2474
 20
1866.862585
 30
0.0
 11
1613.45318
 21
1871.362465
 31
0.0
  0
LINE
  8
8
  6
CONTINUOUS
 62
     4
  5
476
 10
1617.35036
 20
1869.112525
 30
0.0
 11
1615.10021
 21
1865.215345
 31
0.0
  0
ARC
  8
8
  6
CONTINUOUS
 62
     4
  5
477
 10
1616.35195
 20
1867.384085
 30
0.0
 40
8.00002
 50
150.378879
 51
330.741823
  0
CIRCLE
  8
8
  6
CONTINUOUS
 62
     4
  5
478
 10
1617.36058
 20
1869.123025
 30
0.0
 40
4.50002
  0
CIRCLE
  8
8
  6
CONTINUOUS
 62
     4
  5
479
 10
1617.35036
 20
1869.112525
 30
0.0
 40
8.00002
  0
ARC
  8
8
  6
CONTINUOUS
 62
     4
  5
47A
 10
1623.85021
 20
1870.801625
 30
0.0
 40
18.00008
 50
180.0
 51
270.0
  0
ARC
  8
8
  6
CONTINUOUS
 62
     4
  5
47B
 10
1623.85021
 20
1870.801625
 30
0.0
 40
18.00008
 50
180.0
 51
270.0
  0
LINE
  8
8
  6
CONTINUOUS
 62
     4
  5
47C
 10
1610.4205
 20
1804.493285
 30
0.0
 11
1614.08871
 21
1798.139805
 31
0.0
  0
ARC
  8
8
  6
CONTINUOUS
 62
     4
  5
47D
 10
1623.85021
 20
1806.801465
 30
0.0
 40
18.00008
 50
90.0
 51
180.0
  0
LINE
  8
8
  6
CONTINUOUS
 62
     4
  5
47E
 10
1624.27777
 20
1812.491905
 30
0.0
 11
1627.9394
 21
1806.149765
 31
0.0
  0
ARC
  8
8
  6
CONTINUOUS
 62
     4
  5
47F
 10
1616.35251
 20
1810.219425
 30
0.0
 40
8.00002
 50
30.378879
 51
210.741823
  0
ARC
  8
8
  6
CONTINUOUS
 62
     4
  5
480
 10
1623.85021
 20
1806.801465
 30
0.0
 40
18.00008
 50
90.0
 51
180.0
  0
LINE
  8
8
  6
CONTINUOUS
 62
     4
  5
481
 10
1613.45318
 20
1806.240625
 30
0.0
 11
1621.2474
 21
1810.740645
 31
0.0
  0
LINE
  8
8
  6
CONTINUOUS
 62
     4
  5
482
 10
1617.35036
 20
1808.490565
 30
0.0
 11
1615.10021
 21
1812.387745
 31
0.0
  0
CIRCLE
  8
8
  6
CONTINUOUS
 62
     4
  5
483
 10
1617.35428
 20
1808.476565
 30
0.0
 40
4.50002
  0
LINE
  8
8
  6
CONTINUOUS
 62
     4
  5
484
 10
1623.85021
 20
2124.801665
 30
0.0
 11
1710.35026
 21
2124.801665
 31
0.0
  0
LINE
  8
8
  6
CONTINUOUS
 62
     4
  5
485
 10
1623.85021
 20
2152.801665
 30
0.0
 11
1710.35026
 21
2152.801665
 31
0.0
  0
LINE
  8
8
  6
CONTINUOUS
 62
     4
  5
486
 10
1710.35026
 20
2152.801665
 30
0.0
 11
1623.85021
 21
2152.801665
 31
0.0
  0
LINE
  8
8
  6
CONTINUOUS
 62
     4
  5
487
 10
1710.35026
 20
2124.801665
 30
0.0
 11
1642.61721
 21
2124.801665
 31
0.0
  0
LINE
  8
8
  6
CONTINUOUS
 62
     4
  5
488
 10
1640.50748
 20
2124.801665
 30
0.0
 11
1623.85021
 21
2124.801665
 31
0.0
  0
LINE
  8
8
  6
CONTINUOUS
 62
     4
  5
489
 10
1624.27777
 20
2112.492025
 30
0.0
 11
1627.9394
 21
2106.149885
 31
0.0
  0
LINE
  8
8
  6
CONTINUOUS
 62
     4
  5
48A
 10
1613.45318
 20
2106.240745
 30
0.0
 11
1621.2474
 21
2110.740765
 31
0.0
  0
LINE
  8
8
  6
CONTINUOUS
 62
     4
  5
48B
 10
1617.35036
 20
2108.490685
 30
0.0
 11
1615.10021
 21
2112.387865
 31
0.0
  0
LINE
  8
8
  6
CONTINUOUS
 62
     4
  5
48C
 10
1624.277
 20
2165.109905
 30
0.0
 11
1627.94514
 21
2171.463245
 31
0.0
  0
LINE
  8
8
  6
CONTINUOUS
 62
     4
  5
48D
 10
1621.2474
 20
2166.862565
 30
0.0
 11
1613.45318
 21
2171.362445
 31
0.0
  0
LINE
  8
8
  6
CONTINUOUS
 62
     4
  5
48E
 10
1617.35036
 20
2169.112505
 30
0.0
 11
1615.10021
 21
2165.215325
 31
0.0
  0
CIRCLE
  8
8
  6
CONTINUOUS
 62
     4
  5
48F
 10
1617.36058
 20
2169.123005
 30
0.0
 40
4.50002
  0
LINE
  8
8
  6
CONTINUOUS
 62
     4
  5
490
 10
1623.85021
 20
1974.801745
 30
0.0
 11
1710.35026
 21
1974.801745
 31
0.0
  0
LINE
  8
8
  6
CONTINUOUS
 62
     4
  5
491
 10
1623.85021
 20
2002.801605
 30
0.0
 11
1710.35026
 21
2002.801605
 31
0.0
  0
LINE
  8
8
  6
CONTINUOUS
 62
     4
  5
492
 10
1710.35026
 20
2002.801605
 30
0.0
 11
1623.85021
 21
2002.801605
 31
0.0
  0
LINE
  8
8
  6
CONTINUOUS
 62
     4
  5
493
 10
1774.35021
 20
1974.801745
 30
0.0
 11
1860.35025
 21
1974.801745
 31
0.0
  0
LINE
  8
8
  6
CONTINUOUS
 62
     4
  5
494
 10
1774.35021
 20
1824.801545
 30
0.0
 11
1860.35025
 21
1824.801545
 31
0.0
  0
LINE
  8
8
  6
CONTINUOUS
 62
     4
  5
495
 10
1860.35025
 20
1852.801545
 30
0.0
 11
1774.35021
 21
1852.801545
 31
0.0
  0
ARC
  8
8
  6
CONTINUOUS
 62
     4
  5
496
 10
1623.85021
 20
1720.801565
 30
0.0
 40
46.00008
 50
180.0
 51
270.0
  0
LINE
  8
8
  6
CONTINUOUS
 62
     4
  5
497
 10
1774.35021
 20
1702.801625
 30
0.0
 11
1860.35025
 21
1702.801625
 31
0.0
  0
ARC
  8
8
  6
CONTINUOUS
 62
     4
  5
498
 10
1623.85021
 20
1720.801565
 30
0.0
 40
18.00008
 50
180.0
 51
270.0
  0
LINE
  8
8
  6
CONTINUOUS
 62
     4
  5
499
 10
1623.85021
 20
1674.801625
 30
0.0
 11
2010.85025
 21
1674.801625
 31
0.0
  0
LINE
  8
151
  6
CONTINUOUS
 62
     3
  5
49A
 10
2093.895843
 20
1838.801585
 30
0.0
 11
2080.85032
 21
1838.801585
 31
0.0
  0
LINE
  8
2
  6
CONTINUOUS
 62
     3
  5
49B
 10
1728.35041
 20
2188.801625
 30
0.0
 11
1605.85041
 21
2188.801625
 31
0.0
  0
LINE
  8
2
  6
CONTINUOUS
 62
     3
  5
49C
 10
1878.35026
 20
2188.801625
 30
0.0
 11
1756.35041
 21
2188.801625
 31
0.0
  0
LINE
  8
2
  6
CONTINUOUS
 62
     3
  5
49D
 10
2028.85026
 20
2188.801625
 30
0.0
 11
1906.35026
 21
2188.801625
 31
0.0
  0
LINE
  8
2
  6
CONTINUOUS
 62
     3
  5
49E
 10
1605.85041
 20
2088.801625
 30
0.0
 11
1728.35041
 21
2088.801625
 31
0.0
  0
LINE
  8
2
  6
CONTINUOUS
 62
     3
  5
49F
 10
1756.35041
 20
2088.801625
 30
0.0
 11
1878.35026
 21
2088.801625
 31
0.0
  0
LINE
  8
2
  6
CONTINUOUS
 62
     3
  5
4A0
 10
1906.35026
 20
2088.801625
 30
0.0
 11
2028.85026
 21
2088.801625
 31
0.0
  0
LINE
  8
2
  6
CONTINUOUS
 62
     3
  5
4A1
 10
1605.8502
 20
1888.801625
 30
0.0
 11
1728.3502
 21
1888.801625
 31
0.0
  0
LINE
  8
2
  6
CONTINUOUS
 62
     3
  5
4A2
 10
1756.35041
 20
1888.801625
 30
0.0
 11
1878.35026
 21
1888.801625
 31
0.0
  0
LINE
  8
2
  6
CONTINUOUS
 62
     3
  5
4A3
 10
1906.35026
 20
1888.801625
 30
0.0
 11
2028.85026
 21
1888.801625
 31
0.0
  0
LINE
  8
2
  6
CONTINUOUS
 62
     3
  5
4A4
 10
1728.35041
 20
1788.801625
 30
0.0
 11
1605.85041
 21
1788.801625
 31
0.0
  0
LINE
  8
2
  6
CONTINUOUS
 62
     3
  5
4A5
 10
1878.35026
 20
1788.801625
 30
0.0
 11
1756.35041
 21
1788.801625
 31
0.0
  0
LINE
  8
2
  6
CONTINUOUS
 62
     3
  5
4A6
 10
2028.85026
 20
1788.801625
 30
0.0
 11
1906.35026
 21
1788.801625
 31
0.0
  0
LINE
  8
10
  6
CENTER
 62
     3
  5
4A7
 10
1593.85036
 20
2332.373505
 30
0.0
 11
1593.85036
 21
1574.801625
 31
0.0
  0
LINE
  8
10
  6
CENTER
 62
     3
  5
4A8
 10
1743.85036
 20
2332.373505
 30
0.0
 11
1743.85036
 21
1574.801625
 31
0.0
  0
LINE
  8
10
  6
CENTER
 62
     3
  5
4A9
 10
1893.85036
 20
2332.373505
 30
0.0
 11
1893.85036
 21
1574.801625
 31
0.0
  0
LINE
  8
2
  6
CONTINUOUS
 62
     3
  5
4AA
 10
2693.85036
 20
2088.801625
 30
0.0
 11
2056.85026
 21
2088.801625
 31
0.0
  0
LINE
  8
2
  6
CONTINUOUS
 62
     3
  5
4AB
 10
2693.85036
 20
1988.801625
 30
0.0
 11
2056.85026
 21
1988.801625
 31
0.0
  0
LINE
  8
2
  6
CONTINUOUS
 62
     3
  5
4AC
 10
2693.85036
 20
1888.801625
 30
0.0
 11
2056.85026
 21
1888.801625
 31
0.0
  0
LINE
  8
2
  6
CONTINUOUS
 62
     3
  5
4AD
 10
2693.85036
 20
1688.801625
 30
0.0
 11
2056.85026
 21
1688.801625
 31
0.0
  0
LINE
  8
2
  6
CONTINUOUS
 62
     3
  5
4AE
 10
2693.85036
 20
1788.801625
 30
0.0
 11
2056.85026
 21
1788.801625
 31
0.0
  0
LINE
  8
2
  6
CONTINUOUS
 62
     3
  5
4AF
 10
2693.85036
 20
2188.801625
 30
0.0
 11
2056.85026
 21
2188.801625
 31
0.0
  0
LINE
  8
151
  6
CONTINUOUS
 62
     3
  5
4B0
 10
2093.85036
 20
3188.801625
 30
0.0
 11
2093.85036
 21
1233.187237
 31
0.0
  0
LINE
  8
151
  6
CONTINUOUS
 62
     3
  5
4B1
 10
1693.85036
 20
2302.801585
 30
0.0
 11
1693.85036
 21
3188.801625
 31
0.0
  0
LINE
  8
151
  6
CONTINUOUS
 62
     3
  5
4B2
 10
1893.85036
 20
3188.801625
 30
0.0
 11
1893.85036
 21
2302.801585
 31
0.0
  0
LINE
  8
151
  6
CONTINUOUS
 62
     3
  5
4B3
 10
1893.85036
 20
2302.801585
 30
0.0
 11
1893.85036
 21
2274.801585
 31
0.0
  0
LINE
  8
151
  6
CONTINUOUS
 62
     3
  5
4B4
 10
1793.85036
 20
3188.801625
 30
0.0
 11
1793.85036
 21
2302.801585
 31
0.0
  0
LINE
  8
151
  6
CONTINUOUS
 62
     3
  5
4B5
 10
1993.85036
 20
2302.801585
 30
0.0
 11
1993.85036
 21
3188.801625
 31
0.0
  0
LINE
  8
151
  6
CONTINUOUS
 62
     3
  5
4B6
 10
1893.85036
 20
2124.801665
 30
0.0
 11
1893.85036
 21
2152.801665
 31
0.0
  0
LINE
  8
151
  6
CONTINUOUS
 62
     3
  5
4B7
 10
1693.85036
 20
2152.801665
 30
0.0
 11
1693.85036
 21
2274.801585
 31
0.0
  0
LINE
  8
151
  6
CONTINUOUS
 62
     3
  5
4B8
 10
1793.85036
 20
2274.801585
 30
0.0
 11
1793.85036
 21
2152.801665
 31
0.0
  0
LINE
  8
151
  6
CONTINUOUS
 62
     3
  5
4B9
 10
1993.85036
 20
2152.801665
 30
0.0
 11
1993.85036
 21
2274.801585
 31
0.0
  0
LINE
  8
151
  6
CONTINUOUS
 62
     3
  5
4BA
 10
1893.85036
 20
1974.801745
 30
0.0
 11
1893.85036
 21
2002.801605
 31
0.0
  0
LINE
  8
151
  6
CONTINUOUS
 62
     3
  5
4BB
 10
1693.85036
 20
2002.801605
 30
0.0
 11
1693.85036
 21
2124.801665
 31
0.0
  0
LINE
  8
151
  6
CONTINUOUS
 62
     3
  5
4BC
 10
1793.85036
 20
2124.801665
 30
0.0
 11
1793.85036
 21
2002.801605
 31
0.0
  0
LINE
  8
151
  6
CONTINUOUS
 62
     3
  5
4BD
 10
1993.85036
 20
2002.801605
 30
0.0
 11
1993.85036
 21
2124.801665
 31
0.0
  0
LINE
  8
151
  6
CONTINUOUS
 62
     3
  5
4BE
 10
1893.85036
 20
1824.801545
 30
0.0
 11
1893.85036
 21
1852.801545
 31
0.0
  0
LINE
  8
151
  6
CONTINUOUS
 62
     3
  5
4BF
 10
1693.85036
 20
1852.801545
 30
0.0
 11
1693.85036
 21
1974.801745
 31
0.0
  0
LINE
  8
151
  6
CONTINUOUS
 62
     3
  5
4C0
 10
1793.85036
 20
1974.801745
 30
0.0
 11
1793.85036
 21
1852.801545
 31
0.0
  0
LINE
  8
151
  6
CONTINUOUS
 62
     3
  5
4C1
 10
1993.85036
 20
1852.801545
 30
0.0
 11
1993.85036
 21
1974.801745
 31
0.0
  0
LINE
  8
151
  6
CONTINUOUS
 62
     3
  5
4C2
 10
1893.85036
 20
1312.62231
 30
0.0
 11
1893.85036
 21
1674.801625
 31
0.0
  0
LINE
  8
151
  6
CONTINUOUS
 62
     3
  5
4C3
 10
1893.85036
 20
1674.801625
 30
0.0
 11
1893.85036
 21
1702.801625
 31
0.0
  0
LINE
  8
151
  6
CONTINUOUS
 62
     3
  5
4C4
 10
1693.85036
 20
1326.995749
 30
0.0
 11
1693.85036
 21
1674.801625
 31
0.0
  0
LINE
  8
151
  6
CONTINUOUS
 62
     3
  5
4C5
 10
1693.85036
 20
1702.801625
 30
0.0
 11
1693.85036
 21
1824.801545
 31
0.0
  0
LINE
  8
151
  6
CONTINUOUS
 62
     3
  5
4C6
 10
1793.85036
 20
1824.801545
 30
0.0
 11
1793.85036
 21
1702.801625
 31
0.0
  0
LINE
  8
151
  6
CONTINUOUS
 62
     3
  5
4C7
 10
1793.85036
 20
1674.801625
 30
0.0
 11
1793.85036
 21
1339.741605
 31
0.0
  0
LINE
  8
151
  6
CONTINUOUS
 62
     3
  5
4C8
 10
1993.85036
 20
1233.187237
 30
0.0
 11
1993.85036
 21
1674.801625
 31
0.0
  0
LINE
  8
151
  6
CONTINUOUS
 62
     3
  5
4C9
 10
1993.85036
 20
1702.801625
 30
0.0
 11
1993.85036
 21
1824.801545
 31
0.0
  0
LINE
  8
151
  6
CONTINUOUS
 62
     3
  5
4CA
 10
1593.85036
 20
1607.700275
 30
0.0
 11
1593.85036
 21
1685.930139
 31
0.0
  0
LINE
  8
151
  6
CONTINUOUS
 62
     3
  5
4CB
 10
1593.85036
 20
2288.801625
 30
0.0
 11
1593.85036
 21
3188.801625
 31
0.0
  0
LINE
  8
2
  6
CONTINUOUS
 62
     3
  5
4CC
 10
2043.895843
 20
1688.801625
 30
0.0
 11
1729.3505
 21
1688.801625
 31
0.0
  0
LINE
  8
2
  6
CONTINUOUS
 62
     3
  5
4CD
 10
1593.85036
 20
1688.801625
 30
0.0
 11
1493.85036
 21
1688.801625
 31
0.0
  0
LINE
  8
2
  6
CONTINUOUS
 62
     3
  5
4CE
 10
2693.85036
 20
2288.801625
 30
0.0
 11
2043.895804
 21
2288.801625
 31
0.0
  0
LINE
  8
2
  6
CONTINUOUS
 62
     3
  5
4CF
 10
1593.85036
 20
2288.801625
 30
0.0
 11
1493.85036
 21
2288.801625
 31
0.0
  0
CIRCLE
  8
5
  6
CONTINUOUS
 62
     3
  5
4D0
 10
1163.85036
 20
888.801625
 30
0.0
 40
7.5
  0
CIRCLE
  8
5
  6
CONTINUOUS
 62
     3
  5
4D1
 10
1163.85036
 20
3188.801625
 30
0.0
 40
7.5
  0
CIRCLE
  8
5
  6
CONTINUOUS
 62
     3
  5
4D2
 10
1263.85036
 20
3188.801625
 30
0.0
 40
7.5
  0
LINE
  8
5
  6
CONTINUOUS
 62
     3
  5
4D3
 10
1163.85036
 20
888.801625
 30
0.0
 11
1463.85036
 21
888.801625
 31
0.0
  0
LINE
  8
5
  6
CONTINUOUS
 62
     3
  5
4D4
 10
1163.85036
 20
3188.801625
 30
0.0
 11
1463.85036
 21
3188.801625
 31
0.0
  0
LINE
  8
5
  6
CONTINUOUS
 62
     3
  5
4D5
 10
1163.85036
 20
3188.801625
 30
0.0
 11
1163.85036
 21
888.801625
 31
0.0
  0
TEXT
  8
5
  6
CONTINUOUS
 62
     3
  5
4D6
 10
1163.85036
 20
1948.801625
 30
0.0
 40
60.0
  1
2,300
 50
90.0
 41
0.6
  7

 72
     5
 11
1163.85036
 21
2128.801625
 31
0.0
  0
TEXT
  8
5
  6
CONTINUOUS
 62
     3
  5
4D7
 10
1263.85036
 20
2098.801625
 30
0.0
 40
60.0
  1
2,000
 50
90.0
 41
0.6
  7

 72
     5
 11
1263.85036
 21
2278.801625
 31
0.0
  0
LINE
  8
5
  6
CONTINUOUS
 62
     3
  5
4D8
 10
1263.85036
 20
3188.801625
 30
0.0
 11
1263.85036
 21
1188.801625
 31
0.0
  0
CIRCLE
  8
5
  6
CONTINUOUS
 62
     3
  5
4D9
 10
1263.85036
 20
888.801625
 30
0.0
 40
7.5
  0
TEXT
  8
5
  6
CONTINUOUS
 62
     3
  5
4DA
 10
1263.85036
 20
978.801625
 30
0.0
 40
60.0
  1
300
 50
90.0
 41
0.666667
  7

 72
     5
 11
1263.85036
 21
1098.801625
 31
0.0
  0
CIRCLE
  8
5
  6
CONTINUOUS
 62
     3
  5
4DB
 10
1263.85036
 20
1188.801625
 30
0.0
 40
7.5
  0
LINE
  8
5
  6
CONTINUOUS
 62
     3
  5
4DC
 10
1263.85036
 20
888.801625
 30
0.0
 11
1263.85036
 21
1188.801625
 31
0.0
  0
LINE
  8
5
  6
CONTINUOUS
 62
     3
  5
4DD
 10
1263.85036
 20
1188.801625
 30
0.0
 11
1463.85036
 21
1188.801625
 31
0.0
  0
CIRCLE
  8
5
  6
CONTINUOUS
 62
     3
  5
4DE
 10
1363.85036
 20
1188.801625
 30
0.0
 40
7.5
  0
CIRCLE
  8
5
  6
CONTINUOUS
 62
     3
  5
4DF
 10
1363.85036
 20
1688.801625
 30
0.0
 40
7.5
  0
CIRCLE
  8
5
  6
CONTINUOUS
 62
     3
  5
4E0
 10
2823.85036
 20
1988.801625
 30
0.0
 40
7.5
  0
CIRCLE
  8
5
  6
CONTINUOUS
 62
     3
  5
4E1
 10
2823.85036
 20
1988.801645
 30
0.0
 40
7.5
  0
LINE
  8
5
  6
CONTINUOUS
 62
     3
  5
4E2
 10
2823.85036
 20
1988.801645
 30
0.0
 11
2723.85036
 21
1988.801645
 31
0.0
  0
LINE
  8
5
  6
CONTINUOUS
 62
     3
  5
4E3
 10
2823.85036
 20
1988.801645
 30
0.0
 11
2823.85036
 21
3188.801625
 31
0.0
  0
TEXT
  8
5
  6
CONTINUOUS
 62
     3
  5
4E4
 10
2823.85036
 20
2498.801625
 30
0.0
 40
60.0
  1
1,200
 50
90.0
 41
0.6
  7

 72
     5
 11
2823.85036
 21
2678.801625
 31
0.0
  0
LINE
  8
5
  6
CONTINUOUS
 62
     3
  5
4E5
 10
2823.85036
 20
1988.801625
 30
0.0
 11
2723.85036
 21
1988.801625
 31
0.0
  0
LINE
  8
5
  6
CONTINUOUS
 62
     3
  5
4E6
 10
2823.85036
 20
888.801625
 30
0.0
 11
2823.85036
 21
1988.801625
 31
0.0
  0
TEXT
  8
5
  6
CONTINUOUS
 62
     3
  5
4E7
 10
2823.85036
 20
1348.778883
 30
0.0
 40
60.0
  1
1,100
 50
90.0
 41
0.6
  7

 72
     5
 11
2823.85036
 21
1528.778883
 31
0.0
  0
LINE
  8
10
  6
CENTER
 62
     3
  5
4E8
 10
2043.85036
 20
2332.373505
 30
0.0
 11
2043.85036
 21
1574.801625
 31
0.0
  0
CIRCLE
  8
5
  6
CONTINUOUS
 62
     3
  5
4E9
 10
1593.85036
 20
2432.801585
 30
0.0
 40
7.5
  0
CIRCLE
  8
5
  6
CONTINUOUS
 62
     3
  5
4EA
 10
2043.85036
 20
2432.801585
 30
0.0
 40
7.5
  0
LINE
  8
5
  6
CONTINUOUS
 62
     3
  5
4EB
 10
1593.85036
 20
2432.801585
 30
0.0
 11
2043.85036
 21
2432.801585
 31
0.0
  0
CIRCLE
  8
5
  6
CONTINUOUS
 62
     3
  5
4EC
 10
2043.85036
 20
2432.801585
 30
0.0
 40
7.5
  0
CIRCLE
  8
5
  6
CONTINUOUS
 62
     3
  5
4ED
 10
1493.85036
 20
2432.801585
 30
0.0
 40
7.5
  0
CIRCLE
  8
5
  6
CONTINUOUS
 62
     3
  5
4EE
 10
1593.85036
 20
2432.801585
 30
0.0
 40
7.5
  0
LINE
  8
5
  6
CONTINUOUS
 62
     3
  5
4EF
 10
1493.85036
 20
2432.801585
 30
0.0
 11
1593.85036
 21
2432.801585
 31
0.0
  0
CIRCLE
  8
5
  6
CONTINUOUS
 62
     3
  5
4F0
 10
2693.85036
 20
2432.801585
 30
0.0
 40
7.5
  0
LINE
  8
5
  6
CONTINUOUS
 62
     3
  5
4F1
 10
2043.85036
 20
2432.801585
 30
0.0
 11
2693.85036
 21
2432.801585
 31
0.0
  0
LINE
  8
5
  6
CONTINUOUS
 62
     3
  5
4F2
 10
2043.85036
 20
2332.801585
 30
0.0
 11
2043.85036
 21
2432.801585
 31
0.0
  0
LINE
  8
5
  6
CONTINUOUS
 62
     3
  5
4F3
 10
1593.85036
 20
2332.801585
 30
0.0
 11
1593.85036
 21
2432.801585
 31
0.0
  0
LINE
  8
5
  6
CONTINUOUS
 62
     3
  5
4F4
 10
2043.85036
 20
2332.801585
 30
0.0
 11
2043.85036
 21
2432.801585
 31
0.0
  0
LINE
  8
5
  6
CONTINUOUS
 62
     3
  5
4F5
 10
2693.85036
 20
2332.801585
 30
0.0
 11
2693.85036
 21
2432.801585
 31
0.0
  0
LINE
  8
5
  6
CONTINUOUS
 62
     3
  5
4F6
 10
1593.85036
 20
2332.801585
 30
0.0
 11
1593.85036
 21
2432.801585
 31
0.0
  0
LINE
  8
5
  6
CONTINUOUS
 62
     3
  5
4F7
 10
1493.85036
 20
2332.801585
 30
0.0
 11
1493.85036
 21
2432.801585
 31
0.0
  0
LINE
  8
5
  6
CONTINUOUS
 62
     3
  5
4F8
 10
1441.35036
 20
5220.531223
 30
0.0
 11
1441.35036
 21
5020.531223
 31
0.0
  0
LINE
  8
5
  6
CONTINUOUS
 62
     3
  5
4F9
 10
2746.35036
 20
5220.531223
 30
0.0
 11
1441.35036
 21
5220.531223
 31
0.0
  0
TEXT
  8
5
  6
CONTINUOUS
 62
     3
  5
4FA
 10
2028.85036
 20
5220.531223
 30
0.0
 40
60.0
  1
1,305
 50
360.0
 41
0.6
  7

 72
     5
 11
2208.85036
 21
5220.531223
 31
0.0
  0
TEXT
  8
5
  6
CONTINUOUS
 62
     3
  5
4FB
 10
1758.85036
 20
2432.801585
 30
0.0
 40
60.0
  1
450
 50
360.0
 41
0.666667
  7

 72
     5
 11
1878.85036
 21
2432.801585
 31
0.0
  0
TEXT
  8
5
  6
CONTINUOUS
 62
     3
  5
4FC
 10
2308.85036
 20
2432.801585
 30
0.0
 40
60.0
  1
650
 50
360.0
 41
0.666667
  7

 72
     5
 11
2428.85036
 21
2432.801585
 31
0.0
  0
TEXT
  8
5
  6
CONTINUOUS
 62
     3
  5
4FD
 10
2011.920905
 20
3556.233886
 30
0.0
 40
90.0
  1
平面図
 41
0.837
  7

 72
     5
 11
2281.920905
 21
3556.233886
 31
0.0
  0
TEXT
  8
5
  6
CONTINUOUS
 62
     3
  5
4FE
 10
1841.203919
 20
705.791617
 30
0.0
 40
90.0
  1
テスリックス
 41
0.837
  7

 72
     5
 11
2381.203919
 21
705.791617
 31
0.0
  0
TEXT
  8
5
  6
CONTINUOUS
 62
     3
  5
4FF
 10
1841.203919
 20
615.791617
 30
0.0
 40
90.0
  1
取付側展開図
 41
0.837
  7

 72
     5
 11
2381.203919
 21
615.791617
 31
0.0
  0
TEXT
  8
5
  6
CONTINUOUS
 62
     3
  5
500
 10
1493.85036
 20
2432.801585
 30
0.0
 40
60.0
  1
100
 41
0.666667
  7

 72
     5
 11
1613.85036
 21
2432.801585
 31
0.0
  0
LINE
  8
6
  6
CONTINUOUS
 62
     2
  5
501
 10
1757.131279
 20
4583.031223
 30
0.0
 11
1595.85023
 21
4583.031223
 31
0.0
  0
LINE
  8
5
  6
CONTINUOUS
 62
     3
  5
502
 10
1363.85036
 20
1688.801625
 30
0.0
 11
1463.85036
 21
1688.801625
 31
0.0
  0
LINE
  8
5
  6
CONTINUOUS
 62
     3
  5
503
 10
1363.85036
 20
1188.801625
 30
0.0
 11
1363.85036
 21
1688.801625
 31
0.0
  0
TEXT
  8
5
  6
CONTINUOUS
 62
     3
  5
504
 10
1363.85036
 20
1378.801625
 30
0.0
 40
60.0
  1
500
 50
90.0
 41
0.666667
  7

 72
     5
 11
1363.85036
 21
1498.801625
 31
0.0
  0
TEXT
  8
5
  6
CONTINUOUS
 62
     3
  5
505
 10
1662.35023
 20
1524.801625
 30
0.0
 40
60.0
  1
テスリックス
 41
0.837
  7

 72
     5
 11
2022.35023
 21
1524.801625
 31
0.0
  0
LINE
  8
5
  6
CONTINUOUS
 62
     3
  5
506
 10
1698.952771
 20
1674.801625
 30
0.0
 11
1612.35023
 21
1524.801625
 31
0.0
  0
LINE
  8
5
  6
CONTINUOUS
 62
     3
  5
507
 10
1612.35023
 20
1524.801625
 30
0.0
 11
2022.35023
 21
1524.801625
 31
0.0
  0
LINE
  8
5
  6
CONTINUOUS
 62
     3
  5
508
 10
1776.490596
 20
4884.85871
 30
0.0
 11
1863.093136
 21
5034.85871
 31
0.0
  0
TEXT
  8
5
  6
CONTINUOUS
 62
     3
  5
509
 10
1913.093136
 20
5034.85871
 30
0.0
 40
60.0
  1
テスリックス
 41
0.837
  7

 72
     5
 11
2273.093136
 21
5034.85871
 31
0.0
  0
LINE
  8
5
  6
CONTINUOUS
 62
     3
  5
50A
 10
1863.093136
 20
5034.85871
 30
0.0
 11
2273.093136
 21
5034.85871
 31
0.0
  0
ENDSEC
  0
EOF
