  0
SECTION
  2
HEADER
  9
$ACADVER
  1
AC1009
  9
$INSBASE
 10
0.0
 20
0.0
 30
0.0
  9
$EXTMIN
 10
1098.85036
 20
616.02056
 30
0.0
  9
$EXTMAX
 10
3413.85036
 20
5313.513834
 30
0.0
  9
$LIMMIN
 10
0.0
 20
0.0
  9
$LIMMAX
 10
4200.0
 20
5940.0
  9
$ORTHOMODE
 70
     0
  9
$REGENMODE
 70
     1
  9
$FILLMODE
 70
     1
  9
$QTEXTMODE
 70
     0
  9
$MIRRTEXT
 70
     1
  9
$DRAGMODE
 70
     2
  9
$LTSCALE
 40
20.0
  9
$OSMODE
 70
     0
  9
$ATTMODE
 70
     1
  9
$TEXTSIZE
 40
0.2
  9
$TRACEWID
 40
0.05
  9
$TEXTSTYLE
  7
STANDARD
  9
$CLAYER
  8
0
  9
$CELTYPE
  6
CONTINUOUS
  9
$CECOLOR
 62
   256
  9
$DIMSCALE
 40
1.0
  9
$DIMASZ
 40
0.18
  9
$DIMEXO
 40
0.0625
  9
$DIMDLI
 40
0.38
  9
$DIMRND
 40
0.0
  9
$DIMDLE
 40
0.0
  9
$DIMEXE
 40
0.18
  9
$DIMTP
 40
0.0
  9
$DIMTM
 40
0.0
  9
$DIMTXT
 40
0.18
  9
$DIMCEN
 40
0.09
  9
$DIMTSZ
 40
0.0
  9
$DIMTOL
 70
     0
  9
$DIMLIM
 70
     0
  9
$DIMTIH
 70
     1
  9
$DIMTOH
 70
     1
  9
$DIMSE1
 70
     0
  9
$DIMSE2
 70
     0
  9
$DIMTAD
 70
     0
  9
$DIMZIN
 70
     0
  9
$DIMBLK
  1

  9
$DIMASO
 70
     1
  9
$DIMSHO
 70
     1
  9
$DIMPOST
  1

  9
$DIMAPOST
  1

  9
$DIMALT
 70
     0
  9
$DIMALTD
 70
     2
  9
$DIMALTF
 40
25.4
  9
$DIMLFAC
 40
1.0
  9
$DIMTOFL
 70
     0
  9
$DIMTVP
 40
0.0
  9
$DIMTIX
 70
     0
  9
$DIMSOXD
 70
     0
  9
$DIMSAH
 70
     0
  9
$DIMBLK1
  1

  9
$DIMBLK2
  1

  9
$DIMSTYLE
  2
STANDARD
  9
$DIMCLRD
 70
     0
  9
$DIMCLRE
 70
     0
  9
$DIMCLRT
 70
     0
  9
$DIMTFAC
 40
1.0
  9
$DIMGAP
 40
0.09
  9
$LUNITS
 70
     2
  9
$LUPREC
 70
     4
  9
$AXISMODE
 70
     0
  9
$AXISUNIT
 10
0.0
 20
0.0
  9
$SKETCHINC
 40
0.1
  9
$FILLETRAD
 40
0.0
  9
$AUNITS
 70
     0
  9
$AUPREC
 70
     0
  9
$MENU
  1
acad
  9
$ELEVATION
 40
0.0
  9
$PELEVATION
 40
0.0
  9
$THICKNESS
 40
0.0
  9
$LIMCHECK
 70
     0
  9
$BLIPMODE
 70
     1
  9
$CHAMFERA
 40
0.0
  9
$CHAMFERB
 40
0.0
  9
$SKPOLY
 70
     0
  9
$TDCREATE
 40
0.000000000
  9
$TDUPDATE
 40
0.000000000
  9
$TDINDWG
 40
0.0000000000
  9
$TDUSRTIMER
 40
0.0000000000
  9
$USRTIMER
 70
     1
  9
$ANGBASE
 50
0.0
  9
$ANGDIR
 70
     0
  9
$PDMODE
 70
     0
  9
$PDSIZE
 40
0.0
  9
$PLINEWID
 40
0.0
  9
$COORDS
 70
     0
  9
$SPLFRAME
 70
     0
  9
$SPLINETYPE
 70
     6
  9
$SPLINESEGS
 70
     8
  9
$ATTDIA
 70
     0
  9
$ATTREQ
 70
     1
  9
$HANDLING
 70
     1
  9
$HANDSEED
  5
4FF
  9
$SURFTAB1
 70
     6
  9
$SURFTAB2
 70
     6
  9
$SURFTYPE
 70
     6
  9
$SURFU
 70
     6
  9
$SURFV
 70
     6
  9
$UCSNAME
  2

  9
$UCSORG
 10
0.0
 20
0.0
 30
0.0
  9
$UCSXDIR
 10
1.0
 20
0.0
 30
0.0
  9
$UCSYDIR
 10
0.0
 20
1.0
 30
0.0
  9
$PUCSNAME
  2

  9
$PUCSORG
 10
0.0
 20
0.0
 30
0.0
  9
$PUCSXDIR
 10
1.0
 20
0.0
 30
0.0
  9
$PUCSYDIR
 10
0.0
 20
1.0
 30
0.0
  9
$USERI1
 70
     0
  9
$USERI2
 70
     0
  9
$USERI3
 70
     0
  9
$USERI4
 70
     0
  9
$USERI5
 70
     0
  9
$USERR1
 40
0.0
  9
$USERR2
 40
0.0
  9
$USERR3
 40
0.0
  9
$USERR4
 40
0.0
  9
$USERR5
 40
0.0
  9
$WORLDVIEW
 70
     1
  9
$SHADEDGE
 70
     3
  9
$SHADEDIF
 70
    70
  9
$TILEMODE
 70
     1
  9
$MAXACTVP
 70
    16
  9
$PINSBASE
 10
0.0
 20
0.0
 30
0.0
  9
$PLIMCHECK
 70
     0
  9
$PEXTMIN
 10
1.000000E+20
 20
1.000000E+20
 30
1.000000E+20
  9
$PEXTMAX
 10
-1.000000E+20
 20
-1.000000E+20
 30
-1.000000E+20
  9
$PLIMMIN
 10
0.0
 20
0.0
  9
$PLIMMAX
 10
12.0
 20
9.0
  9
$UNITMODE
 70
     0
  9
$VISRETAIN
 70
     0
  9
$PLINEGEN
 70
     1
  9
$PSLTSCALE
 70
     0
  9
$TREEDEPTH
 70
  3020
  9
$DWGCODEPAGE
  3
dos932
  0
ENDSEC
  0
SECTION
  2
TABLES
  0
TABLE
  2
VPORT
 70
     1
  0
VPORT
  2
*ACTIVE
 70
     0
 10
0.0
 20
0.0
 11
1.0
 21
1.0
 12
2100.0
 22
2970.0
 13
0.0
 23
0.0
 14
1000.0
 24
1000.0
 15
1000.0
 25
1000.0
 16
0.0
 26
0.0
 36
1.0
 17
0.0
 27
0.0
 37
0.0
 40
5940.0
 41
0.707071
 42
50.0
 43
0.0
 44
0.0
 50
0.0
 51
0.0
 71
     0
 72
   100
 73
     1
 74
     1
 75
     0
 76
     0
 77
     0
 78
     0
  0
ENDTAB
  0
TABLE
  2
LTYPE
 70
     5
  0
LTYPE
  2
CONTINUOUS
 70
    64
  3
Solid line
 72
    65
 73
     0
 40
0.0
  0
LTYPE
  2
HIDDEN
 70
    64
  3
__ __ __ __ __ __ __ __ __ __ __ __ __ __ __ __
 72
    65
 73
     5
 40
8.0
 49
1.0
 49
-2.0
 49
2.0
 49
-2.0
 49
1.0
  0
LTYPE
  2
DOT
 70
    64
  3
. . . . . . . . . . . . . . . . . . . . . . . .
 72
    65
 73
     3
 40
1.6
 49
0.4
 49
-0.8
 49
0.4
  0
LTYPE
  2
CENTER
 70
    64
  3
____ _ ____ _ ____ _ ____ _ ____ _ ____ _ ____ 
 72
    65
 73
     5
 40
12.0
 49
5.0
 49
-0.8
 49
0.4
 49
-0.8
 49
5.0
  0
LTYPE
  2
DIVIDE
 70
    64
  3
____ . . ____ . . ____ . . ____ . . ____ . . __
 72
    65
 73
     7
 40
13.2
 49
5.0
 49
-0.8
 49
0.4
 49
-0.8
 49
0.4
 49
-0.8
 49
5.0
  0
ENDTAB
  0
TABLE
  2
LAYER
 70
    13
  0
LAYER
  2
0
 70
     0
 62
     7
  6
CONTINUOUS
  0
LAYER
  2
1
 70
     0
 62
     1
  6
CONTINUOUS
  0
LAYER
  2
2
 70
     0
 62
     1
  6
CONTINUOUS
  0
LAYER
  2
3
 70
     0
 62
     1
  6
CONTINUOUS
  0
LAYER
  2
4
 70
     0
 62
     1
  6
CONTINUOUS
  0
LAYER
  2
5
 70
     0
 62
     1
  6
CONTINUOUS
  0
LAYER
  2
6
 70
     0
 62
     1
  6
CONTINUOUS
  0
LAYER
  2
8
 70
     0
 62
     1
  6
CONTINUOUS
  0
LAYER
  2
10
 70
     0
 62
     1
  6
CONTINUOUS
  0
LAYER
  2
12
 70
     0
 62
     1
  6
CONTINUOUS
  0
LAYER
  2
40
 70
     0
 62
     1
  6
CONTINUOUS
  0
LAYER
  2
50
 70
     0
 62
     1
  6
CONTINUOUS
  0
LAYER
  2
151
 70
     0
 62
     1
  6
CONTINUOUS
  0
ENDTAB
  0
TABLE
  2
STYLE
 70
     3
  0
STYLE
  2
STANDARD
 70
     0
 40
0.0
 41
1.0
 50
0.0
 71
     0
 42
0.0
  3
txt
  4

  0
STYLE
  2

 70
     0
 40
1000.0
 41
1.0
 50
0.0
 71
     0
 42
1000.0
  3
txt
  4
extfont
  0
STYLE
  2

 70
     0
 40
1000.0
 41
1.0
 50
0.0
 71
     0
 42
1000.0
  3
txt
  4
extfont
  0
ENDTAB
  0
TABLE
  2
VIEW
 70
     0
  0
ENDTAB
  0
TABLE
  2
UCS
 70
     0
  0
ENDTAB
  0
TABLE
  2
APPID
 70
     1
  0
APPID
  2
ACAD
 70
     0
  0
ENDTAB
  0
TABLE
  2
DIMSTYLE
 70
     1
  0
DIMSTYLE
  2
STANDARD
 70
     0
  3

  4

  5

  6

  7

 40
1.0
 41
0.18
 42
0.0625
 43
0.38
 44
0.18
 45
0.0
 46
0.0
 47
0.0
 48
0.0
 71
     0
 72
     0
 73
     1
 74
     1
 75
     0
 76
     0
 77
     0
 78
     0
140
0.18
141
0.09
142
0.0
143
25.4
144
1.0
145
0.0
146
1.0
147
0.09
170
     0
171
     2
172
     0
173
     0
174
     0
175
     0
176
     0
177
     0
178
     0
  0
ENDTAB
  0
ENDSEC
  0
SECTION
  2
BLOCKS
  0
ENDSEC
  0
SECTION
  2
ENTITIES
  0
LINE
  8
2
  6
CONTINUOUS
 62
     6
  5
102
 10
2693.85036
 20
2988.801625
 30
0.0
 11
2693.85036
 21
1988.801625
 31
0.0
  0
LINE
  8
1
  6
CONTINUOUS
 62
     5
  5
103
 10
2168.85036
 20
888.801625
 30
0.0
 11
2168.85036
 21
1188.801625
 31
0.0
  0
LINE
  8
1
  6
CONTINUOUS
 62
     5
  5
104
 10
2693.85036
 20
888.801625
 30
0.0
 11
2168.85036
 21
888.801625
 31
0.0
  0
LINE
  8
1
  6
CONTINUOUS
 62
     5
  5
105
 10
2693.85036
 20
888.801625
 30
0.0
 11
2693.85036
 21
3188.801625
 31
0.0
  0
LINE
  8
2
  6
CONTINUOUS
 62
     3
  5
106
 10
2342.930885
 20
1188.801625
 30
0.0
 11
2693.85036
 21
1188.801625
 31
0.0
  0
LINE
  8
2
  6
CONTINUOUS
 62
     3
  5
107
 10
2249.489394
 20
1088.801625
 30
0.0
 11
2693.85036
 21
1088.801625
 31
0.0
  0
LINE
  8
2
  6
CONTINUOUS
 62
     3
  5
108
 10
2168.85036
 20
988.801625
 30
0.0
 11
2693.85036
 21
988.801625
 31
0.0
  0
LINE
  8
2
  6
CONTINUOUS
 62
     3
  5
109
 10
2693.85036
 20
1188.801625
 30
0.0
 11
2342.930885
 21
1188.801625
 31
0.0
  0
LINE
  8
2
  6
CONTINUOUS
 62
     3
  5
10A
 10
2693.85036
 20
1288.801625
 30
0.0
 11
1905.869408
 21
1288.801625
 31
0.0
  0
LINE
  8
2
  6
CONTINUOUS
 62
     3
  5
10B
 10
2693.85036
 20
1288.801625
 30
0.0
 11
1905.869408
 21
1288.801625
 31
0.0
  0
LINE
  8
1
  6
CONTINUOUS
 62
     3
  5
10C
 10
2193.85036
 20
888.801625
 30
0.0
 11
2193.85036
 21
1049.987621
 31
0.0
  0
LINE
  8
1
  6
CONTINUOUS
 62
     3
  5
10D
 10
2293.85036
 20
888.801625
 30
0.0
 11
2293.85036
 21
1119.885274
 31
0.0
  0
LINE
  8
151
  6
CONTINUOUS
 62
     3
  5
10E
 10
1593.85036
 20
1526.301615
 30
0.0
 11
1593.85036
 21
1188.801625
 31
0.0
  0
LINE
  8
2
  6
CONTINUOUS
 62
     6
  5
10F
 10
2290.150885
 20
1117.167237
 30
0.0
 11
2169.930585
 21
1033.301094
 31
0.0
  0
LINE
  8
2
  6
CONTINUOUS
 62
     6
  5
110
 10
2332.930985
 20
1151.187237
 30
0.0
 11
2169.930585
 21
1151.187237
 31
0.0
  0
ARC
  8
2
  6
CONTINUOUS
 62
     6
  5
111
 10
2232.930885
 20
1199.187337
 30
0.0
 40
99.999998
 50
304.903
 51
328.17899
  0
ARC
  8
2
  6
CONTINUOUS
 62
     6
  5
112
 10
2326.390885
 20
1141.187437
 30
0.0
 40
10.0
 50
90.0
 51
148.178986
  0
ARC
  8
2
  6
CONTINUOUS
 62
     6
  5
113
 10
2332.930985
 20
1161.187537
 30
0.0
 40
10.0
 50
270.0
 51
0.0
  0
ARC
  8
2
  6
CONTINUOUS
 62
     6
  5
114
 10
2332.930985
 20
1223.187437
 30
0.0
 40
10.0
 50
0.0
 51
90.0
  0
LINE
  8
2
  6
CONTINUOUS
 62
     6
  5
115
 10
2342.930885
 20
1223.187437
 30
0.0
 11
2342.930885
 21
1161.187537
 31
0.0
  0
ARC
  8
2
  6
CONTINUOUS
 62
     6
  5
116
 10
1702.781085
 20
1323.187537
 30
0.0
 40
7.999999
 50
89.998292
 51
177.980988
  0
ARC
  8
2
  6
CONTINUOUS
 62
     6
  5
117
 10
4692.925285
 20
1217.747437
 30
0.0
 40
2999.9996
 50
177.827356
 51
180.552833
  0
LINE
  8
2
  6
CONTINUOUS
 62
     6
  5
118
 10
1702.781085
 20
1331.187437
 30
0.0
 11
1783.090785
 21
1331.187437
 31
0.0
  0
ARC
  8
2
  6
CONTINUOUS
 62
     6
  5
119
 10
1783.090785
 20
1339.187337
 30
0.0
 40
7.999999
 50
270.0
 51
321.14
  0
ARC
  8
2
  6
CONTINUOUS
 62
     6
  5
11A
 10
1944.140685
 20
1253.837437
 30
0.0
 40
170.0
 50
126.765992
 51
137.990998
  0
ARC
  8
2
  6
CONTINUOUS
 62
     6
  5
11B
 10
1845.930985
 20
1385.187437
 30
0.0
 40
5.99988
 50
33.82039
 51
128.529999
  0
ARC
  8
2
  6
CONTINUOUS
 62
     6
  5
11C
 10
2412.250785
 20
832.217337
 30
0.0
 40
799.99998
 50
137.990998
 51
141.138993
  0
ARC
  8
2
  6
CONTINUOUS
 62
     6
  5
11D
 10
1264.290785
 20
1006.587237
 30
0.0
 40
700.00006
 50
26.0394
 51
33.06339
  0
ARC
  8
2
  6
CONTINUOUS
 62
     6
  5
11E
 10
2926.501085
 20
1818.717637
 30
0.0
 40
1150.0
 50
206.03899
 51
208.83199
  0
LINE
  8
2
  6
CONTINUOUS
 62
     6
  5
11F
 10
1728.991085
 20
1237.187637
 30
0.0
 11
1864.370785
 21
1237.187637
 31
0.0
  0
LINE
  8
2
  6
CONTINUOUS
 62
     6
  5
120
 10
1934.370985
 20
1233.187237
 30
0.0
 11
1864.370785
 21
1237.177537
 31
0.0
  0
LINE
  8
2
  6
CONTINUOUS
 62
     6
  5
121
 10
1934.370985
 20
1233.187237
 30
0.0
 11
2332.930985
 21
1233.187237
 31
0.0
  0
ARC
  8
2
  6
CONTINUOUS
 62
     6
  5
122
 10
1971.561085
 20
1293.187637
 30
0.0
 40
60.000001
 50
208.7
 51
270.0
  0
LINE
  8
5
  6
CONTINUOUS
 62
     3
  5
123
 10
2923.85036
 20
888.801625
 30
0.0
 11
2723.85036
 21
888.801625
 31
0.0
  0
CIRCLE
  8
5
  6
CONTINUOUS
 62
     3
  5
124
 10
2923.85036
 20
888.801625
 30
0.0
 40
7.5
  0
CIRCLE
  8
5
  6
CONTINUOUS
 62
     3
  5
125
 10
2823.85036
 20
888.801625
 30
0.0
 40
7.5
  0
LINE
  8
151
  6
CONTINUOUS
 62
     3
  5
126
 10
2593.85036
 20
888.801625
 30
0.0
 11
2593.85036
 21
3188.801625
 31
0.0
  0
LINE
  8
151
  6
CONTINUOUS
 62
     3
  5
127
 10
2493.85036
 20
888.801625
 30
0.0
 11
2493.85036
 21
3188.801625
 31
0.0
  0
LINE
  8
151
  6
CONTINUOUS
 62
     3
  5
128
 10
2393.85036
 20
888.801625
 30
0.0
 11
2393.85036
 21
3188.801625
 31
0.0
  0
LINE
  8
2
  6
CONTINUOUS
 62
     3
  5
129
 10
2693.85036
 20
2088.801625
 30
0.0
 11
1546.727955
 21
2088.801625
 31
0.0
  0
LINE
  8
10
  6
CENTER
 62
     3
  5
12A
 10
2193.85032
 20
1516.195072
 30
0.0
 11
2193.85032
 21
2151.756042
 31
0.0
  0
LINE
  8
2
  6
CONTINUOUS
 62
     3
  5
12B
 10
2693.85036
 20
1688.801625
 30
0.0
 11
2207.85032
 21
1688.801625
 31
0.0
  0
LINE
  8
2
  6
CONTINUOUS
 62
     3
  5
12C
 10
2693.85036
 20
1888.801625
 30
0.0
 11
2207.85032
 21
1888.801625
 31
0.0
  0
LINE
  8
2
  6
CONTINUOUS
 62
     3
  5
12D
 10
2693.85036
 20
1788.801625
 30
0.0
 11
2207.85032
 21
1788.801625
 31
0.0
  0
LINE
  8
151
  6
CONTINUOUS
 62
     3
  5
12E
 10
2293.85036
 20
3188.801625
 30
0.0
 11
2293.85036
 21
1233.187237
 31
0.0
  0
LINE
  8
2
  6
CONTINUOUS
 62
     3
  5
12F
 10
2693.85036
 20
1988.801625
 30
0.0
 11
2207.85032
 21
1988.801625
 31
0.0
  0
LINE
  8
2
  6
CONTINUOUS
 62
     3
  5
130
 10
1729.85036
 20
1688.801625
 30
0.0
 11
1645.85023
 21
1688.801625
 31
0.0
  0
LINE
  8
8
  6
CONTINUOUS
 62
     3
  5
131
 10
2196.760884
 20
2088.756192
 30
0.0
 11
2286.735244
 21
2088.756192
 31
0.0
  0
LINE
  8
8
  6
CONTINUOUS
 62
     1
  5
132
 10
1757.85028
 20
2105.756032
 30
0.0
 11
1757.85028
 21
2019.256192
 31
0.0
  0
LINE
  8
8
  6
CONTINUOUS
 62
     1
  5
133
 10
1757.85028
 20
1869.255992
 30
0.0
 11
1757.85028
 21
1955.256032
 31
0.0
  0
LINE
  8
8
  6
CONTINUOUS
 62
     1
  5
134
 10
1711.85034
 20
2001.256042
 30
0.0
 11
1625.8503
 21
2001.256042
 31
0.0
  0
ARC
  8
8
  6
CONTINUOUS
 62
     1
  5
135
 10
1775.85036
 20
1869.255992
 30
0.0
 40
18.00008
 50
180.0
 51
270.0
  0
ARC
  8
8
  6
CONTINUOUS
 62
     1
  5
136
 10
1775.85036
 20
1955.256032
 30
0.0
 40
18.00008
 50
90.0
 51
180.0
  0
LINE
  8
8
  6
CONTINUOUS
 62
     1
  5
137
 10
1625.8503
 20
1851.256192
 30
0.0
 11
1711.85034
 21
1851.256192
 31
0.0
  0
ARC
  8
8
  6
CONTINUOUS
 62
     1
  5
138
 10
1625.8503
 20
2019.256192
 30
0.0
 40
18.00008
 50
180.0
 51
270.0
  0
ARC
  8
8
  6
CONTINUOUS
 62
     1
  5
139
 10
1711.85034
 20
2019.256192
 30
0.0
 40
18.00008
 50
270.0
 51
0.0
  0
LINE
  8
8
  6
CONTINUOUS
 62
     1
  5
13A
 10
1729.85028
 20
2105.756032
 30
0.0
 11
1729.85028
 21
2019.256192
 31
0.0
  0
ARC
  8
8
  6
CONTINUOUS
 62
     1
  5
13B
 10
1711.85034
 20
1955.256032
 30
0.0
 40
18.00008
 50
0.0
 51
90.0
  0
ARC
  8
8
  6
CONTINUOUS
 62
     1
  5
13C
 10
1711.85034
 20
1869.255992
 30
0.0
 40
18.00008
 50
270.0
 51
0.0
  0
LINE
  8
8
  6
CONTINUOUS
 62
     1
  5
13D
 10
1729.85028
 20
1869.255992
 30
0.0
 11
1729.85028
 21
1955.256032
 31
0.0
  0
ARC
  8
8
  6
CONTINUOUS
 62
     1
  5
13E
 10
1861.85026
 20
1955.256032
 30
0.0
 40
18.00008
 50
0.0
 51
90.0
  0
ARC
  8
8
  6
CONTINUOUS
 62
     1
  5
13F
 10
1861.85026
 20
1869.255992
 30
0.0
 40
18.00008
 50
270.0
 51
0.0
  0
LINE
  8
8
  6
CONTINUOUS
 62
     1
  5
140
 10
1879.85034
 20
1869.255992
 30
0.0
 11
1879.85034
 21
1955.256032
 31
0.0
  0
LINE
  8
8
  6
CONTINUOUS
 62
     1
  5
141
 10
1711.85034
 20
1973.256042
 30
0.0
 11
1625.8503
 21
1973.256042
 31
0.0
  0
LINE
  8
10
  6
CENTER
 62
     3
  5
142
 10
2193.85032
 20
2137.756042
 30
0.0
 11
2193.85032
 21
2177.756142
 31
0.0
  0
LINE
  8
10
  6
CENTER
 62
     3
  5
143
 10
1550.27844
 20
1837.755992
 30
0.0
 11
2307.85032
 21
1837.755992
 31
0.0
  0
LINE
  8
10
  6
CENTER
 62
     3
  5
144
 10
1593.85036
 20
1616.195072
 30
0.0
 11
1593.85036
 21
2251.756042
 31
0.0
  0
LINE
  8
10
  6
CENTER
 62
     3
  5
145
 10
1893.85034
 20
1616.195072
 30
0.0
 11
1893.85034
 21
2251.756042
 31
0.0
  0
LINE
  8
10
  6
CENTER
 62
     3
  5
146
 10
1550.27844
 20
1989.756192
 30
0.0
 11
2307.85032
 21
1989.756192
 31
0.0
  0
LINE
  8
2
  6
CONTINUOUS
 62
     3
  5
147
 10
1757.85028
 20
1888.801625
 30
0.0
 11
1879.85034
 21
1888.801625
 31
0.0
  0
LINE
  8
2
  6
CONTINUOUS
 62
     3
  5
148
 10
1757.85028
 20
2088.801625
 30
0.0
 11
1879.85034
 21
2088.801625
 31
0.0
  0
LINE
  8
2
  6
CONTINUOUS
 62
     3
  5
149
 10
1907.8502
 20
2088.801625
 30
0.0
 11
2029.8504
 21
2088.801625
 31
0.0
  0
LINE
  8
2
  6
CONTINUOUS
 62
     3
  5
14A
 10
1907.8502
 20
1888.801625
 30
0.0
 11
2029.8504
 21
1888.801625
 31
0.0
  0
LINE
  8
2
  6
CONTINUOUS
 62
     3
  5
14B
 10
2057.8504
 20
1888.801625
 30
0.0
 11
2179.85032
 21
1888.801625
 31
0.0
  0
LINE
  8
2
  6
CONTINUOUS
 62
     3
  5
14C
 10
1607.85036
 20
2088.801625
 30
0.0
 11
1729.85028
 21
2088.801625
 31
0.0
  0
LINE
  8
2
  6
CONTINUOUS
 62
     3
  5
14D
 10
1607.85036
 20
1888.801625
 30
0.0
 11
1729.85028
 21
1888.801625
 31
0.0
  0
LINE
  8
2
  6
CONTINUOUS
 62
     3
  5
14E
 10
1879.85034
 20
1788.801625
 30
0.0
 11
1757.85028
 21
1788.801625
 31
0.0
  0
LINE
  8
2
  6
CONTINUOUS
 62
     3
  5
14F
 10
2029.8504
 20
1788.801625
 30
0.0
 11
1907.8502
 21
1788.801625
 31
0.0
  0
LINE
  8
2
  6
CONTINUOUS
 62
     3
  5
150
 10
2179.85032
 20
1788.801625
 30
0.0
 11
2057.8504
 21
1788.801625
 31
0.0
  0
LINE
  8
2
  6
CONTINUOUS
 62
     3
  5
151
 10
1729.85028
 20
1788.801625
 30
0.0
 11
1607.85036
 21
1788.801625
 31
0.0
  0
LINE
  8
8
  6
CONTINUOUS
 62
     4
  5
152
 10
1625.8503
 20
2151.756042
 30
0.0
 11
2161.85038
 21
2151.756042
 31
0.0
  0
ARC
  8
8
  6
CONTINUOUS
 62
     4
  5
153
 10
1625.8503
 20
2105.756032
 30
0.0
 40
46.00008
 50
90.0
 51
180.0
  0
LINE
  8
8
  6
CONTINUOUS
 62
     4
  5
154
 10
1711.85034
 20
2123.756042
 30
0.0
 11
1625.8503
 21
2123.756042
 31
0.0
  0
LINE
  8
8
  6
CONTINUOUS
 62
     4
  5
155
 10
1711.85034
 20
2001.256042
 30
0.0
 11
1625.8503
 21
2001.256042
 31
0.0
  0
ARC
  8
8
  6
CONTINUOUS
 62
     4
  5
156
 10
1625.8503
 20
2019.256192
 30
0.0
 40
18.00008
 50
180.0
 51
270.0
  0
ARC
  8
8
  6
CONTINUOUS
 62
     4
  5
157
 10
1625.8503
 20
2105.756032
 30
0.0
 40
18.00008
 50
90.0
 51
180.0
  0
LINE
  8
8
  6
CONTINUOUS
 62
     4
  5
158
 10
1607.85036
 20
2019.256192
 30
0.0
 11
1607.85036
 21
2105.756032
 31
0.0
  0
LINE
  8
8
  6
CONTINUOUS
 62
     4
  5
159
 10
1729.85028
 20
2105.756032
 30
0.0
 11
1729.85028
 21
2019.256192
 31
0.0
  0
ARC
  8
8
  6
CONTINUOUS
 62
     4
  5
15A
 10
1711.85034
 20
2019.256192
 30
0.0
 40
18.00008
 50
270.0
 51
0.0
  0
LINE
  8
8
  6
CONTINUOUS
 62
     4
  5
15B
 10
1579.85036
 20
2105.756032
 30
0.0
 11
1579.85036
 21
1718.755992
 31
0.0
  0
ARC
  8
8
  6
CONTINUOUS
 62
     4
  5
15C
 10
1775.85036
 20
1955.256032
 30
0.0
 40
18.00008
 50
90.0
 51
180.0
  0
LINE
  8
8
  6
CONTINUOUS
 62
     4
  5
15D
 10
1861.8504
 20
1973.256042
 30
0.0
 11
1775.85036
 21
1973.256042
 31
0.0
  0
LINE
  8
8
  6
CONTINUOUS
 62
     4
  5
15E
 10
1757.85028
 20
1869.255992
 30
0.0
 11
1757.85028
 21
1955.256032
 31
0.0
  0
LINE
  8
8
  6
CONTINUOUS
 62
     4
  5
15F
 10
1861.8504
 20
1851.256192
 30
0.0
 11
1775.85036
 21
1851.256192
 31
0.0
  0
ARC
  8
8
  6
CONTINUOUS
 62
     4
  5
160
 10
1775.85036
 20
1869.255992
 30
0.0
 40
18.00008
 50
180.0
 51
270.0
  0
LINE
  8
8
  6
CONTINUOUS
 62
     4
  5
161
 10
1711.85034
 20
1851.256192
 30
0.0
 11
1625.8503
 21
1851.256192
 31
0.0
  0
LINE
  8
8
  6
CONTINUOUS
 62
     4
  5
162
 10
1711.85034
 20
1973.256042
 30
0.0
 11
1625.8503
 21
1973.256042
 31
0.0
  0
ARC
  8
8
  6
CONTINUOUS
 62
     4
  5
163
 10
1625.8503
 20
1869.255992
 30
0.0
 40
18.00008
 50
180.0
 51
270.0
  0
ARC
  8
8
  6
CONTINUOUS
 62
     4
  5
164
 10
1625.8503
 20
1955.256032
 30
0.0
 40
18.00008
 50
90.0
 51
180.0
  0
LINE
  8
8
  6
CONTINUOUS
 62
     4
  5
165
 10
1607.85036
 20
1869.255992
 30
0.0
 11
1607.85036
 21
1955.256032
 31
0.0
  0
LINE
  8
8
  6
CONTINUOUS
 62
     4
  5
166
 10
1729.85028
 20
1955.256032
 30
0.0
 11
1729.85028
 21
1869.255992
 31
0.0
  0
ARC
  8
8
  6
CONTINUOUS
 62
     4
  5
167
 10
1711.85034
 20
1869.255992
 30
0.0
 40
18.00008
 50
270.0
 51
0.0
  0
ARC
  8
8
  6
CONTINUOUS
 62
     4
  5
168
 10
1711.85034
 20
1955.256032
 30
0.0
 40
18.00008
 50
0.0
 51
90.0
  0
LINE
  8
8
  6
CONTINUOUS
 62
     4
  5
169
 10
1879.85034
 20
1955.256032
 30
0.0
 11
1879.85034
 21
1869.255992
 31
0.0
  0
ARC
  8
8
  6
CONTINUOUS
 62
     4
  5
16A
 10
1861.85026
 20
1869.255992
 30
0.0
 40
18.00008
 50
270.0
 51
0.0
  0
ARC
  8
8
  6
CONTINUOUS
 62
     4
  5
16B
 10
1861.85026
 20
1955.256032
 30
0.0
 40
18.00008
 50
0.0
 51
90.0
  0
LINE
  8
10
  6
CENTER
 62
     4
  5
16C
 10
1784.36544
 20
2107.364842
 30
0.0
 11
1757.85042
 21
2122.673072
 31
0.0
  0
LINE
  8
10
  6
CENTER
 62
     4
  5
16D
 10
1743.85042
 20
2130.756042
 30
0.0
 11
1757.85042
 21
2122.673072
 31
0.0
  0
LINE
  8
10
  6
CENTER
 62
     4
  5
16E
 10
1743.85042
 20
2130.756042
 30
0.0
 11
1713.5393
 21
2113.256042
 31
0.0
  0
LINE
  8
8
  6
CONTINUOUS
 62
     4
  5
16F
 10
2029.8504
 20
2105.756032
 30
0.0
 11
2029.8504
 21
2019.256192
 31
0.0
  0
ARC
  8
8
  6
CONTINUOUS
 62
     4
  5
170
 10
2011.85032
 20
2019.256192
 30
0.0
 40
18.00008
 50
270.0
 51
0.0
  0
LINE
  8
8
  6
CONTINUOUS
 62
     4
  5
171
 10
1775.85036
 20
2123.756042
 30
0.0
 11
1861.8504
 21
2123.756042
 31
0.0
  0
LINE
  8
8
  6
CONTINUOUS
 62
     4
  5
172
 10
1757.85028
 20
2105.756032
 30
0.0
 11
1757.85028
 21
2019.256192
 31
0.0
  0
ARC
  8
8
  6
CONTINUOUS
 62
     4
  5
173
 10
1775.85036
 20
2019.256192
 30
0.0
 40
18.00008
 50
180.0
 51
270.0
  0
LINE
  8
8
  6
CONTINUOUS
 62
     4
  5
174
 10
1861.8504
 20
2001.256042
 30
0.0
 11
1775.85036
 21
2001.256042
 31
0.0
  0
LINE
  8
8
  6
CONTINUOUS
 62
     4
  5
175
 10
1861.8504
 20
2123.756042
 30
0.0
 11
1775.85036
 21
2123.756042
 31
0.0
  0
ARC
  8
8
  6
CONTINUOUS
 62
     4
  5
176
 10
1925.85028
 20
2019.256192
 30
0.0
 40
18.00008
 50
180.0
 51
270.0
  0
LINE
  8
8
  6
CONTINUOUS
 62
     4
  5
177
 10
1907.8502
 20
2019.256192
 30
0.0
 11
1907.8502
 21
2105.756032
 31
0.0
  0
ARC
  8
8
  6
CONTINUOUS
 62
     4
  5
178
 10
1925.85028
 20
2019.256192
 30
0.0
 40
18.00008
 50
180.0
 51
270.0
  0
ARC
  8
8
  6
CONTINUOUS
 62
     4
  5
179
 10
1861.85026
 20
2105.756032
 30
0.0
 40
18.00008
 50
0.0
 51
90.0
  0
ARC
  8
8
  6
CONTINUOUS
 62
     4
  5
17A
 10
1861.85026
 20
2105.756032
 30
0.0
 40
18.00008
 50
0.0
 51
90.0
  0
LINE
  8
8
  6
CONTINUOUS
 62
     4
  5
17B
 10
1879.85034
 20
2105.756032
 30
0.0
 11
1879.85034
 21
2019.256192
 31
0.0
  0
ARC
  8
8
  6
CONTINUOUS
 62
     4
  5
17C
 10
1861.85026
 20
2019.256192
 30
0.0
 40
18.00008
 50
270.0
 51
0.0
  0
ARC
  8
8
  6
CONTINUOUS
 62
     4
  5
17D
 10
1861.85026
 20
2019.256192
 30
0.0
 40
18.00008
 50
270.0
 51
0.0
  0
LINE
  8
8
  6
CONTINUOUS
 62
     4
  5
17E
 10
1879.85034
 20
2105.756032
 30
0.0
 11
1879.85034
 21
2019.256192
 31
0.0
  0
LINE
  8
50
  6
CONTINUOUS
 62
     4
  5
17F
 10
2011.85032
 20
2001.256042
 30
0.0
 11
1925.85028
 21
2001.256042
 31
0.0
  0
ARC
  8
8
  6
CONTINUOUS
 62
     4
  5
180
 10
1925.85028
 20
2105.756032
 30
0.0
 40
18.00008
 50
90.0
 51
180.0
  0
LINE
  8
50
  6
CONTINUOUS
 62
     4
  5
181
 10
1925.85028
 20
2123.756042
 30
0.0
 11
2011.85032
 21
2123.756042
 31
0.0
  0
LINE
  8
8
  6
CONTINUOUS
 62
     4
  5
182
 10
1757.85042
 20
2090.098922
 30
0.0
 11
1757.85042
 21
2106.756192
 31
0.0
  0
ARC
  8
8
  6
CONTINUOUS
 62
     4
  5
183
 10
1743.85042
 20
2130.756042
 30
0.0
 40
45.00006
 50
30.576746
 51
150.54555
  0
ARC
  8
8
  6
CONTINUOUS
 62
     4
  5
184
 10
1743.85042
 20
2130.756042
 30
0.0
 40
45.00006
 50
288.126181
 51
352.33778
  0
CIRCLE
  8
8
  6
CONTINUOUS
 62
     4
  5
185
 10
1743.80338
 20
2165.772422
 30
0.0
 40
4.50002
  0
ARC
  8
8
  6
CONTINUOUS
 62
     4
  5
186
 10
1743.85042
 20
2130.756042
 30
0.0
 40
43.00002
 50
30.576818
 51
150.545482
  0
LINE
  8
8
  6
CONTINUOUS
 62
     4
  5
187
 10
1778.15868
 20
2120.185902
 30
0.0
 11
1784.51216
 21
2116.517552
 31
0.0
  0
LINE
  8
8
  6
CONTINUOUS
 62
     4
  5
188
 10
1770.16006
 20
2106.328562
 30
0.0
 11
1776.5022
 21
2102.667002
 31
0.0
  0
LINE
  8
8
  6
CONTINUOUS
 62
     4
  5
189
 10
1776.41134
 20
2117.153222
 30
0.0
 11
1771.91132
 21
2109.359002
 31
0.0
  0
LINE
  8
8
  6
CONTINUOUS
 62
     4
  5
18A
 10
1774.1614
 20
2113.256042
 30
0.0
 11
1770.26422
 21
2115.506192
 31
0.0
  0
ARC
  8
8
  6
CONTINUOUS
 62
     4
  5
18B
 10
1772.43254
 20
2114.253892
 30
0.0
 40
8.00002
 50
59.258179
 51
239.621122
  0
CIRCLE
  8
8
  6
CONTINUOUS
 62
     4
  5
18C
 10
1774.1754
 20
2113.252122
 30
0.0
 40
4.50002
  0
CIRCLE
  8
8
  6
CONTINUOUS
 62
     4
  5
18D
 10
1774.1614
 20
2113.256042
 30
0.0
 40
8.00002
  0
LINE
  8
8
  6
CONTINUOUS
 62
     4
  5
18E
 10
1735.85026
 20
2165.753102
 30
0.0
 11
1735.85026
 21
2173.089382
 31
0.0
  0
LINE
  8
8
  6
CONTINUOUS
 62
     4
  5
18F
 10
1751.85044
 20
2165.754572
 30
0.0
 11
1751.85044
 21
2173.077762
 31
0.0
  0
LINE
  8
8
  6
CONTINUOUS
 62
     4
  5
190
 10
1739.35026
 20
2165.756042
 30
0.0
 11
1748.35044
 21
2165.756042
 31
0.0
  0
LINE
  8
8
  6
CONTINUOUS
 62
     4
  5
191
 10
1743.85042
 20
2165.756042
 30
0.0
 11
1743.85042
 21
2161.256162
 31
0.0
  0
ARC
  8
8
  6
CONTINUOUS
 62
     4
  5
192
 10
1743.85084
 20
2163.760062
 30
0.0
 40
8.00002
 50
179.258177
 51
359.621121
  0
CIRCLE
  8
8
  6
CONTINUOUS
 62
     4
  5
193
 10
1743.85042
 20
2165.756042
 30
0.0
 40
8.00002
  0
LINE
  8
8
  6
CONTINUOUS
 62
     4
  5
194
 10
1717.5419
 20
2106.329402
 30
0.0
 11
1711.18856
 21
2102.661262
 31
0.0
  0
LINE
  8
8
  6
CONTINUOUS
 62
     4
  5
195
 10
1709.54048
 20
2120.184992
 30
0.0
 11
1703.19848
 21
2116.523502
 31
0.0
  0
LINE
  8
8
  6
CONTINUOUS
 62
     4
  5
196
 10
1715.78924
 20
2109.359002
 30
0.0
 11
1711.28936
 21
2117.153222
 31
0.0
  0
LINE
  8
8
  6
CONTINUOUS
 62
     4
  5
197
 10
1713.5393
 20
2113.256042
 30
0.0
 11
1717.43648
 21
2115.506192
 31
0.0
  0
ARC
  8
8
  6
CONTINUOUS
 62
     4
  5
198
 10
1715.26774
 20
2114.254452
 30
0.0
 40
8.00002
 50
299.258177
 51
119.621122
  0
CIRCLE
  8
8
  6
CONTINUOUS
 62
     4
  5
199
 10
1713.5288
 20
2113.245822
 30
0.0
 40
4.50002
  0
CIRCLE
  8
8
  6
CONTINUOUS
 62
     4
  5
19A
 10
1713.5393
 20
2113.256042
 30
0.0
 40
8.00002
  0
ARC
  8
8
  6
CONTINUOUS
 62
     4
  5
19B
 10
1743.85042
 20
2130.756042
 30
0.0
 40
43.00002
 50
288.126181
 51
352.513205
  0
ARC
  8
8
  6
CONTINUOUS
 62
     4
  5
19C
 10
1743.85042
 20
2130.756042
 30
0.0
 40
45.00006
 50
187.66222
 51
251.873821
  0
ARC
  8
8
  6
CONTINUOUS
 62
     4
  5
19D
 10
1743.85042
 20
2130.756042
 30
0.0
 40
45.00006
 50
29.267566
 51
150.416488
  0
ARC
  8
8
  6
CONTINUOUS
 62
     4
  5
19E
 10
1743.85042
 20
2130.756042
 30
0.0
 40
43.00002
 50
289.000793
 51
351.979098
  0
ARC
  8
8
  6
CONTINUOUS
 62
     4
  5
19F
 10
1743.85042
 20
2130.756042
 30
0.0
 40
43.00002
 50
188.020902
 51
250.999208
  0
ARC
  8
8
  6
CONTINUOUS
 62
     4
  5
1A0
 10
1743.85042
 20
2130.756042
 30
0.0
 40
43.00002
 50
188.020902
 51
250.999208
  0
ARC
  8
8
  6
CONTINUOUS
 62
     4
  5
1A1
 10
1743.85042
 20
2130.756042
 30
0.0
 40
43.00002
 50
30.77234
 51
149.22766
  0
ARC
  8
8
  6
CONTINUOUS
 62
     4
  5
1A2
 10
1743.85042
 20
2130.756042
 30
0.0
 40
43.00002
 50
289.206874
 51
351.979098
  0
CIRCLE
  8
8
  6
HIDDEN
 62
     4
  5
1A3
 10
1743.85042
 20
2130.756042
 30
0.0
 40
14.0
  0
CIRCLE
  8
8
  6
HIDDEN
 62
     4
  5
1A4
 10
1743.85042
 20
2130.756042
 30
0.0
 40
7.50008
  0
CIRCLE
  8
8
  6
HIDDEN
 62
     4
  5
1A5
 10
1743.85042
 20
2130.756042
 30
0.0
 40
3.00006
  0
ARC
  8
8
  6
CONTINUOUS
 62
     4
  5
1A6
 10
1775.85036
 20
2105.756032
 30
0.0
 40
18.00008
 50
90.0
 51
180.0
  0
ARC
  8
8
  6
CONTINUOUS
 62
     4
  5
1A7
 10
1711.8502
 20
2105.756032
 30
0.0
 40
18.00008
 50
0.0
 51
90.0
  0
LINE
  8
2
  6
CONTINUOUS
 62
     3
  5
1A8
 10
2057.8504
 20
2088.801625
 30
0.0
 11
2179.85032
 21
2088.801625
 31
0.0
  0
ARC
  8
8
  6
CONTINUOUS
 62
     4
  5
1A9
 10
2161.85038
 20
2019.256192
 30
0.0
 40
18.00008
 50
270.0
 51
0.0
  0
LINE
  8
8
  6
CONTINUOUS
 62
     4
  5
1AA
 10
2161.85038
 20
2001.256042
 30
0.0
 11
2075.85034
 21
2001.256042
 31
0.0
  0
ARC
  8
8
  6
CONTINUOUS
 62
     4
  5
1AB
 10
2075.85034
 20
2019.256192
 30
0.0
 40
18.00008
 50
180.0
 51
270.0
  0
LINE
  8
10
  6
CENTER
 62
     4
  5
1AC
 10
2084.36542
 20
2107.364842
 30
0.0
 11
2057.8504
 21
2122.673072
 31
0.0
  0
LINE
  8
8
  6
CONTINUOUS
 62
     4
  5
1AD
 10
2179.85032
 20
2105.756032
 30
0.0
 11
2179.85032
 21
2019.256192
 31
0.0
  0
LINE
  8
8
  6
CONTINUOUS
 62
     4
  5
1AE
 10
2161.85038
 20
2123.756042
 30
0.0
 11
2075.85034
 21
2123.756042
 31
0.0
  0
LINE
  8
8
  6
CONTINUOUS
 62
     4
  5
1AF
 10
2057.8504
 20
2105.756032
 30
0.0
 11
2057.8504
 21
2019.256192
 31
0.0
  0
LINE
  8
8
  6
CONTINUOUS
 62
     4
  5
1B0
 10
2057.8504
 20
2090.098922
 30
0.0
 11
2057.8504
 21
2106.756192
 31
0.0
  0
ARC
  8
8
  6
CONTINUOUS
 62
     4
  5
1B1
 10
2043.8504
 20
2130.756042
 30
0.0
 40
45.00006
 50
30.576746
 51
150.54555
  0
ARC
  8
8
  6
CONTINUOUS
 62
     4
  5
1B2
 10
2043.8504
 20
2130.756042
 30
0.0
 40
45.00006
 50
288.126181
 51
352.33778
  0
CIRCLE
  8
8
  6
CONTINUOUS
 62
     4
  5
1B3
 10
2043.80336
 20
2165.772422
 30
0.0
 40
4.50002
  0
ARC
  8
8
  6
CONTINUOUS
 62
     4
  5
1B4
 10
2043.8504
 20
2130.756042
 30
0.0
 40
43.00002
 50
30.576818
 51
150.545482
  0
LINE
  8
8
  6
CONTINUOUS
 62
     4
  5
1B5
 10
2078.15866
 20
2120.185902
 30
0.0
 11
2084.51214
 21
2116.517552
 31
0.0
  0
CIRCLE
  8
8
  6
CONTINUOUS
 62
     4
  5
1B6
 10
2074.17538
 20
2113.252122
 30
0.0
 40
4.50002
  0
CIRCLE
  8
8
  6
CONTINUOUS
 62
     4
  5
1B7
 10
2074.16138
 20
2113.256042
 30
0.0
 40
8.00002
  0
LINE
  8
8
  6
CONTINUOUS
 62
     4
  5
1B8
 10
2035.85024
 20
2165.753102
 30
0.0
 11
2035.85024
 21
2173.089382
 31
0.0
  0
LINE
  8
8
  6
CONTINUOUS
 62
     4
  5
1B9
 10
2051.85042
 20
2165.754572
 30
0.0
 11
2051.85042
 21
2173.077762
 31
0.0
  0
LINE
  8
8
  6
CONTINUOUS
 62
     4
  5
1BA
 10
2039.35024
 20
2165.756042
 30
0.0
 11
2048.35042
 21
2165.756042
 31
0.0
  0
LINE
  8
8
  6
CONTINUOUS
 62
     4
  5
1BB
 10
2043.8504
 20
2165.756042
 30
0.0
 11
2043.8504
 21
2161.256162
 31
0.0
  0
ARC
  8
8
  6
CONTINUOUS
 62
     4
  5
1BC
 10
2043.85082
 20
2163.760062
 30
0.0
 40
8.00002
 50
179.258177
 51
359.621121
  0
CIRCLE
  8
8
  6
CONTINUOUS
 62
     4
  5
1BD
 10
2043.8504
 20
2165.756042
 30
0.0
 40
8.00002
  0
ARC
  8
8
  6
CONTINUOUS
 62
     4
  5
1BE
 10
2043.8504
 20
2130.756042
 30
0.0
 40
43.00002
 50
288.126181
 51
352.513205
  0
ARC
  8
8
  6
CONTINUOUS
 62
     4
  5
1BF
 10
2043.8504
 20
2130.756042
 30
0.0
 40
45.00006
 50
29.267566
 51
150.416488
  0
ARC
  8
8
  6
CONTINUOUS
 62
     4
  5
1C0
 10
2043.8504
 20
2130.756042
 30
0.0
 40
43.00002
 50
289.000793
 51
351.979098
  0
ARC
  8
8
  6
CONTINUOUS
 62
     4
  5
1C1
 10
2043.8504
 20
2130.756042
 30
0.0
 40
43.00002
 50
30.77234
 51
149.22766
  0
ARC
  8
8
  6
CONTINUOUS
 62
     4
  5
1C2
 10
2043.8504
 20
2130.756042
 30
0.0
 40
43.00002
 50
289.206874
 51
351.979098
  0
CIRCLE
  8
8
  6
HIDDEN
 62
     4
  5
1C3
 10
2043.8504
 20
2130.756042
 30
0.0
 40
14.0
  0
CIRCLE
  8
8
  6
HIDDEN
 62
     4
  5
1C4
 10
2043.8504
 20
2130.756042
 30
0.0
 40
7.50008
  0
LINE
  8
10
  6
CENTER
 62
     4
  5
1C5
 10
2043.8504
 20
2130.756042
 30
0.0
 11
2057.8504
 21
2122.673072
 31
0.0
  0
LINE
  8
10
  6
CENTER
 62
     4
  5
1C6
 10
2043.8504
 20
2130.756042
 30
0.0
 11
2013.53928
 21
2113.256042
 31
0.0
  0
LINE
  8
8
  6
CONTINUOUS
 62
     4
  5
1C7
 10
2070.16004
 20
2106.328562
 30
0.0
 11
2076.50218
 21
2102.667002
 31
0.0
  0
LINE
  8
8
  6
CONTINUOUS
 62
     4
  5
1C8
 10
2076.41132
 20
2117.153222
 30
0.0
 11
2071.9113
 21
2109.359002
 31
0.0
  0
LINE
  8
8
  6
CONTINUOUS
 62
     4
  5
1C9
 10
2074.16138
 20
2113.256042
 30
0.0
 11
2070.2642
 21
2115.506192
 31
0.0
  0
ARC
  8
8
  6
CONTINUOUS
 62
     4
  5
1CA
 10
2072.43252
 20
2114.253892
 30
0.0
 40
8.00002
 50
59.258179
 51
239.621122
  0
LINE
  8
8
  6
CONTINUOUS
 62
     4
  5
1CB
 10
2017.54188
 20
2106.329402
 30
0.0
 11
2011.18854
 21
2102.661262
 31
0.0
  0
LINE
  8
8
  6
CONTINUOUS
 62
     4
  5
1CC
 10
2009.54046
 20
2120.184992
 30
0.0
 11
2003.19846
 21
2116.523502
 31
0.0
  0
LINE
  8
8
  6
CONTINUOUS
 62
     4
  5
1CD
 10
2015.78922
 20
2109.359002
 30
0.0
 11
2011.28934
 21
2117.153222
 31
0.0
  0
LINE
  8
8
  6
CONTINUOUS
 62
     4
  5
1CE
 10
2013.53928
 20
2113.256042
 30
0.0
 11
2017.43646
 21
2115.506192
 31
0.0
  0
ARC
  8
8
  6
CONTINUOUS
 62
     4
  5
1CF
 10
2015.26772
 20
2114.254452
 30
0.0
 40
8.00002
 50
299.258177
 51
119.621122
  0
CIRCLE
  8
8
  6
CONTINUOUS
 62
     4
  5
1D0
 10
2013.52878
 20
2113.245822
 30
0.0
 40
4.50002
  0
CIRCLE
  8
8
  6
CONTINUOUS
 62
     4
  5
1D1
 10
2013.53928
 20
2113.256042
 30
0.0
 40
8.00002
  0
ARC
  8
8
  6
CONTINUOUS
 62
     4
  5
1D2
 10
2043.8504
 20
2130.756042
 30
0.0
 40
45.00006
 50
187.66222
 51
251.873821
  0
ARC
  8
8
  6
CONTINUOUS
 62
     4
  5
1D3
 10
2043.8504
 20
2130.756042
 30
0.0
 40
43.00002
 50
188.020902
 51
250.999208
  0
ARC
  8
8
  6
CONTINUOUS
 62
     4
  5
1D4
 10
2043.8504
 20
2130.756042
 30
0.0
 40
43.00002
 50
188.020902
 51
250.999208
  0
CIRCLE
  8
8
  6
HIDDEN
 62
     4
  5
1D5
 10
2043.8504
 20
2130.756042
 30
0.0
 40
3.00006
  0
ARC
  8
8
  6
CONTINUOUS
 62
     4
  5
1D6
 10
2075.85048
 20
2105.756032
 30
0.0
 40
18.00008
 50
90.0
 51
180.0
  0
ARC
  8
8
  6
CONTINUOUS
 62
     4
  5
1D7
 10
2011.85032
 20
2105.756032
 30
0.0
 40
18.00008
 50
0.0
 51
90.0
  0
ARC
  8
8
  6
CONTINUOUS
 62
     4
  5
1D8
 10
2161.85038
 20
2105.756032
 30
0.0
 40
46.00008
 50
0.0
 51
90.0
  0
ARC
  8
8
  6
CONTINUOUS
 62
     4
  5
1D9
 10
2161.85038
 20
2105.756032
 30
0.0
 40
18.00008
 50
0.0
 51
90.0
  0
ARC
  8
8
  6
CONTINUOUS
 62
     4
  5
1DA
 10
2161.85038
 20
1955.256032
 30
0.0
 40
18.00008
 50
0.0
 51
90.0
  0
LINE
  8
8
  6
CONTINUOUS
 62
     4
  5
1DB
 10
2161.85038
 20
1973.256042
 30
0.0
 11
2075.85034
 21
1973.256042
 31
0.0
  0
ARC
  8
8
  6
CONTINUOUS
 62
     4
  5
1DC
 10
1925.85028
 20
1955.256032
 30
0.0
 40
18.00008
 50
90.0
 51
180.0
  0
LINE
  8
50
  6
CONTINUOUS
 62
     4
  5
1DD
 10
1925.85028
 20
1973.256042
 30
0.0
 11
2011.85032
 21
1973.256042
 31
0.0
  0
ARC
  8
8
  6
CONTINUOUS
 62
     4
  5
1DE
 10
2075.85034
 20
1955.256032
 30
0.0
 40
18.00008
 50
90.0
 51
180.0
  0
ARC
  8
8
  6
CONTINUOUS
 62
     4
  5
1DF
 10
2011.85032
 20
1955.256032
 30
0.0
 40
18.00008
 50
0.0
 51
90.0
  0
LINE
  8
8
  6
CONTINUOUS
 62
     4
  5
1E0
 10
2075.85034
 20
1823.256192
 30
0.0
 11
2161.85038
 21
1823.256192
 31
0.0
  0
ARC
  8
8
  6
CONTINUOUS
 62
     4
  5
1E1
 10
2161.85038
 20
1805.256042
 30
0.0
 40
18.00008
 50
0.0
 51
90.0
  0
ARC
  8
8
  6
CONTINUOUS
 62
     4
  5
1E2
 10
2161.85038
 20
1869.255992
 30
0.0
 40
18.00008
 50
270.0
 51
0.0
  0
LINE
  8
8
  6
CONTINUOUS
 62
     4
  5
1E3
 10
2075.85034
 20
1851.256192
 30
0.0
 11
2161.85038
 21
1851.256192
 31
0.0
  0
ARC
  8
8
  6
CONTINUOUS
 62
     4
  5
1E4
 10
2075.85034
 20
1805.256042
 30
0.0
 40
18.00008
 50
90.0
 51
180.0
  0
ARC
  8
8
  6
CONTINUOUS
 62
     4
  5
1E5
 10
2011.85032
 20
1805.256042
 30
0.0
 40
18.00008
 50
0.0
 51
90.0
  0
ARC
  8
8
  6
CONTINUOUS
 62
     4
  5
1E6
 10
2011.85032
 20
1869.255992
 30
0.0
 40
18.00008
 50
270.0
 51
0.0
  0
ARC
  8
8
  6
CONTINUOUS
 62
     4
  5
1E7
 10
2075.85034
 20
1869.255992
 30
0.0
 40
18.00008
 50
180.0
 51
270.0
  0
ARC
  8
8
  6
CONTINUOUS
 62
     4
  5
1E8
 10
1925.85028
 20
1869.255992
 30
0.0
 40
18.00008
 50
180.0
 51
270.0
  0
ARC
  8
8
  6
CONTINUOUS
 62
     4
  5
1E9
 10
1925.85028
 20
1805.256042
 30
0.0
 40
18.00008
 50
90.0
 51
180.0
  0
LINE
  8
50
  6
CONTINUOUS
 62
     4
  5
1EA
 10
2011.85032
 20
1851.256192
 30
0.0
 11
1924.16188
 21
1851.256192
 31
0.0
  0
LINE
  8
50
  6
CONTINUOUS
 62
     4
  5
1EB
 10
1925.85028
 20
1823.255982
 30
0.0
 11
2011.85032
 21
1823.255982
 31
0.0
  0
LINE
  8
8
  6
CONTINUOUS
 62
     4
  5
1EC
 10
1775.85036
 20
1823.256192
 30
0.0
 11
1861.8504
 21
1823.256192
 31
0.0
  0
ARC
  8
8
  6
CONTINUOUS
 62
     4
  5
1ED
 10
1775.85036
 20
1805.256042
 30
0.0
 40
18.00008
 50
90.0
 51
180.0
  0
ARC
  8
8
  6
CONTINUOUS
 62
     4
  5
1EE
 10
1775.85036
 20
1805.256042
 30
0.0
 40
18.00008
 50
90.0
 51
180.0
  0
LINE
  8
8
  6
CONTINUOUS
 62
     4
  5
1EF
 10
1625.8503
 20
1823.256192
 30
0.0
 11
1711.85034
 21
1823.256192
 31
0.0
  0
LINE
  8
8
  6
CONTINUOUS
 62
     4
  5
1F0
 10
1625.8503
 20
1823.256192
 30
0.0
 11
1711.85034
 21
1823.256192
 31
0.0
  0
ARC
  8
8
  6
CONTINUOUS
 62
     4
  5
1F1
 10
1625.8503
 20
1805.256042
 30
0.0
 40
18.00008
 50
90.0
 51
180.0
  0
ARC
  8
8
  6
CONTINUOUS
 62
     4
  5
1F2
 10
1711.85034
 20
1805.256042
 30
0.0
 40
18.00008
 50
0.0
 51
90.0
  0
ARC
  8
8
  6
CONTINUOUS
 62
     4
  5
1F3
 10
1711.85034
 20
1805.256042
 30
0.0
 40
18.00008
 50
0.0
 51
90.0
  0
ARC
  8
8
  6
CONTINUOUS
 62
     4
  5
1F4
 10
1861.85026
 20
1805.256042
 30
0.0
 40
18.00008
 50
0.0
 51
90.0
  0
ARC
  8
8
  6
CONTINUOUS
 62
     4
  5
1F5
 10
1861.85026
 20
1805.256042
 30
0.0
 40
18.00008
 50
0.0
 51
90.0
  0
LINE
  8
8
  6
CONTINUOUS
 62
     4
  5
1F6
 10
1861.8504
 20
1700.756192
 30
0.0
 11
1775.85036
 21
1700.756192
 31
0.0
  0
LINE
  8
8
  6
CONTINUOUS
 62
     4
  5
1F7
 10
1711.85034
 20
1700.756192
 30
0.0
 11
1625.8503
 21
1700.756192
 31
0.0
  0
LINE
  8
8
  6
CONTINUOUS
 62
     4
  5
1F8
 10
1625.8503
 20
1700.756192
 30
0.0
 11
1711.85034
 21
1700.756192
 31
0.0
  0
ARC
  8
8
  6
CONTINUOUS
 62
     4
  5
1F9
 10
1861.85026
 20
1718.755992
 30
0.0
 40
18.00008
 50
270.0
 51
0.0
  0
ARC
  8
8
  6
CONTINUOUS
 62
     4
  5
1FA
 10
1861.85026
 20
1718.755992
 30
0.0
 40
18.00008
 50
270.0
 51
0.0
  0
LINE
  8
10
  6
CENTER
 62
     4
  5
1FB
 10
1743.85028
 20
1694.756142
 30
0.0
 11
1757.85028
 21
1702.838972
 31
0.0
  0
LINE
  8
10
  6
CENTER
 62
     4
  5
1FC
 10
1743.85028
 20
1694.756142
 30
0.0
 11
1713.53944
 21
1712.256142
 31
0.0
  0
ARC
  8
8
  6
CONTINUOUS
 62
     4
  5
1FD
 10
1743.85028
 20
1694.756142
 30
0.0
 40
45.00006
 50
209.454452
 51
329.423257
  0
ARC
  8
8
  6
CONTINUOUS
 62
     4
  5
1FE
 10
1743.85028
 20
1694.756142
 30
0.0
 40
45.00006
 50
7.66222
 51
71.873823
  0
CIRCLE
  8
8
  6
CONTINUOUS
 62
     4
  5
1FF
 10
1743.80352
 20
1659.739762
 30
0.0
 40
4.50002
  0
ARC
  8
8
  6
CONTINUOUS
 62
     4
  5
200
 10
1743.85028
 20
1694.756142
 30
0.0
 40
43.00002
 50
209.454518
 51
329.423182
  0
LINE
  8
8
  6
CONTINUOUS
 62
     4
  5
201
 10
1735.8504
 20
1659.759012
 30
0.0
 11
1735.8504
 21
1652.422802
 31
0.0
  0
LINE
  8
8
  6
CONTINUOUS
 62
     4
  5
202
 10
1751.8503
 20
1659.757472
 30
0.0
 11
1751.8503
 21
1652.434422
 31
0.0
  0
LINE
  8
8
  6
CONTINUOUS
 62
     4
  5
203
 10
1739.3504
 20
1659.756142
 30
0.0
 11
1748.3503
 21
1659.756142
 31
0.0
  0
LINE
  8
8
  6
CONTINUOUS
 62
     4
  5
204
 10
1743.85028
 20
1659.756142
 30
0.0
 11
1743.85028
 21
1664.256022
 31
0.0
  0
ARC
  8
8
  6
CONTINUOUS
 62
     4
  5
205
 10
1743.8507
 20
1661.752122
 30
0.0
 40
8.00002
 50
0.378881
 51
180.741825
  0
CIRCLE
  8
8
  6
CONTINUOUS
 62
     4
  5
206
 10
1743.85028
 20
1659.756142
 30
0.0
 40
8.00002
  0
ARC
  8
8
  6
CONTINUOUS
 62
     4
  5
207
 10
1743.85028
 20
1694.756142
 30
0.0
 40
43.00002
 50
7.486801
 51
71.873823
  0
ARC
  8
8
  6
CONTINUOUS
 62
     4
  5
208
 10
1743.85028
 20
1694.756142
 30
0.0
 40
45.00006
 50
108.126179
 51
172.337781
  0
ARC
  8
8
  6
CONTINUOUS
 62
     4
  5
209
 10
1743.85028
 20
1694.756142
 30
0.0
 40
45.00006
 50
209.583513
 51
330.732436
  0
ARC
  8
8
  6
CONTINUOUS
 62
     4
  5
20A
 10
1743.85028
 20
1694.756142
 30
0.0
 40
43.00002
 50
8.020904
 51
70.999207
  0
ARC
  8
8
  6
CONTINUOUS
 62
     4
  5
20B
 10
1743.85028
 20
1694.756142
 30
0.0
 40
43.00002
 50
109.000794
 51
171.979099
  0
ARC
  8
8
  6
CONTINUOUS
 62
     4
  5
20C
 10
1743.85028
 20
1694.756142
 30
0.0
 40
43.00002
 50
109.000794
 51
171.979099
  0
ARC
  8
8
  6
CONTINUOUS
 62
     4
  5
20D
 10
1743.85028
 20
1694.756142
 30
0.0
 40
43.00002
 50
210.77234
 51
329.22766
  0
ARC
  8
8
  6
CONTINUOUS
 62
     4
  5
20E
 10
1743.85028
 20
1694.756142
 30
0.0
 40
43.00002
 50
8.020904
 51
70.793127
  0
CIRCLE
  8
8
  6
HIDDEN
 62
     4
  5
20F
 10
1743.85028
 20
1694.756142
 30
0.0
 40
14.0
  0
CIRCLE
  8
8
  6
HIDDEN
 62
     4
  5
210
 10
1743.85028
 20
1694.756142
 30
0.0
 40
7.50008
  0
CIRCLE
  8
8
  6
HIDDEN
 62
     4
  5
211
 10
1743.85028
 20
1694.756142
 30
0.0
 40
3.00006
  0
LINE
  8
10
  6
CENTER
 62
     4
  5
212
 10
1784.3653
 20
1718.147342
 30
0.0
 11
1757.85028
 21
1702.838972
 31
0.0
  0
ARC
  8
8
  6
CONTINUOUS
 62
     4
  5
213
 10
1775.85036
 20
1718.755992
 30
0.0
 40
18.00008
 50
180.0
 51
270.0
  0
LINE
  8
8
  6
CONTINUOUS
 62
     4
  5
214
 10
1778.15854
 20
1705.326282
 30
0.0
 11
1784.51202
 21
1708.994492
 31
0.0
  0
ARC
  8
8
  6
CONTINUOUS
 62
     4
  5
215
 10
1772.4324
 20
1711.258292
 30
0.0
 40
8.00002
 50
120.378879
 51
300.741823
  0
CIRCLE
  8
8
  6
CONTINUOUS
 62
     4
  5
216
 10
1774.17526
 20
1712.260062
 30
0.0
 40
4.50002
  0
CIRCLE
  8
8
  6
CONTINUOUS
 62
     4
  5
217
 10
1774.16126
 20
1712.256142
 30
0.0
 40
8.00002
  0
ARC
  8
8
  6
CONTINUOUS
 62
     4
  5
218
 10
1775.85036
 20
1718.755992
 30
0.0
 40
18.00008
 50
180.0
 51
270.0
  0
LINE
  8
8
  6
CONTINUOUS
 62
     4
  5
219
 10
1709.54062
 20
1705.327122
 30
0.0
 11
1703.19862
 21
1708.988682
 31
0.0
  0
ARC
  8
8
  6
CONTINUOUS
 62
     4
  5
21A
 10
1715.26788
 20
1711.257732
 30
0.0
 40
8.00002
 50
240.378879
 51
60.741823
  0
CIRCLE
  8
8
  6
CONTINUOUS
 62
     4
  5
21B
 10
1713.53944
 20
1712.256142
 30
0.0
 40
8.00002
  0
ARC
  8
8
  6
CONTINUOUS
 62
     4
  5
21C
 10
1711.85034
 20
1718.755992
 30
0.0
 40
18.00008
 50
270.0
 51
0.0
  0
ARC
  8
8
  6
CONTINUOUS
 62
     4
  5
21D
 10
1711.85034
 20
1718.755992
 30
0.0
 40
18.00008
 50
270.0
 51
0.0
  0
LINE
  8
10
  6
CENTER
 62
     4
  5
21E
 10
2043.8504
 20
1694.756142
 30
0.0
 11
2013.53942
 21
1712.256142
 31
0.0
  0
LINE
  8
8
  6
CONTINUOUS
 62
     4
  5
21F
 10
2161.85038
 20
1672.756192
 30
0.0
 11
2029.8504
 21
1672.756192
 31
0.0
  0
LINE
  8
8
  6
CONTINUOUS
 62
     4
  5
220
 10
1743.85028
 20
1672.756192
 30
0.0
 11
2028.92234
 21
1672.756192
 31
0.0
  0
LINE
  8
8
  6
CONTINUOUS
 62
     4
  5
221
 10
1625.8503
 20
1672.756192
 30
0.0
 11
1729.85028
 21
1672.756192
 31
0.0
  0
ARC
  8
8
  6
CONTINUOUS
 62
     4
  5
222
 10
1625.8503
 20
1718.755992
 30
0.0
 40
46.00008
 50
180.0
 51
270.0
  0
LINE
  8
8
  6
CONTINUOUS
 62
     4
  5
223
 10
1893.85034
 20
1672.756192
 30
0.0
 11
1729.85028
 21
1672.756192
 31
0.0
  0
LINE
  8
8
  6
CONTINUOUS
 62
     4
  5
224
 10
1607.85036
 20
1718.755992
 30
0.0
 11
1607.85036
 21
1805.256042
 31
0.0
  0
ARC
  8
8
  6
CONTINUOUS
 62
     4
  5
225
 10
2043.8504
 20
1694.756142
 30
0.0
 40
45.00006
 50
209.454452
 51
329.423257
  0
ARC
  8
8
  6
CONTINUOUS
 62
     4
  5
226
 10
2043.8504
 20
1694.756142
 30
0.0
 40
45.00006
 50
7.66222
 51
71.873823
  0
CIRCLE
  8
8
  6
CONTINUOUS
 62
     4
  5
227
 10
2043.8035
 20
1659.739762
 30
0.0
 40
4.50002
  0
ARC
  8
8
  6
CONTINUOUS
 62
     4
  5
228
 10
2043.8504
 20
1694.756142
 30
0.0
 40
43.00002
 50
209.454518
 51
329.423182
  0
LINE
  8
8
  6
CONTINUOUS
 62
     4
  5
229
 10
2035.85038
 20
1659.759012
 30
0.0
 11
2035.85038
 21
1652.422802
 31
0.0
  0
LINE
  8
8
  6
CONTINUOUS
 62
     4
  5
22A
 10
2051.85042
 20
1659.757472
 30
0.0
 11
2051.85042
 21
1652.434422
 31
0.0
  0
LINE
  8
8
  6
CONTINUOUS
 62
     4
  5
22B
 10
2039.35038
 20
1659.756142
 30
0.0
 11
2048.35042
 21
1659.756142
 31
0.0
  0
LINE
  8
8
  6
CONTINUOUS
 62
     4
  5
22C
 10
2043.8504
 20
1659.756142
 30
0.0
 11
2043.8504
 21
1664.256022
 31
0.0
  0
ARC
  8
8
  6
CONTINUOUS
 62
     4
  5
22D
 10
2043.85082
 20
1661.752122
 30
0.0
 40
8.00002
 50
0.378881
 51
180.741825
  0
CIRCLE
  8
8
  6
CONTINUOUS
 62
     4
  5
22E
 10
2043.8504
 20
1659.756142
 30
0.0
 40
8.00002
  0
ARC
  8
8
  6
CONTINUOUS
 62
     4
  5
22F
 10
2043.8504
 20
1694.756142
 30
0.0
 40
43.00002
 50
7.486801
 51
71.873823
  0
ARC
  8
8
  6
CONTINUOUS
 62
     4
  5
230
 10
2043.8504
 20
1694.756142
 30
0.0
 40
45.00006
 50
108.126179
 51
172.337781
  0
ARC
  8
8
  6
CONTINUOUS
 62
     4
  5
231
 10
2043.8504
 20
1694.756142
 30
0.0
 40
45.00006
 50
209.583513
 51
330.732436
  0
ARC
  8
8
  6
CONTINUOUS
 62
     4
  5
232
 10
2043.8504
 20
1694.756142
 30
0.0
 40
43.00002
 50
8.020904
 51
70.999207
  0
ARC
  8
8
  6
CONTINUOUS
 62
     4
  5
233
 10
2043.8504
 20
1694.756142
 30
0.0
 40
43.00002
 50
109.000794
 51
171.979099
  0
ARC
  8
8
  6
CONTINUOUS
 62
     4
  5
234
 10
2043.8504
 20
1694.756142
 30
0.0
 40
43.00002
 50
109.000794
 51
171.979099
  0
ARC
  8
8
  6
CONTINUOUS
 62
     4
  5
235
 10
2043.8504
 20
1694.756142
 30
0.0
 40
43.00002
 50
210.77234
 51
329.22766
  0
ARC
  8
8
  6
CONTINUOUS
 62
     4
  5
236
 10
2043.8504
 20
1694.756142
 30
0.0
 40
43.00002
 50
8.020904
 51
70.793127
  0
CIRCLE
  8
8
  6
HIDDEN
 62
     4
  5
237
 10
2043.8504
 20
1694.756142
 30
0.0
 40
14.0
  0
ARC
  8
8
  6
CONTINUOUS
 62
     4
  5
238
 10
1625.8503
 20
1718.755992
 30
0.0
 40
18.00008
 50
180.0
 51
270.0
  0
LINE
  8
8
  6
CONTINUOUS
 62
     4
  5
239
 10
2179.85032
 20
1805.256042
 30
0.0
 11
2179.85032
 21
1718.755992
 31
0.0
  0
LINE
  8
8
  6
CONTINUOUS
 62
     4
  5
23A
 10
2075.85034
 20
1700.756192
 30
0.0
 11
2161.85038
 21
1700.756192
 31
0.0
  0
LINE
  8
8
  6
CONTINUOUS
 62
     4
  5
23B
 10
2057.8504
 20
1718.755992
 30
0.0
 11
2057.8504
 21
1805.256042
 31
0.0
  0
LINE
  8
8
  6
CONTINUOUS
 62
     4
  5
23C
 10
2029.8504
 20
1718.755992
 30
0.0
 11
2029.8504
 21
1805.256042
 31
0.0
  0
LINE
  8
10
  6
CENTER
 62
     4
  5
23D
 10
2043.8504
 20
1694.756142
 30
0.0
 11
2057.8504
 21
1702.838972
 31
0.0
  0
LINE
  8
8
  6
CONTINUOUS
 62
     4
  5
23E
 10
2057.8504
 20
1735.413262
 30
0.0
 11
2057.8504
 21
1718.755992
 31
0.0
  0
CIRCLE
  8
8
  6
HIDDEN
 62
     4
  5
23F
 10
2043.8504
 20
1694.756142
 30
0.0
 40
7.50008
  0
CIRCLE
  8
8
  6
HIDDEN
 62
     4
  5
240
 10
2043.8504
 20
1694.756142
 30
0.0
 40
3.00006
  0
ARC
  8
8
  6
CONTINUOUS
 62
     4
  5
241
 10
1925.85028
 20
1718.755992
 30
0.0
 40
18.00008
 50
180.0
 51
270.0
  0
LINE
  8
50
  6
CONTINUOUS
 62
     4
  5
242
 10
1925.85028
 20
1700.755982
 30
0.0
 11
2011.85032
 21
1700.755982
 31
0.0
  0
LINE
  8
10
  6
CENTER
 62
     4
  5
243
 10
2084.36542
 20
1718.147342
 30
0.0
 11
2057.8504
 21
1702.838972
 31
0.0
  0
CIRCLE
  8
8
  6
CONTINUOUS
 62
     4
  5
244
 10
2074.16138
 20
1712.256142
 30
0.0
 40
8.00002
  0
LINE
  8
8
  6
CONTINUOUS
 62
     4
  5
245
 10
2017.54202
 20
1719.182782
 30
0.0
 11
2011.18868
 21
1722.850922
 31
0.0
  0
LINE
  8
8
  6
CONTINUOUS
 62
     4
  5
246
 10
2009.5406
 20
1705.327122
 30
0.0
 11
2003.1986
 21
1708.988682
 31
0.0
  0
LINE
  8
8
  6
CONTINUOUS
 62
     4
  5
247
 10
2015.78936
 20
1716.153182
 30
0.0
 11
2011.28948
 21
1708.358962
 31
0.0
  0
LINE
  8
8
  6
CONTINUOUS
 62
     4
  5
248
 10
2013.53942
 20
1712.256142
 30
0.0
 11
2017.4366
 21
1710.005992
 31
0.0
  0
ARC
  8
8
  6
CONTINUOUS
 62
     4
  5
249
 10
2015.26786
 20
1711.257732
 30
0.0
 40
8.00002
 50
240.378879
 51
60.741823
  0
CIRCLE
  8
8
  6
CONTINUOUS
 62
     4
  5
24A
 10
2013.52892
 20
1712.266362
 30
0.0
 40
4.50002
  0
CIRCLE
  8
8
  6
CONTINUOUS
 62
     4
  5
24B
 10
2013.53942
 20
1712.256142
 30
0.0
 40
8.00002
  0
ARC
  8
8
  6
CONTINUOUS
 62
     4
  5
24C
 10
2011.85032
 20
1718.755992
 30
0.0
 40
18.00008
 50
270.0
 51
0.0
  0
ARC
  8
8
  6
CONTINUOUS
 62
     4
  5
24D
 10
2011.85032
 20
1718.755992
 30
0.0
 40
18.00008
 50
270.0
 51
0.0
  0
LINE
  8
8
  6
CONTINUOUS
 62
     4
  5
24E
 10
2078.15866
 20
1705.326282
 30
0.0
 11
2084.51214
 21
1708.994492
 31
0.0
  0
ARC
  8
8
  6
CONTINUOUS
 62
     4
  5
24F
 10
2075.85048
 20
1718.755992
 30
0.0
 40
18.00008
 50
180.0
 51
270.0
  0
LINE
  8
8
  6
CONTINUOUS
 62
     4
  5
250
 10
2070.16004
 20
1719.183552
 30
0.0
 11
2076.50218
 21
1722.845182
 31
0.0
  0
ARC
  8
8
  6
CONTINUOUS
 62
     4
  5
251
 10
2072.43252
 20
1711.258292
 30
0.0
 40
8.00002
 50
120.378879
 51
300.741823
  0
ARC
  8
8
  6
CONTINUOUS
 62
     4
  5
252
 10
2075.85048
 20
1718.755992
 30
0.0
 40
18.00008
 50
180.0
 51
270.0
  0
LINE
  8
8
  6
CONTINUOUS
 62
     4
  5
253
 10
2076.41132
 20
1708.358962
 30
0.0
 11
2071.9113
 21
1716.153182
 31
0.0
  0
LINE
  8
8
  6
CONTINUOUS
 62
     4
  5
254
 10
2074.16138
 20
1712.256142
 30
0.0
 11
2070.2642
 21
1710.005992
 31
0.0
  0
CIRCLE
  8
8
  6
CONTINUOUS
 62
     4
  5
255
 10
2074.17538
 20
1712.260062
 30
0.0
 40
4.50002
  0
LINE
  8
8
  6
CONTINUOUS
 62
     4
  5
256
 10
1757.85028
 20
1718.755992
 30
0.0
 11
1757.85028
 21
1805.256042
 31
0.0
  0
LINE
  8
8
  6
CONTINUOUS
 62
     4
  5
257
 10
1729.85028
 20
1718.755992
 30
0.0
 11
1729.85028
 21
1805.256042
 31
0.0
  0
LINE
  8
8
  6
CONTINUOUS
 62
     4
  5
258
 10
1729.85028
 20
1805.256042
 30
0.0
 11
1729.85028
 21
1718.755992
 31
0.0
  0
LINE
  8
8
  6
CONTINUOUS
 62
     4
  5
259
 10
1757.85028
 20
1805.256042
 30
0.0
 11
1757.85028
 21
1737.522992
 31
0.0
  0
LINE
  8
8
  6
CONTINUOUS
 62
     4
  5
25A
 10
1757.85028
 20
1735.413262
 30
0.0
 11
1757.85028
 21
1718.755992
 31
0.0
  0
LINE
  8
8
  6
CONTINUOUS
 62
     4
  5
25B
 10
1770.15992
 20
1719.183552
 30
0.0
 11
1776.50206
 21
1722.845182
 31
0.0
  0
LINE
  8
8
  6
CONTINUOUS
 62
     4
  5
25C
 10
1776.4112
 20
1708.358962
 30
0.0
 11
1771.91118
 21
1716.153182
 31
0.0
  0
LINE
  8
8
  6
CONTINUOUS
 62
     4
  5
25D
 10
1774.16126
 20
1712.256142
 30
0.0
 11
1770.26408
 21
1710.005992
 31
0.0
  0
LINE
  8
8
  6
CONTINUOUS
 62
     4
  5
25E
 10
1717.54204
 20
1719.182782
 30
0.0
 11
1711.1887
 21
1722.850922
 31
0.0
  0
LINE
  8
8
  6
CONTINUOUS
 62
     4
  5
25F
 10
1715.78938
 20
1716.153182
 30
0.0
 11
1711.2895
 21
1708.358962
 31
0.0
  0
LINE
  8
8
  6
CONTINUOUS
 62
     4
  5
260
 10
1713.53944
 20
1712.256142
 30
0.0
 11
1717.43662
 21
1710.005992
 31
0.0
  0
CIRCLE
  8
8
  6
CONTINUOUS
 62
     4
  5
261
 10
1713.52894
 20
1712.266362
 30
0.0
 40
4.50002
  0
LINE
  8
8
  6
CONTINUOUS
 62
     4
  5
262
 10
1907.8502
 20
1718.755992
 30
0.0
 11
1907.8502
 21
1805.256042
 31
0.0
  0
LINE
  8
8
  6
CONTINUOUS
 62
     4
  5
263
 10
1879.85034
 20
1718.755992
 30
0.0
 11
1879.85034
 21
1805.256042
 31
0.0
  0
LINE
  8
8
  6
CONTINUOUS
 62
     4
  5
264
 10
1879.85034
 20
1805.256042
 30
0.0
 11
1879.85034
 21
1718.755992
 31
0.0
  0
LINE
  8
8
  6
CONTINUOUS
 62
     4
  5
265
 10
1907.8502
 20
1869.255992
 30
0.0
 11
1907.8502
 21
1955.256032
 31
0.0
  0
LINE
  8
8
  6
CONTINUOUS
 62
     4
  5
266
 10
2057.8504
 20
1869.255992
 30
0.0
 11
2057.8504
 21
1955.256032
 31
0.0
  0
LINE
  8
8
  6
CONTINUOUS
 62
     4
  5
267
 10
2029.8504
 20
1955.256032
 30
0.0
 11
2029.8504
 21
1869.255992
 31
0.0
  0
ARC
  8
8
  6
CONTINUOUS
 62
     4
  5
268
 10
2161.85038
 20
1718.755992
 30
0.0
 40
46.00008
 50
270.0
 51
0.0
  0
LINE
  8
8
  6
CONTINUOUS
 62
     4
  5
269
 10
2179.85032
 20
1869.255992
 30
0.0
 11
2179.85032
 21
1955.256032
 31
0.0
  0
ARC
  8
8
  6
CONTINUOUS
 62
     4
  5
26A
 10
2161.85038
 20
1718.755992
 30
0.0
 40
18.00008
 50
270.0
 51
0.0
  0
LINE
  8
8
  6
CONTINUOUS
 62
     4
  5
26B
 10
2207.85032
 20
1718.755992
 30
0.0
 11
2207.85032
 21
2105.756032
 31
0.0
  0
LINE
  8
10
  6
CENTER
 62
     3
  5
26C
 10
1743.85028
 20
1616.195072
 30
0.0
 11
1743.85028
 21
2251.756042
 31
0.0
  0
LINE
  8
151
  6
CONTINUOUS
 62
     3
  5
26D
 10
2043.85036
 20
2188.801625
 30
0.0
 11
2043.85036
 21
2175.756102
 31
0.0
  0
LINE
  8
10
  6
CENTER
 62
     3
  5
26E
 10
2043.85026
 20
1616.195072
 30
0.0
 11
2043.85026
 21
2251.756042
 31
0.0
  0
LINE
  8
10
  6
CENTER
 62
     3
  5
26F
 10
1550.27844
 20
2139.756192
 30
0.0
 11
2307.85032
 21
2139.756192
 31
0.0
  0
LINE
  8
10
  6
CENTER
 62
     3
  5
270
 10
1550.27844
 20
1688.756142
 30
0.0
 11
2307.85032
 21
1688.756142
 31
0.0
  0
LINE
  8
151
  6
CONTINUOUS
 62
     3
  5
271
 10
1993.85036
 20
2001.256042
 30
0.0
 11
1993.85036
 21
2123.756042
 31
0.0
  0
LINE
  8
151
  6
CONTINUOUS
 62
     3
  5
272
 10
1693.85036
 20
2123.756042
 30
0.0
 11
1693.85036
 21
2001.256042
 31
0.0
  0
LINE
  8
151
  6
CONTINUOUS
 62
     3
  5
273
 10
1693.85036
 20
1973.256042
 30
0.0
 11
1693.85036
 21
1851.256192
 31
0.0
  0
LINE
  8
151
  6
CONTINUOUS
 62
     3
  5
274
 10
1993.85036
 20
1851.256192
 30
0.0
 11
1993.85036
 21
1973.256042
 31
0.0
  0
LINE
  8
151
  6
CONTINUOUS
 62
     3
  5
275
 10
2193.85036
 20
1851.256192
 30
0.0
 11
2193.85036
 21
1973.256042
 31
0.0
  0
LINE
  8
151
  6
CONTINUOUS
 62
     3
  5
276
 10
2193.85036
 20
1700.756192
 30
0.0
 11
2193.85036
 21
1823.256192
 31
0.0
  0
LINE
  8
151
  6
CONTINUOUS
 62
     3
  5
277
 10
1993.85036
 20
1700.756192
 30
0.0
 11
1993.85036
 21
1823.256192
 31
0.0
  0
LINE
  8
151
  6
CONTINUOUS
 62
     3
  5
278
 10
1693.85036
 20
1823.256192
 30
0.0
 11
1693.85036
 21
1700.756192
 31
0.0
  0
LINE
  8
151
  6
CONTINUOUS
 62
     3
  5
279
 10
2193.85036
 20
2001.256042
 30
0.0
 11
2193.85036
 21
2123.756042
 31
0.0
  0
LINE
  8
151
  6
CONTINUOUS
 62
     3
  5
27A
 10
1693.85036
 20
3188.801625
 30
0.0
 11
1693.85036
 21
2151.756042
 31
0.0
  0
LINE
  8
151
  6
CONTINUOUS
 62
     3
  5
27B
 10
1793.85036
 20
3188.801625
 30
0.0
 11
1793.85036
 21
2151.756042
 31
0.0
  0
LINE
  8
151
  6
CONTINUOUS
 62
     3
  5
27C
 10
1993.85036
 20
3188.801625
 30
0.0
 11
1993.85036
 21
2151.756042
 31
0.0
  0
LINE
  8
151
  6
CONTINUOUS
 62
     3
  5
27D
 10
1893.85036
 20
3188.801625
 30
0.0
 11
1893.85036
 21
2151.756042
 31
0.0
  0
LINE
  8
151
  6
CONTINUOUS
 62
     3
  5
27E
 10
2093.85036
 20
3188.801625
 30
0.0
 11
2093.85036
 21
2151.756042
 31
0.0
  0
LINE
  8
151
  6
CONTINUOUS
 62
     3
  5
27F
 10
2193.85036
 20
3188.801625
 30
0.0
 11
2193.85036
 21
2151.756042
 31
0.0
  0
LINE
  8
151
  6
CONTINUOUS
 62
     3
  5
280
 10
1793.85036
 20
1339.741605
 30
0.0
 11
1793.85036
 21
1672.756192
 31
0.0
  0
LINE
  8
151
  6
CONTINUOUS
 62
     3
  5
281
 10
2093.85036
 20
1233.187237
 30
0.0
 11
2093.85036
 21
1672.756192
 31
0.0
  0
LINE
  8
151
  6
CONTINUOUS
 62
     3
  5
282
 10
1993.85036
 20
1233.187237
 30
0.0
 11
1993.85036
 21
1672.756192
 31
0.0
  0
LINE
  8
151
  6
CONTINUOUS
 62
     3
  5
283
 10
1893.85036
 20
1312.62231
 30
0.0
 11
1893.85036
 21
1672.756192
 31
0.0
  0
LINE
  8
151
  6
CONTINUOUS
 62
     3
  5
284
 10
1693.85036
 20
1326.995749
 30
0.0
 11
1693.85036
 21
1672.756192
 31
0.0
  0
LINE
  8
151
  6
CONTINUOUS
 62
     3
  5
285
 10
2193.85036
 20
1233.187237
 30
0.0
 11
2193.85036
 21
1672.756192
 31
0.0
  0
CIRCLE
  8
5
  6
CONTINUOUS
 62
     3
  5
286
 10
2823.85036
 20
1688.806142
 30
0.0
 40
7.5
  0
CIRCLE
  8
5
  6
CONTINUOUS
 62
     3
  5
287
 10
2823.85036
 20
2138.806192
 30
0.0
 40
7.5
  0
CIRCLE
  8
5
  6
CONTINUOUS
 62
     3
  5
288
 10
2923.85036
 20
2138.806192
 30
0.0
 40
7.5
  0
LINE
  8
5
  6
CONTINUOUS
 62
     3
  5
289
 10
2823.85036
 20
888.801625
 30
0.0
 11
2823.85036
 21
1688.806142
 31
0.0
  0
TEXT
  8
5
  6
CONTINUOUS
 62
     3
  5
28A
 10
2823.85036
 20
1228.778883
 30
0.0
 40
60.0
  1
800
 50
90.0
 41
0.666667
  7

 72
     5
 11
2823.85036
 21
1348.778883
 31
0.0
  0
LINE
  8
5
  6
CONTINUOUS
 62
     3
  5
28B
 10
2823.85036
 20
1688.806142
 30
0.0
 11
2723.85036
 21
1688.806142
 31
0.0
  0
LINE
  8
5
  6
CONTINUOUS
 62
     3
  5
28C
 10
2823.85036
 20
1688.806142
 30
0.0
 11
2823.85036
 21
2138.806192
 31
0.0
  0
TEXT
  8
5
  6
CONTINUOUS
 62
     3
  5
28D
 10
2823.85036
 20
1854.256167
 30
0.0
 40
60.0
  1
450
 50
90.0
 41
0.666667
  7

 72
     5
 11
2823.85036
 21
1974.256167
 31
0.0
  0
LINE
  8
5
  6
CONTINUOUS
 62
     3
  5
28E
 10
2923.85036
 20
2138.806192
 30
0.0
 11
2723.85036
 21
2138.806192
 31
0.0
  0
LINE
  8
5
  6
CONTINUOUS
 62
     3
  5
28F
 10
2923.85036
 20
888.801625
 30
0.0
 11
2923.85036
 21
2138.806192
 31
0.0
  0
TEXT
  8
5
  6
CONTINUOUS
 62
     3
  5
290
 10
2923.85036
 20
1424.278908
 30
0.0
 40
60.0
  1
1,250
 50
90.0
 41
0.6
  7

 72
     5
 11
2923.85036
 21
1604.278908
 31
0.0
  0
LINE
  8
151
  6
CONTINUOUS
 62
     3
  5
291
 10
1593.85036
 20
2151.756042
 30
0.0
 11
1593.85036
 21
3188.801625
 31
0.0
  0
ARC
  8
4
  6
CONTINUOUS
 62
     6
  5
292
 10
2813.85036
 20
4893.513834
 30
0.0
 40
600.0
 50
270.0
 51
357.720072
  0
LINE
  8
5
  6
CONTINUOUS
 62
     6
  5
293
 10
1854.09036
 20
4658.073717
 30
0.0
 11
2183.84936
 21
4658.073717
 31
0.0
  0
LINE
  8
5
  6
CONTINUOUS
 62
     6
  5
294
 10
1929.75036
 20
4611.068717
 30
0.0
 11
2183.84936
 21
4611.068717
 31
0.0
  0
ARC
  8
5
  6
CONTINUOUS
 62
     6
  5
295
 10
1958.31336
 20
4288.197717
 30
0.0
 40
359.99995
 50
91.505
 51
110.194
  0
ARC
  8
5
  6
CONTINUOUS
 62
     6
  5
296
 10
1958.31336
 20
4752.952717
 30
0.0
 40
359.99995
 50
249.847
 51
268.498809
  0
ARC
  8
5
  6
CONTINUOUS
 62
     6
  5
297
 10
1929.75036
 20
4491.070717
 30
0.0
 40
120.0
 50
90.0
 51
111.90901
  0
ARC
  8
5
  6
CONTINUOUS
 62
     6
  5
298
 10
1929.75036
 20
4550.072717
 30
0.0
 40
120.0
 50
248.091003
 51
270.0
  0
ARC
  8
5
  6
CONTINUOUS
 62
     6
  5
299
 10
1967.08936
 20
4712.547717
 30
0.0
 40
319.99999
 50
257.598007
 51
266.732406
  0
ARC
  8
5
  6
CONTINUOUS
 62
     6
  5
29A
 10
2183.84936
 20
4558.071717
 30
0.0
 40
52.999998
 50
59.52301
 51
90.0
  0
ARC
  8
5
  6
CONTINUOUS
 62
     6
  5
29B
 10
2183.84936
 20
4558.071717
 30
0.0
 40
99.999998
 50
53.76501
 51
90.0
  0
ARC
  8
5
  6
CONTINUOUS
 62
     6
  5
29C
 10
2268.85236
 20
4520.571717
 30
0.0
 40
33.0
 50
311.3711
 51
48.12701
  0
ARC
  8
5
  6
CONTINUOUS
 62
     6
  5
29D
 10
2268.85236
 20
4520.571717
 30
0.0
 40
74.999882
 50
312.5485
 51
48.12701
  0
ARC
  8
5
  6
CONTINUOUS
 62
     6
  5
29E
 10
2134.84936
 20
4520.571717
 30
0.0
 40
149.99999
 50
352.31056
 51
7.68901
  0
ARC
  8
5
  6
CONTINUOUS
 62
     6
  5
29F
 10
2275.57836
 20
4501.568717
 30
0.0
 40
7.9999
 50
270.001708
 51
352.3113
  0
ARC
  8
5
  6
CONTINUOUS
 62
     6
  5
2A0
 10
2275.57836
 20
4539.573717
 30
0.0
 40
7.999999
 50
7.68901
 51
90.0
  0
LINE
  8
5
  6
CONTINUOUS
 62
     6
  5
2A1
 10
2183.84936
 20
4383.068717
 30
0.0
 11
1875.61236
 21
4383.068717
 31
0.0
  0
LINE
  8
5
  6
CONTINUOUS
 62
     6
  5
2A2
 10
2183.84936
 20
4430.066717
 30
0.0
 11
1930.76436
 21
4430.066717
 31
0.0
  0
ARC
  8
5
  6
CONTINUOUS
 62
     6
  5
2A3
 10
1957.14436
 20
4172.832717
 30
0.0
 40
499.99996
 50
48.12701
 51
59.52301
  0
ARC
  8
5
  6
CONTINUOUS
 62
     6
  5
2A4
 10
1710.98236
 20
3912.787717
 30
0.0
 40
899.99979
 50
47.45201
 51
53.76501
  0
ARC
  8
5
  6
CONTINUOUS
 62
     6
  5
2A5
 10
2183.84936
 20
4483.070717
 30
0.0
 40
52.999899
 50
270.0
 51
300.4766
  0
ARC
  8
5
  6
CONTINUOUS
 62
     6
  5
2A6
 10
1957.14436
 20
4868.310717
 30
0.0
 40
499.99996
 50
300.47671
 51
311.87271
  0
ARC
  8
5
  6
CONTINUOUS
 62
     6
  5
2A7
 10
2183.84936
 20
4483.070717
 30
0.0
 40
99.999881
 50
270.0
 51
306.23471
  0
ARC
  8
5
  6
CONTINUOUS
 62
     6
  5
2A8
 10
1710.98236
 20
5128.351717
 30
0.0
 40
899.99979
 50
306.23471
 51
312.5485
  0
ARC
  8
5
  6
CONTINUOUS
 62
     6
  5
2A9
 10
2301.82436
 20
4016.337717
 30
0.0
 40
799.99998
 50
129.695
 51
138.30601
  0
ARC
  8
5
  6
CONTINUOUS
 62
     6
  5
2AA
 10
1948.68236
 20
4110.929717
 30
0.0
 40
499.99996
 50
112.277
 51
119.492
  0
ARC
  8
5
  6
CONTINUOUS
 62
     6
  5
2AB
 10
1735.84936
 20
4520.571717
 30
0.0
 40
41.999998
 50
138.21501
 51
221.698013
  0
ARC
  8
5
  6
CONTINUOUS
 62
     6
  5
2AC
 10
1743.84936
 20
4520.571717
 30
0.0
 40
39.999999
 50
99.04901
 51
260.951202
  0
ARC
  8
5
  6
CONTINUOUS
 62
     6
  5
2AD
 10
2301.82436
 20
5024.801717
 30
0.0
 40
799.99998
 50
221.694
 51
230.305007
  0
ARC
  8
5
  6
CONTINUOUS
 62
     6
  5
2AE
 10
1948.68236
 20
4930.209717
 30
0.0
 40
499.99897
 50
240.50801
 51
247.723007
  0
LINE
  8
5
  6
CONTINUOUS
 62
     6
  5
2AF
 10
1877.85236
 20
4576.570717
 30
0.0
 11
1888.85436
 21
4576.570717
 31
0.0
  0
LINE
  8
5
  6
CONTINUOUS
 62
     6
  5
2B0
 10
1912.85436
 20
4488.571717
 30
0.0
 11
1912.85436
 21
4552.570717
 31
0.0
  0
LINE
  8
5
  6
CONTINUOUS
 62
     6
  5
2B1
 10
1888.85436
 20
4464.572717
 30
0.0
 11
1877.85236
 21
4464.572717
 31
0.0
  0
LINE
  8
5
  6
CONTINUOUS
 62
     6
  5
2B2
 10
1866.19236
 20
4467.602717
 30
0.0
 11
1865.97536
 21
4467.721717
 31
0.0
  0
ARC
  8
5
  6
CONTINUOUS
 62
     6
  5
2B3
 10
1864.84836
 20
4498.573717
 30
0.0
 40
115.99999
 50
230.223007
 51
275.322204
  0
ARC
  8
5
  6
CONTINUOUS
 62
     6
  5
2B4
 10
2546.85336
 20
4520.571717
 30
0.0
 40
700.00006
 50
174.604
 51
185.656006
  0
ARC
  8
5
  6
CONTINUOUS
 62
     6
  5
2B5
 10
1888.85436
 20
4552.570717
 30
0.0
 40
23.999993
 50
0.0
 51
90.0
  0
ARC
  8
5
  6
CONTINUOUS
 62
     6
  5
2B6
 10
1864.84836
 20
4542.569717
 30
0.0
 40
88.999998
 50
110.09201
 51
125.79701
  0
ARC
  8
5
  6
CONTINUOUS
 62
     6
  5
2B7
 10
1743.84936
 20
4610.571717
 30
0.0
 40
39.999999
 50
292.1069
 51
311.91101
  0
ARC
  8
5
  6
CONTINUOUS
 62
     6
  5
2B8
 10
2104.56436
 20
4208.709717
 30
0.0
 40
499.99996
 50
125.65701
 51
131.91101
  0
ARC
  8
5
  6
CONTINUOUS
 62
     6
  5
2B9
 10
1907.85036
 20
4520.571717
 30
0.0
 40
120.0
 50
151.915
 51
208.073013
  0
ARC
  8
5
  6
CONTINUOUS
 62
     6
  5
2BA
 10
1888.85436
 20
4488.571717
 30
0.0
 40
23.999993
 50
270.0
 51
0.0
  0
ARC
  8
5
  6
CONTINUOUS
 62
     6
  5
2BB
 10
1877.85236
 20
4488.571717
 30
0.0
 40
23.999993
 50
240.925003
 51
270.0
  0
ARC
  8
5
  6
CONTINUOUS
 62
     6
  5
2BC
 10
1894.83936
 20
3572.523717
 30
0.0
 40
999.99905
 50
96.218
 51
99.04901
  0
ARC
  8
5
  6
CONTINUOUS
 62
     6
  5
2BD
 10
1864.84836
 20
4498.573717
 30
0.0
 40
88.999909
 50
234.203002
 51
249.908004
  0
ARC
  8
5
  6
CONTINUOUS
 62
     6
  5
2BE
 10
2104.56436
 20
4832.433717
 30
0.0
 40
499.99897
 50
228.089004
 51
234.343002
  0
ARC
  8
5
  6
CONTINUOUS
 62
     6
  5
2BF
 10
1896.16836
 20
4574.568717
 30
0.0
 40
30.000096
 50
111.90901
 51
175.083
  0
ARC
  8
5
  6
CONTINUOUS
 62
     6
  5
2C0
 10
2523.85436
 20
4520.571717
 30
0.0
 40
660.0
 50
175.083
 51
184.917007
  0
ARC
  8
5
  6
CONTINUOUS
 62
     6
  5
2C1
 10
1896.16836
 20
4466.573717
 30
0.0
 40
29.999901
 50
184.917007
 51
248.091003
  0
ARC
  8
5
  6
CONTINUOUS
 62
     6
  5
2C2
 10
1877.85236
 20
4552.570717
 30
0.0
 40
23.999993
 50
90.0
 51
119.66801
  0
ARC
  8
5
  6
CONTINUOUS
 62
     6
  5
2C3
 10
1911.67836
 20
4580.573717
 30
0.0
 40
61.999901
 50
102.402
 51
174.604
  0
ARC
  8
5
  6
CONTINUOUS
 62
     6
  5
2C4
 10
1911.67836
 20
4460.568717
 30
0.0
 40
61.999996
 50
185.396011
 51
257.598007
  0
ARC
  8
5
  6
CONTINUOUS
 62
     6
  5
2C5
 10
1784.35936
 20
4586.522717
 30
0.0
 40
20.000099
 50
276.218109
 51
331.8981
  0
ARC
  8
5
  6
CONTINUOUS
 62
     6
  5
2C6
 10
1784.35936
 20
4454.633717
 30
0.0
 40
19.999999
 50
28.10301
 51
83.78201
  0
ARC
  8
5
  6
CONTINUOUS
 62
     6
  5
2C7
 10
1894.83936
 20
5468.622717
 30
0.0
 40
999.99905
 50
260.951309
 51
263.782012
  0
ARC
  8
5
  6
CONTINUOUS
 62
     6
  5
2C8
 10
1743.84936
 20
4430.570717
 30
0.0
 40
39.999999
 50
48.089
 51
67.893
  0
ARC
  8
5
  6
CONTINUOUS
 62
     6
  5
2C9
 10
1967.08936
 20
4328.588717
 30
0.0
 40
319.99999
 50
93.268
 51
102.402
  0
ARC
  8
5
  6
CONTINUOUS
 62
     6
  5
2CA
 10
1864.84836
 20
4542.569717
 30
0.0
 40
115.99999
 50
95.322
 51
129.63301
  0
LINE
  8
6
  6
CONTINUOUS
 62
     3
  5
2CB
 10
1893.831798
 20
4113.513834
 30
0.0
 11
1893.831798
 21
4383.068717
 31
0.0
  0
LINE
  8
6
  6
CONTINUOUS
 62
     3
  5
2CC
 10
1893.831798
 20
4658.073717
 30
0.0
 11
1893.831798
 21
4846.429481
 31
0.0
  0
LINE
  8
6
  6
CONTINUOUS
 62
     3
  5
2CD
 10
1693.831798
 20
4113.513834
 30
0.0
 11
1693.831798
 21
4140.053599
 31
0.0
  0
LINE
  8
6
  6
CONTINUOUS
 62
     3
  5
2CE
 10
1593.831798
 20
4113.513834
 30
0.0
 11
1593.831798
 21
4140.053599
 31
0.0
  0
LINE
  8
6
  6
CONTINUOUS
 62
     2
  5
2CF
 10
2761.35036
 20
4416.013834
 30
0.0
 11
2261.049959
 21
4416.013834
 31
0.0
  0
LINE
  8
6
  6
CONTINUOUS
 62
     2
  5
2D0
 10
2761.35036
 20
4516.013834
 30
0.0
 11
2343.713619
 21
4516.013834
 31
0.0
  0
LINE
  8
6
  6
CONTINUOUS
 62
     2
  5
2D1
 10
2761.35036
 20
4616.013834
 30
0.0
 11
2272.815767
 21
4616.013834
 31
0.0
  0
LINE
  8
6
  6
CONTINUOUS
 62
     3
  5
2D2
 10
2293.831798
 20
4598.587563
 30
0.0
 11
2293.831798
 21
4846.429481
 31
0.0
  0
LINE
  8
6
  6
CONTINUOUS
 62
     3
  5
2D3
 10
2093.831798
 20
4658.073717
 30
0.0
 11
2093.831798
 21
4846.429481
 31
0.0
  0
LINE
  8
6
  6
CONTINUOUS
 62
     3
  5
2D4
 10
1993.831798
 20
4658.073717
 30
0.0
 11
1993.831798
 21
4846.429481
 31
0.0
  0
LINE
  8
6
  6
CONTINUOUS
 62
     3
  5
2D5
 10
1793.831798
 20
4635.893031
 30
0.0
 11
1793.831798
 21
4846.429481
 31
0.0
  0
LINE
  8
6
  6
CONTINUOUS
 62
     3
  5
2D6
 10
1793.831798
 20
4868.429501
 30
0.0
 11
1793.831798
 21
4918.513834
 31
0.0
  0
LINE
  8
1
  6
CENTER
 62
     2
  5
2D7
 10
2746.35036
 20
4008.513834
 30
0.0
 11
2746.35036
 21
5023.513834
 31
0.0
  0
LINE
  8
5
  6
CONTINUOUS
 62
     3
  5
2D8
 10
3028.85036
 20
4061.013834
 30
0.0
 11
2828.85036
 21
4061.013834
 31
0.0
  0
LINE
  8
5
  6
CONTINUOUS
 62
     3
  5
2D9
 10
3028.85036
 20
4971.013834
 30
0.0
 11
2828.85036
 21
4971.013834
 31
0.0
  0
CIRCLE
  8
5
  6
CONTINUOUS
 62
     3
  5
2DA
 10
3028.85036
 20
4061.013834
 30
0.0
 40
7.5
  0
CIRCLE
  8
5
  6
CONTINUOUS
 62
     3
  5
2DB
 10
3028.85036
 20
4971.013834
 30
0.0
 40
7.5
  0
CIRCLE
  8
5
  6
CONTINUOUS
 62
     3
  5
2DC
 10
2928.85036
 20
4971.013834
 30
0.0
 40
7.5
  0
CIRCLE
  8
5
  6
CONTINUOUS
 62
     3
  5
2DD
 10
2928.85036
 20
4061.013834
 30
0.0
 40
7.5
  0
LINE
  8
6
  6
CONTINUOUS
 62
     3
  5
2DE
 10
2093.831798
 20
4383.068717
 30
0.0
 11
2093.831798
 21
4141.013834
 31
0.0
  0
LINE
  8
6
  6
CONTINUOUS
 62
     3
  5
2DF
 10
2293.831798
 20
4442.577589
 30
0.0
 11
2293.831798
 21
4141.013834
 31
0.0
  0
LINE
  8
6
  6
CONTINUOUS
 62
     3
  5
2E0
 10
2293.831798
 20
4868.429501
 30
0.0
 11
2293.831798
 21
4918.513834
 31
0.0
  0
LINE
  8
6
  6
CONTINUOUS
 62
     3
  5
2E1
 10
2093.831798
 20
4868.429501
 30
0.0
 11
2093.831798
 21
4918.513834
 31
0.0
  0
LINE
  8
6
  6
CONTINUOUS
 62
     3
  5
2E2
 10
1993.831798
 20
4868.429501
 30
0.0
 11
1993.831798
 21
4918.513834
 31
0.0
  0
LINE
  8
6
  6
CONTINUOUS
 62
     3
  5
2E3
 10
2593.831798
 20
4141.013834
 30
0.0
 11
2593.831798
 21
4918.513834
 31
0.0
  0
LINE
  8
6
  6
CONTINUOUS
 62
     3
  5
2E4
 10
2493.831798
 20
4141.013834
 30
0.0
 11
2493.831798
 21
4918.513834
 31
0.0
  0
LINE
  8
6
  6
CONTINUOUS
 62
     3
  5
2E5
 10
2393.831798
 20
4141.013834
 30
0.0
 11
2393.831798
 21
4918.513834
 31
0.0
  0
LINE
  8
6
  6
CONTINUOUS
 62
     3
  5
2E6
 10
1993.831798
 20
4113.513834
 30
0.0
 11
1993.831798
 21
4383.068717
 31
0.0
  0
LINE
  8
2
  6
CONTINUOUS
 62
     5
  5
2E7
 10
2678.85036
 20
4266.513834
 30
0.0
 11
2813.85036
 21
4266.513834
 31
0.0
  0
LINE
  8
3
  6
CONTINUOUS
 62
     5
  5
2E8
 10
2731.35036
 20
4306.513834
 30
0.0
 11
2761.35036
 21
4306.513834
 31
0.0
  0
LINE
  8
3
  6
CONTINUOUS
 62
     5
  5
2E9
 10
2731.35036
 20
4306.513834
 30
0.0
 11
2731.35036
 21
4291.513834
 31
0.0
  0
LINE
  8
3
  6
CONTINUOUS
 62
     5
  5
2EA
 10
2761.35036
 20
4306.513834
 30
0.0
 11
2761.35036
 21
4291.513834
 31
0.0
  0
LINE
  8
2
  6
CONTINUOUS
 62
     5
  5
2EB
 10
2798.85036
 20
4008.513834
 30
0.0
 11
2798.85036
 21
4266.513834
 31
0.0
  0
LINE
  8
2
  6
CONTINUOUS
 62
     5
  5
2EC
 10
2693.85036
 20
4113.513834
 30
0.0
 11
2693.85036
 21
4266.513834
 31
0.0
  0
CIRCLE
  8
5
  6
CONTINUOUS
 62
     3
  5
2ED
 10
2928.85036
 20
4291.013834
 30
0.0
 40
7.5
  0
LINE
  8
3
  6
CONTINUOUS
 62
     5
  5
2EE
 10
2813.85036
 20
4291.013834
 30
0.0
 11
2813.85036
 21
4266.513834
 31
0.0
  0
LINE
  8
3
  6
CONTINUOUS
 62
     5
  5
2EF
 10
2678.85036
 20
4291.013834
 30
0.0
 11
2678.85036
 21
4266.513834
 31
0.0
  0
LINE
  8
3
  6
CONTINUOUS
 62
     5
  5
2F0
 10
2678.85036
 20
4291.013834
 30
0.0
 11
2813.85036
 21
4291.013834
 31
0.0
  0
LINE
  8
3
  6
CONTINUOUS
 62
     5
  5
2F1
 10
2798.85036
 20
4916.513834
 30
0.0
 11
2693.85036
 21
4916.513834
 31
0.0
  0
LINE
  8
2
  6
CONTINUOUS
 62
     5
  5
2F2
 10
2678.85036
 20
4916.513834
 30
0.0
 11
2813.85036
 21
4916.513834
 31
0.0
  0
LINE
  8
3
  6
CONTINUOUS
 62
     5
  5
2F3
 10
2731.35036
 20
4876.513834
 30
0.0
 11
2761.35036
 21
4876.513834
 31
0.0
  0
LINE
  8
3
  6
CONTINUOUS
 62
     5
  5
2F4
 10
2731.35036
 20
4876.513834
 30
0.0
 11
2731.35036
 21
4891.513834
 31
0.0
  0
LINE
  8
3
  6
CONTINUOUS
 62
     5
  5
2F5
 10
2761.35036
 20
4876.513834
 30
0.0
 11
2761.35036
 21
4891.513834
 31
0.0
  0
LINE
  8
3
  6
CONTINUOUS
 62
     5
  5
2F6
 10
2798.85036
 20
5023.513834
 30
0.0
 11
2798.85036
 21
4916.513834
 31
0.0
  0
LINE
  8
3
  6
CONTINUOUS
 62
     5
  5
2F7
 10
2798.85036
 20
4916.513834
 30
0.0
 11
2813.85036
 21
4916.513834
 31
0.0
  0
CIRCLE
  8
5
  6
CONTINUOUS
 62
     3
  5
2F8
 10
2928.85036
 20
4891.013834
 30
0.0
 40
7.5
  0
LINE
  8
3
  6
CONTINUOUS
 62
     5
  5
2F9
 10
2813.85036
 20
4891.013834
 30
0.0
 11
2813.85036
 21
4916.513834
 31
0.0
  0
LINE
  8
1
  6
CONTINUOUS
 62
     2
  5
2FA
 10
2691.195552
 20
4891.661021
 30
0.0
 11
2688.548365
 21
4888.513834
 31
0.0
  0
LINE
  8
3
  6
CONTINUOUS
 62
     5
  5
2FB
 10
2678.85036
 20
4891.013834
 30
0.0
 11
2678.85036
 21
4916.513834
 31
0.0
  0
LINE
  8
3
  6
CONTINUOUS
 62
     5
  5
2FC
 10
2678.85036
 20
4891.013834
 30
0.0
 11
2813.85036
 21
4891.013834
 31
0.0
  0
LINE
  8
4
  6
CONTINUOUS
 62
     6
  5
2FD
 10
2761.35036
 20
4306.513834
 30
0.0
 11
2761.35036
 21
4876.513834
 31
0.0
  0
LINE
  8
4
  6
CONTINUOUS
 62
     6
  5
2FE
 10
2813.85036
 20
4291.013834
 30
0.0
 11
2813.85036
 21
4867.625877
 31
0.0
  0
LINE
  8
4
  6
CONTINUOUS
 62
     6
  5
2FF
 10
3413.85036
 20
4867.625877
 30
0.0
 11
2761.35036
 21
4867.625877
 31
0.0
  0
LINE
  8
3
  6
CONTINUOUS
 62
     5
  5
300
 10
2798.85036
 20
5023.513834
 30
0.0
 11
1676.35036
 21
5023.513834
 31
0.0
  0
LINE
  8
5
  6
CONTINUOUS
 62
     3
  5
301
 10
2928.85036
 20
4291.013834
 30
0.0
 11
2828.85036
 21
4291.013834
 31
0.0
  0
LINE
  8
5
  6
CONTINUOUS
 62
     3
  5
302
 10
2928.85036
 20
4891.013834
 30
0.0
 11
2828.85036
 21
4891.013834
 31
0.0
  0
LINE
  8
6
  6
CONTINUOUS
 62
     3
  5
303
 10
2693.831798
 20
4291.513834
 30
0.0
 11
2693.831798
 21
4891.013834
 31
0.0
  0
LINE
  8
3
  6
CONTINUOUS
 62
     6
  5
304
 10
2062.200353
 20
4050.013846
 30
0.0
 11
2062.200353
 21
4029.01385
 31
0.0
  0
LINE
  8
3
  6
CONTINUOUS
 62
     6
  5
305
 10
2366.700202
 20
3994.013856
 30
0.0
 11
2321.70021
 21
3994.013856
 31
0.0
  0
LINE
  8
3
  6
CONTINUOUS
 62
     6
  5
306
 10
2366.700202
 20
4015.013852
 30
0.0
 11
2321.70021
 21
4015.013852
 31
0.0
  0
LINE
  8
3
  6
CONTINUOUS
 62
     6
  5
307
 10
2349.700205
 20
4026.01385
 30
0.0
 11
2321.70021
 21
4026.01385
 31
0.0
  0
LINE
  8
3
  6
CONTINUOUS
 62
     6
  5
308
 10
2354.700204
 20
3994.013856
 30
0.0
 11
2354.700204
 21
4015.013852
 31
0.0
  0
LINE
  8
3
  6
CONTINUOUS
 62
     6
  5
309
 10
2321.70021
 20
3994.013856
 30
0.0
 11
2321.70021
 21
4026.01385
 31
0.0
  0
LINE
  8
3
  6
CONTINUOUS
 62
     6
  5
30A
 10
2366.700202
 20
4028.01385
 30
0.0
 11
2321.70021
 21
4028.01385
 31
0.0
  0
LINE
  8
3
  6
CONTINUOUS
 62
     6
  5
30B
 10
2366.700202
 20
4050.013846
 30
0.0
 11
2321.70021
 21
4050.013846
 31
0.0
  0
LINE
  8
3
  6
CONTINUOUS
 62
     6
  5
30C
 10
2366.700202
 20
4076.013841
 30
0.0
 11
2321.70021
 21
4076.013841
 31
0.0
  0
LINE
  8
3
  6
CONTINUOUS
 62
     6
  5
30D
 10
2366.700202
 20
4028.01385
 30
0.0
 11
2366.700202
 21
4076.013841
 31
0.0
  0
LINE
  8
3
  6
CONTINUOUS
 62
     6
  5
30E
 10
2321.70021
 20
4050.013846
 30
0.0
 11
2321.70021
 21
4076.013841
 31
0.0
  0
LINE
  8
3
  6
CONTINUOUS
 62
     6
  5
30F
 10
2333.700208
 20
4028.01385
 30
0.0
 11
2333.700208
 21
4050.013846
 31
0.0
  0
LINE
  8
3
  6
CONTINUOUS
 62
     5
  5
310
 10
2328.700208
 20
4040.013848
 30
0.0
 11
2067.200352
 21
4040.013848
 31
0.0
  0
LINE
  8
1
  6
CONTINUOUS
 62
     5
  5
311
 10
2691.195552
 20
4078.513834
 30
0.0
 11
2691.195552
 21
4141.013834
 31
0.0
  0
LINE
  8
1
  6
CONTINUOUS
 62
     2
  5
312
 10
2691.195552
 20
4124.224512
 30
0.0
 11
2674.40623
 21
4141.013834
 31
0.0
  0
LINE
  8
3
  6
CONTINUOUS
 62
     5
  5
313
 10
2678.85036
 20
4138.513834
 30
0.0
 11
2678.85036
 21
4113.513834
 31
0.0
  0
LINE
  8
5
  6
CONTINUOUS
 62
     3
  5
314
 10
2746.35036
 20
5253.513834
 30
0.0
 11
2746.35036
 21
5053.513834
 31
0.0
  0
CIRCLE
  8
5
  6
CONTINUOUS
 62
     3
  5
315
 10
2746.35036
 20
5253.513834
 30
0.0
 40
7.5
  0
CIRCLE
  8
5
  6
CONTINUOUS
 62
     3
  5
316
 10
2746.35036
 20
3778.513834
 30
0.0
 40
7.5
  0
CIRCLE
  8
5
  6
CONTINUOUS
 62
     3
  5
317
 10
2746.35036
 20
3878.513834
 30
0.0
 40
7.5
  0
LINE
  8
1
  6
CONTINUOUS
 62
     2
  5
318
 10
2680.337687
 20
4078.513834
 30
0.0
 11
2666.345552
 21
4092.65597
 31
0.0
  0
LINE
  8
1
  6
CONTINUOUS
 62
     2
  5
319
 10
2691.195552
 20
4081.798106
 30
0.0
 11
2666.345552
 21
4106.798106
 31
0.0
  0
LINE
  8
3
  6
CONTINUOUS
 62
     6
  5
31A
 10
2359.700203
 20
4005.013854
 30
0.0
 11
2621.350059
 21
4005.013854
 31
0.0
  0
LINE
  8
3
  6
CONTINUOUS
 62
     6
  5
31B
 10
2626.350058
 20
4015.013852
 30
0.0
 11
2626.350058
 21
3994.013856
 31
0.0
  0
LINE
  8
3
  6
CONTINUOUS
 62
     6
  5
31C
 10
2614.35006
 20
3994.013856
 30
0.0
 11
2664.350051
 21
3994.013856
 31
0.0
  0
LINE
  8
3
  6
CONTINUOUS
 62
     6
  5
31D
 10
2614.35006
 20
4015.013852
 30
0.0
 11
2664.350051
 21
4015.013852
 31
0.0
  0
LINE
  8
3
  6
CONTINUOUS
 62
     6
  5
31E
 10
2653.350053
 20
4015.013852
 30
0.0
 11
2653.350053
 21
3994.013856
 31
0.0
  0
LINE
  8
3
  6
CONTINUOUS
 62
     6
  5
31F
 10
2666.350051
 20
4056.013845
 30
0.0
 11
2666.350051
 21
3986.013858
 31
0.0
  0
LINE
  8
3
  6
CONTINUOUS
 62
     6
  5
320
 10
2666.350051
 20
4056.013845
 30
0.0
 11
2666.350051
 21
4141.013834
 31
0.0
  0
LINE
  8
3
  6
CONTINUOUS
 62
     5
  5
321
 10
2376.7002
 20
4056.013845
 30
0.0
 11
2666.350051
 21
4056.013845
 31
0.0
  0
LINE
  8
1
  6
CONTINUOUS
 62
     2
  5
322
 10
2691.195552
 20
4095.940241
 30
0.0
 11
2666.345552
 21
4120.940241
 31
0.0
  0
LINE
  8
1
  6
CONTINUOUS
 62
     2
  5
323
 10
2691.195552
 20
4110.082377
 30
0.0
 11
2666.345552
 21
4135.082377
 31
0.0
  0
LINE
  8
1
  6
CONTINUOUS
 62
     5
  5
324
 10
2666.345552
 20
4141.013834
 30
0.0
 11
2691.195552
 21
4141.013834
 31
0.0
  0
CIRCLE
  8
5
  6
CONTINUOUS
 62
     3
  5
325
 10
2666.350051
 20
3878.513834
 30
0.0
 40
7.5
  0
LINE
  8
1
  6
CONTINUOUS
 62
     7
  5
326
 10
2033.70036
 20
4008.513834
 30
0.0
 11
1993.70036
 21
4008.513834
 31
0.0
  0
LINE
  8
1
  6
CONTINUOUS
 62
     2
  5
327
 10
2010.492496
 20
4078.513834
 30
0.0
 11
1996.35036
 21
4092.65597
 31
0.0
  0
LINE
  8
1
  6
CONTINUOUS
 62
     2
  5
328
 10
2021.35036
 20
4081.798106
 30
0.0
 11
1996.35036
 21
4106.798106
 31
0.0
  0
LINE
  8
1
  6
CONTINUOUS
 62
     2
  5
329
 10
2021.35036
 20
4095.940241
 30
0.0
 11
1996.35036
 21
4120.940241
 31
0.0
  0
LINE
  8
1
  6
CONTINUOUS
 62
     2
  5
32A
 10
2021.35036
 20
4110.082377
 30
0.0
 11
1996.35036
 21
4135.082377
 31
0.0
  0
LINE
  8
1
  6
CONTINUOUS
 62
     2
  5
32B
 10
2021.35036
 20
4124.224512
 30
0.0
 11
2004.561039
 21
4141.013834
 31
0.0
  0
LINE
  8
1
  6
CONTINUOUS
 62
     2
  5
32C
 10
2021.35036
 20
4138.366648
 30
0.0
 11
2018.703174
 21
4141.013834
 31
0.0
  0
LINE
  8
3
  6
CONTINUOUS
 62
     6
  5
32D
 10
2074.200351
 20
4029.01385
 30
0.0
 11
2024.35036
 21
4029.01385
 31
0.0
  0
LINE
  8
3
  6
CONTINUOUS
 62
     6
  5
32E
 10
2074.200351
 20
4050.013846
 30
0.0
 11
2024.35036
 21
4050.013846
 31
0.0
  0
LINE
  8
3
  6
CONTINUOUS
 62
     6
  5
32F
 10
2035.350358
 20
4050.013846
 30
0.0
 11
2035.350358
 21
4029.01385
 31
0.0
  0
LINE
  8
3
  6
CONTINUOUS
 62
     6
  5
330
 10
2311.700212
 20
4056.013845
 30
0.0
 11
2021.35036
 21
4056.013845
 31
0.0
  0
LINE
  8
3
  6
CONTINUOUS
 62
     6
  5
331
 10
2036.350358
 20
4056.013845
 30
0.0
 11
2021.35036
 21
4056.013845
 31
0.0
  0
LINE
  8
2
  6
CONTINUOUS
 62
     5
  5
332
 10
1993.70036
 20
4008.513834
 30
0.0
 11
1993.70036
 21
4113.513834
 31
0.0
  0
LINE
  8
1
  6
CONTINUOUS
 62
     5
  5
333
 10
1996.35036
 20
4141.013834
 30
0.0
 11
1996.35036
 21
4078.513834
 31
0.0
  0
LINE
  8
10
  6
CENTER
 62
     3
  5
334
 10
2013.706628
 20
4145.104097
 30
0.0
 11
2013.706628
 21
4064.970127
 31
0.0
  0
LINE
  8
6
  6
CONTINUOUS
 62
     3
  5
335
 10
1993.981798
 20
4113.513834
 30
0.0
 11
1993.981798
 21
4141.013834
 31
0.0
  0
LINE
  8
1
  6
CONTINUOUS
 62
     5
  5
336
 10
1996.35036
 20
4141.013834
 30
0.0
 11
2021.35036
 21
4141.013834
 31
0.0
  0
CIRCLE
  8
5
  6
CONTINUOUS
 62
     3
  5
337
 10
2021.35036
 20
3878.513834
 30
0.0
 40
7.5
  0
LINE
  8
3
  6
CONTINUOUS
 62
     6
  5
338
 10
2021.35036
 20
4141.013834
 30
0.0
 11
2666.350051
 21
4141.013834
 31
0.0
  0
LINE
  8
5
  6
CONTINUOUS
 62
     3
  5
339
 10
2666.350051
 20
3878.513834
 30
0.0
 11
2666.350051
 21
3978.513834
 31
0.0
  0
LINE
  8
5
  6
CONTINUOUS
 62
     3
  5
33A
 10
2021.35036
 20
3878.513834
 30
0.0
 11
2021.35036
 21
3978.513834
 31
0.0
  0
LINE
  8
40
  6
DOT
 62
     3
  5
33B
 10
1886.0394
 20
4862.429521
 30
0.0
 11
1901.03942
 21
4862.429521
 31
0.0
  0
LINE
  8
40
  6
DOT
 62
     3
  5
33C
 10
1886.0394
 20
4862.429521
 30
0.0
 11
1886.0394
 21
4868.429641
 31
0.0
  0
LINE
  8
40
  6
DOT
 62
     3
  5
33D
 10
1901.03942
 20
4862.429521
 30
0.0
 11
1901.03942
 21
4868.429641
 31
0.0
  0
LINE
  8
40
  6
CONTINUOUS
 62
     4
  5
33E
 10
2357.85046
 20
4868.429501
 30
0.0
 11
1729.85036
 21
4868.429501
 31
0.0
  0
LINE
  8
40
  6
CONTINUOUS
 62
     4
  5
33F
 10
1907.53948
 20
4868.429501
 30
0.0
 11
1907.53948
 21
4891.013834
 31
0.0
  0
LINE
  8
40
  6
CONTINUOUS
 62
     4
  5
340
 10
1879.53948
 20
4868.429501
 30
0.0
 11
1879.53948
 21
4891.013834
 31
0.0
  0
LINE
  8
40
  6
CONTINUOUS
 62
     4
  5
341
 10
1907.53948
 20
4895.644451
 30
0.0
 11
1907.53948
 21
4868.429641
 31
0.0
  0
LINE
  8
40
  6
CONTINUOUS
 62
     4
  5
342
 10
1879.53948
 20
4895.553451
 30
0.0
 11
1879.53948
 21
4868.429641
 31
0.0
  0
LINE
  8
40
  6
CONTINUOUS
 62
     4
  5
343
 10
1907.53948
 20
4868.429641
 30
0.0
 11
1879.53948
 21
4868.429641
 31
0.0
  0
LINE
  8
40
  6
CONTINUOUS
 62
     4
  5
344
 10
1879.53948
 20
4868.429641
 30
0.0
 11
1907.53948
 21
4868.429641
 31
0.0
  0
LINE
  8
40
  6
CONTINUOUS
 62
     4
  5
345
 10
1909.00038
 20
4898.429751
 30
0.0
 11
1878.17784
 21
4898.429751
 31
0.0
  0
LINE
  8
40
  6
CONTINUOUS
 62
     4
  5
346
 10
1871.9344
 20
4900.429721
 30
0.0
 11
1915.2154
 21
4900.429721
 31
0.0
  0
LINE
  8
40
  6
CONTINUOUS
 62
     4
  5
347
 10
1848.53956
 20
4918.429731
 30
0.0
 11
1848.53956
 21
4907.942821
 31
0.0
  0
LINE
  8
40
  6
CONTINUOUS
 62
     4
  5
348
 10
1938.53954
 20
4918.429731
 30
0.0
 11
1938.53954
 21
4907.914191
 31
0.0
  0
LINE
  8
40
  6
CONTINUOUS
 62
     4
  5
349
 10
1937.79348
 20
4906.429771
 30
0.0
 11
1849.32902
 21
4906.429771
 31
0.0
  0
ARC
  8
40
  6
CONTINUOUS
 62
     4
  5
34A
 10
1850.53946
 20
4908.045511
 30
0.0
 40
2.00004
 50
180.0
 51
255.529705
  0
ARC
  8
40
  6
CONTINUOUS
 62
     4
  5
34B
 10
1936.53782
 20
4908.002461
 30
0.0
 40
2.00004
 50
284.069648
 51
360.0
  0
LINE
  8
1
  6
CONTINUOUS
 62
     4
  5
34C
 10
1861.2286
 20
4925.615791
 30
0.0
 11
1865.22868
 21
4926.310821
 31
0.0
  0
LINE
  8
1
  6
CONTINUOUS
 62
     4
  5
34D
 10
1861.2286
 20
4928.652111
 30
0.0
 11
1865.22868
 21
4929.361351
 31
0.0
  0
LINE
  8
1
  6
CONTINUOUS
 62
     4
  5
34E
 10
1861.2286
 20
4931.705231
 30
0.0
 11
1865.22868
 21
4932.414471
 31
0.0
  0
LINE
  8
1
  6
CONTINUOUS
 62
     4
  5
34F
 10
1861.2286
 20
4934.758351
 30
0.0
 11
1865.22868
 21
4935.467521
 31
0.0
  0
LINE
  8
1
  6
CONTINUOUS
 62
     4
  5
350
 10
1861.2286
 20
4937.808811
 30
0.0
 11
1865.22868
 21
4938.503771
 31
0.0
  0
LINE
  8
1
  6
CONTINUOUS
 62
     4
  5
351
 10
1861.2286
 20
4940.844921
 30
0.0
 11
1865.22868
 21
4941.554161
 31
0.0
  0
LINE
  8
1
  6
CONTINUOUS
 62
     4
  5
352
 10
1864.83346
 20
4924.720631
 30
0.0
 11
1861.62382
 21
4924.153001
 31
0.0
  0
LINE
  8
1
  6
CONTINUOUS
 62
     4
  5
353
 10
1864.83346
 20
4927.754081
 30
0.0
 11
1861.62382
 21
4927.186521
 31
0.0
  0
LINE
  8
1
  6
CONTINUOUS
 62
     4
  5
354
 10
1864.83346
 20
4930.807201
 30
0.0
 11
1861.62382
 21
4930.239641
 31
0.0
  0
LINE
  8
1
  6
CONTINUOUS
 62
     4
  5
355
 10
1864.83346
 20
4933.860321
 30
0.0
 11
1861.62382
 21
4933.292831
 31
0.0
  0
LINE
  8
1
  6
CONTINUOUS
 62
     4
  5
356
 10
1864.83346
 20
4936.913511
 30
0.0
 11
1861.62382
 21
4936.345951
 31
0.0
  0
LINE
  8
1
  6
CONTINUOUS
 62
     4
  5
357
 10
1864.83346
 20
4939.947031
 30
0.0
 11
1861.62382
 21
4939.379471
 31
0.0
  0
LINE
  8
1
  6
CONTINUOUS
 62
     4
  5
358
 10
1864.83346
 20
4943.000151
 30
0.0
 11
1861.62382
 21
4942.432521
 31
0.0
  0
LINE
  8
1
  6
CONTINUOUS
 62
     4
  5
359
 10
1861.2286
 20
4922.564421
 30
0.0
 11
1865.22868
 21
4923.268621
 31
0.0
  0
LINE
  8
1
  6
CONTINUOUS
 62
     4
  5
35A
 10
1863.22864
 20
4912.429751
 30
0.0
 11
1858.97866
 21
4912.429751
 31
0.0
  0
LINE
  8
1
  6
CONTINUOUS
 62
     4
  5
35B
 10
1861.2286
 20
4916.517891
 30
0.0
 11
1865.22868
 21
4917.227131
 31
0.0
  0
LINE
  8
1
  6
CONTINUOUS
 62
     4
  5
35C
 10
1861.2286
 20
4919.531741
 30
0.0
 11
1865.22868
 21
4920.240981
 31
0.0
  0
LINE
  8
1
  6
CONTINUOUS
 62
     4
  5
35D
 10
1864.83346
 20
4915.639461
 30
0.0
 11
1861.62382
 21
4915.071901
 31
0.0
  0
LINE
  8
1
  6
CONTINUOUS
 62
     4
  5
35E
 10
1864.83346
 20
4918.653381
 30
0.0
 11
1861.62382
 21
4918.085821
 31
0.0
  0
LINE
  8
1
  6
CONTINUOUS
 62
     4
  5
35F
 10
1864.83346
 20
4921.686971
 30
0.0
 11
1861.62382
 21
4921.119411
 31
0.0
  0
LINE
  8
1
  6
CONTINUOUS
 62
     4
  5
360
 10
1860.62562
 20
4912.429751
 30
0.0
 11
1861.82864
 21
4913.632701
 31
0.0
  0
LINE
  8
1
  6
CONTINUOUS
 62
     4
  5
361
 10
1860.62562
 20
4912.429751
 30
0.0
 11
1858.97866
 21
4912.429751
 31
0.0
  0
LINE
  8
1
  6
CONTINUOUS
 62
     4
  5
362
 10
1865.83166
 20
4912.429751
 30
0.0
 11
1864.62864
 21
4913.632701
 31
0.0
  0
LINE
  8
1
  6
CONTINUOUS
 62
     4
  5
363
 10
1865.83166
 20
4912.429751
 30
0.0
 11
1867.47862
 21
4912.429751
 31
0.0
  0
LINE
  8
1
  6
CONTINUOUS
 62
     4
  5
364
 10
1864.83346
 20
4914.112901
 30
0.0
 11
1861.62382
 21
4913.545411
 31
0.0
  0
LINE
  8
1
  6
CONTINUOUS
 62
     4
  5
365
 10
1862.62188
 20
4908.938711
 30
0.0
 11
1863.8354
 21
4908.938711
 31
0.0
  0
LINE
  8
1
  6
CONTINUOUS
 62
     4
  5
366
 10
1862.62188
 20
4908.429741
 30
0.0
 11
1862.62188
 21
4908.938711
 31
0.0
  0
LINE
  8
1
  6
CONTINUOUS
 62
     4
  5
367
 10
1863.8354
 20
4908.429741
 30
0.0
 11
1863.8354
 21
4908.938711
 31
0.0
  0
LINE
  8
1
  6
CONTINUOUS
 62
     4
  5
368
 10
1862.62188
 20
4908.429741
 30
0.0
 11
1863.8354
 21
4908.429741
 31
0.0
  0
LINE
  8
1
  6
CONTINUOUS
 62
     4
  5
369
 10
1861.2286
 20
4943.898041
 30
0.0
 11
1865.22868
 21
4944.607281
 31
0.0
  0
LINE
  8
1
  6
CONTINUOUS
 62
     4
  5
36A
 10
1864.61996
 20
4947.552461
 30
0.0
 11
1861.73498
 21
4947.040901
 31
0.0
  0
LINE
  8
1
  6
CONTINUOUS
 62
     4
  5
36B
 10
1864.83346
 20
4946.053201
 30
0.0
 11
1861.62382
 21
4945.485641
 31
0.0
  0
LINE
  8
1
  6
CONTINUOUS
 62
     4
  5
36C
 10
1864.32708
 20
4949.016721
 30
0.0
 11
1862.0497
 21
4948.614081
 31
0.0
  0
LINE
  8
1
  6
CONTINUOUS
 62
     4
  5
36D
 10
1921.85042
 20
4925.615791
 30
0.0
 11
1925.85036
 21
4926.310821
 31
0.0
  0
LINE
  8
1
  6
CONTINUOUS
 62
     4
  5
36E
 10
1921.85042
 20
4928.652111
 30
0.0
 11
1925.85036
 21
4929.361351
 31
0.0
  0
LINE
  8
1
  6
CONTINUOUS
 62
     4
  5
36F
 10
1921.85042
 20
4931.705231
 30
0.0
 11
1925.85036
 21
4932.414471
 31
0.0
  0
LINE
  8
1
  6
CONTINUOUS
 62
     4
  5
370
 10
1921.85042
 20
4934.758351
 30
0.0
 11
1925.85036
 21
4935.467521
 31
0.0
  0
LINE
  8
1
  6
CONTINUOUS
 62
     4
  5
371
 10
1921.85042
 20
4937.808811
 30
0.0
 11
1925.85036
 21
4938.503771
 31
0.0
  0
LINE
  8
1
  6
CONTINUOUS
 62
     4
  5
372
 10
1921.85042
 20
4940.844921
 30
0.0
 11
1925.85036
 21
4941.554161
 31
0.0
  0
LINE
  8
1
  6
CONTINUOUS
 62
     4
  5
373
 10
1925.45528
 20
4924.720631
 30
0.0
 11
1922.2455
 21
4924.153001
 31
0.0
  0
LINE
  8
1
  6
CONTINUOUS
 62
     4
  5
374
 10
1925.45528
 20
4927.754081
 30
0.0
 11
1922.2455
 21
4927.186521
 31
0.0
  0
LINE
  8
1
  6
CONTINUOUS
 62
     4
  5
375
 10
1925.45528
 20
4930.807201
 30
0.0
 11
1922.2455
 21
4930.239641
 31
0.0
  0
LINE
  8
1
  6
CONTINUOUS
 62
     4
  5
376
 10
1925.45528
 20
4933.860321
 30
0.0
 11
1922.2455
 21
4933.292831
 31
0.0
  0
LINE
  8
1
  6
CONTINUOUS
 62
     4
  5
377
 10
1925.45528
 20
4936.913511
 30
0.0
 11
1922.2455
 21
4936.345951
 31
0.0
  0
LINE
  8
1
  6
CONTINUOUS
 62
     4
  5
378
 10
1925.45528
 20
4939.947031
 30
0.0
 11
1922.2455
 21
4939.379471
 31
0.0
  0
LINE
  8
1
  6
CONTINUOUS
 62
     4
  5
379
 10
1925.45528
 20
4943.000151
 30
0.0
 11
1922.2455
 21
4942.432521
 31
0.0
  0
LINE
  8
1
  6
CONTINUOUS
 62
     4
  5
37A
 10
1921.85042
 20
4922.564421
 30
0.0
 11
1925.85036
 21
4923.268621
 31
0.0
  0
LINE
  8
1
  6
CONTINUOUS
 62
     4
  5
37B
 10
1923.85046
 20
4912.429751
 30
0.0
 11
1919.60034
 21
4912.429751
 31
0.0
  0
LINE
  8
1
  6
CONTINUOUS
 62
     4
  5
37C
 10
1921.85042
 20
4916.517891
 30
0.0
 11
1925.85036
 21
4917.227131
 31
0.0
  0
LINE
  8
1
  6
CONTINUOUS
 62
     4
  5
37D
 10
1921.85042
 20
4919.531741
 30
0.0
 11
1925.85036
 21
4920.240981
 31
0.0
  0
LINE
  8
1
  6
CONTINUOUS
 62
     4
  5
37E
 10
1925.45528
 20
4915.639461
 30
0.0
 11
1922.2455
 21
4915.071901
 31
0.0
  0
LINE
  8
1
  6
CONTINUOUS
 62
     4
  5
37F
 10
1925.45528
 20
4918.653381
 30
0.0
 11
1922.2455
 21
4918.085821
 31
0.0
  0
LINE
  8
1
  6
CONTINUOUS
 62
     4
  5
380
 10
1925.45528
 20
4921.686971
 30
0.0
 11
1922.2455
 21
4921.119411
 31
0.0
  0
LINE
  8
1
  6
CONTINUOUS
 62
     4
  5
381
 10
1921.24744
 20
4912.429751
 30
0.0
 11
1922.45046
 21
4913.632701
 31
0.0
  0
LINE
  8
1
  6
CONTINUOUS
 62
     4
  5
382
 10
1921.24744
 20
4912.429751
 30
0.0
 11
1919.60034
 21
4912.429751
 31
0.0
  0
LINE
  8
1
  6
CONTINUOUS
 62
     4
  5
383
 10
1926.45334
 20
4912.429751
 30
0.0
 11
1925.25046
 21
4913.632701
 31
0.0
  0
LINE
  8
1
  6
CONTINUOUS
 62
     4
  5
384
 10
1926.45334
 20
4912.429751
 30
0.0
 11
1928.10044
 21
4912.429751
 31
0.0
  0
LINE
  8
1
  6
CONTINUOUS
 62
     4
  5
385
 10
1925.45528
 20
4914.112901
 30
0.0
 11
1922.2455
 21
4913.545411
 31
0.0
  0
LINE
  8
1
  6
CONTINUOUS
 62
     4
  5
386
 10
1923.2437
 20
4908.938711
 30
0.0
 11
1924.45708
 21
4908.938711
 31
0.0
  0
LINE
  8
1
  6
CONTINUOUS
 62
     4
  5
387
 10
1923.2437
 20
4908.429741
 30
0.0
 11
1923.2437
 21
4908.938711
 31
0.0
  0
LINE
  8
1
  6
CONTINUOUS
 62
     4
  5
388
 10
1924.45708
 20
4908.429741
 30
0.0
 11
1924.45708
 21
4908.938711
 31
0.0
  0
LINE
  8
1
  6
CONTINUOUS
 62
     4
  5
389
 10
1923.2437
 20
4908.429741
 30
0.0
 11
1924.45708
 21
4908.429741
 31
0.0
  0
LINE
  8
1
  6
CONTINUOUS
 62
     4
  5
38A
 10
1921.85042
 20
4943.898041
 30
0.0
 11
1925.85036
 21
4944.607281
 31
0.0
  0
LINE
  8
1
  6
CONTINUOUS
 62
     4
  5
38B
 10
1925.24164
 20
4947.552461
 30
0.0
 11
1922.3568
 21
4947.040901
 31
0.0
  0
LINE
  8
1
  6
CONTINUOUS
 62
     4
  5
38C
 10
1925.45528
 20
4946.053201
 30
0.0
 11
1922.2455
 21
4945.485641
 31
0.0
  0
LINE
  8
1
  6
CONTINUOUS
 62
     4
  5
38D
 10
1924.9489
 20
4949.016721
 30
0.0
 11
1922.67138
 21
4948.614081
 31
0.0
  0
LINE
  8
40
  6
CONTINUOUS
 62
     4
  5
38E
 10
1938.51448
 20
4918.429731
 30
0.0
 11
1938.51448
 21
4907.914191
 31
0.0
  0
LINE
  8
40
  6
CONTINUOUS
 62
     4
  5
38F
 10
1936.0145
 20
4905.797251
 30
0.0
 11
1936.0145
 21
4913.429771
 31
0.0
  0
LINE
  8
40
  6
CONTINUOUS
 62
     4
  5
390
 10
1875.80946
 20
4899.429771
 30
0.0
 11
1911.34048
 21
4899.429771
 31
0.0
  0
LINE
  8
40
  6
CONTINUOUS
 62
     4
  5
391
 10
1879.53948
 20
4898.429751
 30
0.0
 11
1907.53948
 21
4898.429751
 31
0.0
  0
LINE
  8
40
  6
CONTINUOUS
 62
     4
  5
392
 10
1908.12384
 20
4897.429731
 30
0.0
 11
1879.02344
 21
4897.429731
 31
0.0
  0
LINE
  8
40
  6
CONTINUOUS
 62
     4
  5
393
 10
1907.6855
 20
4896.429641
 30
0.0
 11
1879.42034
 21
4896.429641
 31
0.0
  0
LINE
  8
12
  6
CONTINUOUS
 62
     4
  5
394
 10
1916.92648
 20
4913.429771
 30
0.0
 11
1938.53954
 21
4913.429771
 31
0.0
  0
LINE
  8
12
  6
CONTINUOUS
 62
     4
  5
395
 10
1851.03954
 20
4905.822031
 30
0.0
 11
1851.03954
 21
4913.429771
 31
0.0
  0
LINE
  8
12
  6
CONTINUOUS
 62
     4
  5
396
 10
1871.8889
 20
4900.441551
 30
0.0
 11
1871.8889
 21
4900.412011
 31
0.0
  0
LINE
  8
12
  6
CONTINUOUS
 62
     4
  5
397
 10
1870.17096
 20
4900.884791
 30
0.0
 11
1870.17096
 21
4913.429771
 31
0.0
  0
LINE
  8
12
  6
CONTINUOUS
 62
     4
  5
398
 10
1871.88274
 20
4900.537031
 30
0.0
 11
1870.25804
 21
4913.535051
 31
0.0
  0
LINE
  8
12
  6
CONTINUOUS
 62
     4
  5
399
 10
1915.20868
 20
4900.336131
 30
0.0
 11
1915.20868
 21
4900.306661
 31
0.0
  0
LINE
  8
12
  6
CONTINUOUS
 62
     4
  5
39A
 10
1916.92648
 20
4900.779441
 30
0.0
 11
1916.92648
 21
4913.324491
 31
0.0
  0
LINE
  8
12
  6
CONTINUOUS
 62
     4
  5
39B
 10
1915.21484
 20
4900.431751
 30
0.0
 11
1916.83954
 21
4913.429771
 31
0.0
  0
LINE
  8
12
  6
CONTINUOUS
 62
     4
  5
39C
 10
1870.2712
 20
4913.429771
 30
0.0
 11
1851.03954
 21
4913.429771
 31
0.0
  0
LINE
  8
12
  6
CONTINUOUS
 62
     4
  5
39D
 10
1870.2712
 20
4912.429751
 30
0.0
 11
1851.03954
 21
4912.429751
 31
0.0
  0
LINE
  8
12
  6
CONTINUOUS
 62
     4
  5
39E
 10
1916.92648
 20
4912.429751
 30
0.0
 11
1938.53954
 21
4912.429751
 31
0.0
  0
LINE
  8
12
  6
CONTINUOUS
 62
     4
  5
39F
 10
1867.47862
 20
4912.429751
 30
0.0
 11
1858.97866
 21
4912.429751
 31
0.0
  0
LINE
  8
12
  6
CONTINUOUS
 62
     4
  5
3A0
 10
1858.97866
 20
4912.429751
 30
0.0
 11
1858.97866
 21
4909.429761
 31
0.0
  0
LINE
  8
12
  6
CONTINUOUS
 62
     4
  5
3A1
 10
1867.47862
 20
4912.429751
 30
0.0
 11
1867.47862
 21
4909.429761
 31
0.0
  0
LINE
  8
12
  6
CONTINUOUS
 62
     4
  5
3A2
 10
1867.47862
 20
4909.429761
 30
0.0
 11
1867.47862
 21
4912.429751
 31
0.0
  0
LINE
  8
12
  6
CONTINUOUS
 62
     4
  5
3A3
 10
1858.97866
 20
4909.429761
 30
0.0
 11
1858.97866
 21
4912.429751
 31
0.0
  0
LINE
  8
12
  6
CONTINUOUS
 62
     4
  5
3A4
 10
1858.97866
 20
4909.429761
 30
0.0
 11
1867.47862
 21
4909.429761
 31
0.0
  0
ARC
  8
12
  6
CONTINUOUS
 62
     4
  5
3A5
 10
1863.22864
 20
4917.961011
 30
0.0
 40
9.53134
 50
243.51896
 51
296.48104
  0
LINE
  8
12
  6
CONTINUOUS
 62
     4
  5
3A6
 10
1864.62864
 20
4912.429751
 30
0.0
 11
1864.62864
 21
4943.429741
 31
0.0
  0
LINE
  8
12
  6
CONTINUOUS
 62
     4
  5
3A7
 10
1861.82864
 20
4912.429751
 30
0.0
 11
1861.82864
 21
4943.429741
 31
0.0
  0
LINE
  8
12
  6
CONTINUOUS
 62
     4
  5
3A8
 10
1864.62864
 20
4943.429741
 30
0.0
 11
1861.82864
 21
4943.429741
 31
0.0
  0
LINE
  8
12
  6
CONTINUOUS
 62
     4
  5
3A9
 10
1863.22864
 20
4950.429741
 30
0.0
 11
1861.82864
 21
4943.429741
 31
0.0
  0
LINE
  8
12
  6
CONTINUOUS
 62
     4
  5
3AA
 10
1863.22864
 20
4950.429741
 30
0.0
 11
1864.62864
 21
4943.429741
 31
0.0
  0
LINE
  8
12
  6
CENTER
 62
     4
  5
3AB
 10
1863.22864
 20
4909.429761
 30
0.0
 11
1863.22864
 21
4950.429741
 31
0.0
  0
LINE
  8
12
  6
CENTER
 62
     4
  5
3AC
 10
1863.22864
 20
4950.429741
 30
0.0
 11
1863.22864
 21
4910.922721
 31
0.0
  0
LINE
  8
12
  6
CONTINUOUS
 62
     4
  5
3AD
 10
1928.10044
 20
4912.429751
 30
0.0
 11
1919.60034
 21
4912.429751
 31
0.0
  0
LINE
  8
12
  6
CONTINUOUS
 62
     4
  5
3AE
 10
1919.60034
 20
4912.429751
 30
0.0
 11
1919.60034
 21
4909.429761
 31
0.0
  0
LINE
  8
12
  6
CONTINUOUS
 62
     4
  5
3AF
 10
1928.10044
 20
4912.429751
 30
0.0
 11
1928.10044
 21
4909.429761
 31
0.0
  0
LINE
  8
12
  6
CONTINUOUS
 62
     4
  5
3B0
 10
1928.10044
 20
4909.429761
 30
0.0
 11
1928.10044
 21
4912.429751
 31
0.0
  0
LINE
  8
12
  6
CONTINUOUS
 62
     4
  5
3B1
 10
1919.60034
 20
4909.429761
 30
0.0
 11
1919.60034
 21
4912.429751
 31
0.0
  0
LINE
  8
12
  6
CONTINUOUS
 62
     4
  5
3B2
 10
1919.60034
 20
4909.429761
 30
0.0
 11
1928.10044
 21
4909.429761
 31
0.0
  0
ARC
  8
12
  6
CONTINUOUS
 62
     4
  5
3B3
 10
1923.85046
 20
4917.961011
 30
0.0
 40
9.53134
 50
243.51896
 51
296.48104
  0
LINE
  8
12
  6
CONTINUOUS
 62
     4
  5
3B4
 10
1925.25046
 20
4912.429751
 30
0.0
 11
1925.25046
 21
4943.429741
 31
0.0
  0
LINE
  8
12
  6
CONTINUOUS
 62
     4
  5
3B5
 10
1922.45046
 20
4912.429751
 30
0.0
 11
1922.45046
 21
4943.429741
 31
0.0
  0
LINE
  8
12
  6
CONTINUOUS
 62
     4
  5
3B6
 10
1925.25046
 20
4943.429741
 30
0.0
 11
1922.45046
 21
4943.429741
 31
0.0
  0
LINE
  8
12
  6
CONTINUOUS
 62
     4
  5
3B7
 10
1923.85046
 20
4950.429741
 30
0.0
 11
1922.45046
 21
4943.429741
 31
0.0
  0
LINE
  8
12
  6
CONTINUOUS
 62
     4
  5
3B8
 10
1923.85046
 20
4950.429741
 30
0.0
 11
1925.25046
 21
4943.429741
 31
0.0
  0
LINE
  8
12
  6
CENTER
 62
     4
  5
3B9
 10
1923.85046
 20
4909.429761
 30
0.0
 11
1923.85046
 21
4950.429741
 31
0.0
  0
LINE
  8
12
  6
CENTER
 62
     4
  5
3BA
 10
1923.85046
 20
4950.429741
 30
0.0
 11
1923.85046
 21
4910.922721
 31
0.0
  0
LINE
  8
12
  6
CONTINUOUS
 62
     4
  5
3BB
 10
1868.93714
 20
4912.676991
 30
0.0
 11
1857.43712
 21
4912.676991
 31
0.0
  0
LINE
  8
12
  6
CONTINUOUS
 62
     4
  5
3BC
 10
1868.93714
 20
4913.476881
 30
0.0
 11
1857.43712
 21
4913.476881
 31
0.0
  0
LINE
  8
12
  6
CONTINUOUS
 62
     4
  5
3BD
 10
1868.93714
 20
4912.676991
 30
0.0
 11
1868.93714
 21
4913.476881
 31
0.0
  0
LINE
  8
12
  6
CONTINUOUS
 62
     4
  5
3BE
 10
1865.93722
 20
4912.676991
 30
0.0
 11
1865.93722
 21
4913.476881
 31
0.0
  0
LINE
  8
12
  6
CONTINUOUS
 62
     4
  5
3BF
 10
1860.43718
 20
4912.676991
 30
0.0
 11
1860.43718
 21
4913.476881
 31
0.0
  0
LINE
  8
12
  6
CONTINUOUS
 62
     4
  5
3C0
 10
1857.43712
 20
4912.676991
 30
0.0
 11
1857.43712
 21
4913.476881
 31
0.0
  0
LINE
  8
12
  6
CONTINUOUS
 62
     4
  5
3C1
 10
1929.55532
 20
4912.676991
 30
0.0
 11
1918.0553
 21
4912.676991
 31
0.0
  0
LINE
  8
12
  6
CONTINUOUS
 62
     4
  5
3C2
 10
1929.55532
 20
4913.476881
 30
0.0
 11
1918.0553
 21
4913.476881
 31
0.0
  0
LINE
  8
12
  6
CONTINUOUS
 62
     4
  5
3C3
 10
1929.55532
 20
4912.676991
 30
0.0
 11
1929.55532
 21
4913.476881
 31
0.0
  0
LINE
  8
12
  6
CONTINUOUS
 62
     4
  5
3C4
 10
1926.55526
 20
4912.676991
 30
0.0
 11
1926.55526
 21
4913.476881
 31
0.0
  0
LINE
  8
12
  6
CONTINUOUS
 62
     4
  5
3C5
 10
1921.05522
 20
4912.676991
 30
0.0
 11
1921.05522
 21
4913.476881
 31
0.0
  0
LINE
  8
12
  6
CONTINUOUS
 62
     4
  5
3C6
 10
1918.0553
 20
4912.676991
 30
0.0
 11
1918.0553
 21
4913.476881
 31
0.0
  0
LINE
  8
8
  6
CONTINUOUS
 62
     4
  5
3C7
 10
1910.53996
 20
4899.223131
 30
0.0
 11
1937.03552
 21
4906.060661
 31
0.0
  0
LINE
  8
8
  6
CONTINUOUS
 62
     4
  5
3C8
 10
1876.72772
 20
4899.192681
 30
0.0
 11
1849.99668
 21
4906.091041
 31
0.0
  0
ARC
  8
8
  6
CONTINUOUS
 62
     4
  5
3C9
 10
1875.57174
 20
4895.393781
 30
0.0
 40
4.00008
 50
360.0
 51
75.529706
  0
LINE
  8
50
  6
CENTER
 62
     4
  5
3CA
 10
1863.1872
 20
4912.676991
 30
0.0
 11
1863.1872
 21
4914.798971
 31
0.0
  0
LINE
  8
50
  6
CENTER
 62
     4
  5
3CB
 10
1923.80524
 20
4912.676991
 30
0.0
 11
1923.80524
 21
4914.798971
 31
0.0
  0
ARC
  8
8
  6
CONTINUOUS
 62
     4
  5
3CC
 10
1911.53396
 20
4895.342891
 30
0.0
 40
4.00008
 50
104.470294
 51
180.0
  0
LINE
  8
40
  6
CONTINUOUS
 62
     4
  5
3CD
 10
2357.85046
 20
4868.429501
 30
0.0
 11
2357.85046
 21
4856.429481
 31
0.0
  0
ARC
  8
40
  6
CONTINUOUS
 62
     4
  5
3CE
 10
2347.85046
 20
4856.429481
 30
0.0
 40
10.0
 50
270.0
 51
360.0
  0
LINE
  8
40
  6
CONTINUOUS
 62
     4
  5
3CF
 10
2347.85046
 20
4846.429481
 30
0.0
 11
1739.85036
 21
4846.429481
 31
0.0
  0
ARC
  8
40
  6
CONTINUOUS
 62
     4
  5
3D0
 10
1739.85036
 20
4856.429481
 30
0.0
 40
10.0
 50
180.0
 51
270.0
  0
LINE
  8
40
  6
CONTINUOUS
 62
     4
  5
3D1
 10
1729.85036
 20
4868.429501
 30
0.0
 11
1729.85036
 21
4856.429481
 31
0.0
  0
LINE
  8
40
  6
DOT
 62
     3
  5
3D2
 10
2186.03952
 20
4862.429521
 30
0.0
 11
2201.03954
 21
4862.429521
 31
0.0
  0
LINE
  8
40
  6
DOT
 62
     3
  5
3D3
 10
2186.03952
 20
4862.429521
 30
0.0
 11
2186.03952
 21
4868.429641
 31
0.0
  0
LINE
  8
40
  6
DOT
 62
     3
  5
3D4
 10
2201.03954
 20
4862.429521
 30
0.0
 11
2201.03954
 21
4868.429641
 31
0.0
  0
LINE
  8
40
  6
CONTINUOUS
 62
     4
  5
3D5
 10
2207.53946
 20
4868.429501
 30
0.0
 11
2207.53946
 21
4891.013834
 31
0.0
  0
LINE
  8
40
  6
CONTINUOUS
 62
     4
  5
3D6
 10
2179.53946
 20
4868.429501
 30
0.0
 11
2179.53946
 21
4891.013834
 31
0.0
  0
LINE
  8
40
  6
CONTINUOUS
 62
     4
  5
3D7
 10
2207.53946
 20
4868.429641
 30
0.0
 11
2179.53946
 21
4868.429641
 31
0.0
  0
LINE
  8
40
  6
CONTINUOUS
 62
     4
  5
3D8
 10
2209.00036
 20
4898.429751
 30
0.0
 11
2178.17782
 21
4898.429751
 31
0.0
  0
LINE
  8
40
  6
CONTINUOUS
 62
     4
  5
3D9
 10
2171.93438
 20
4900.429721
 30
0.0
 11
2215.21538
 21
4900.429721
 31
0.0
  0
LINE
  8
40
  6
CONTINUOUS
 62
     4
  5
3DA
 10
2148.53954
 20
4918.429731
 30
0.0
 11
2148.53954
 21
4907.942821
 31
0.0
  0
LINE
  8
40
  6
CONTINUOUS
 62
     4
  5
3DB
 10
2238.53952
 20
4918.429731
 30
0.0
 11
2238.53952
 21
4907.914191
 31
0.0
  0
LINE
  8
40
  6
CONTINUOUS
 62
     4
  5
3DC
 10
2237.79346
 20
4906.429771
 30
0.0
 11
2149.329
 21
4906.429771
 31
0.0
  0
ARC
  8
40
  6
CONTINUOUS
 62
     4
  5
3DD
 10
2150.53944
 20
4908.045511
 30
0.0
 40
2.00004
 50
180.0
 51
255.529705
  0
ARC
  8
40
  6
CONTINUOUS
 62
     4
  5
3DE
 10
2236.5378
 20
4908.002461
 30
0.0
 40
2.00004
 50
284.069648
 51
360.0
  0
LINE
  8
1
  6
CONTINUOUS
 62
     4
  5
3DF
 10
2161.22858
 20
4925.615791
 30
0.0
 11
2165.22866
 21
4926.310821
 31
0.0
  0
LINE
  8
1
  6
CONTINUOUS
 62
     4
  5
3E0
 10
2161.22858
 20
4928.652111
 30
0.0
 11
2165.22866
 21
4929.361351
 31
0.0
  0
LINE
  8
1
  6
CONTINUOUS
 62
     4
  5
3E1
 10
2161.22858
 20
4931.705231
 30
0.0
 11
2165.22866
 21
4932.414471
 31
0.0
  0
LINE
  8
1
  6
CONTINUOUS
 62
     4
  5
3E2
 10
2161.22858
 20
4934.758351
 30
0.0
 11
2165.22866
 21
4935.467521
 31
0.0
  0
LINE
  8
1
  6
CONTINUOUS
 62
     4
  5
3E3
 10
2161.22858
 20
4937.808811
 30
0.0
 11
2165.22866
 21
4938.503771
 31
0.0
  0
LINE
  8
1
  6
CONTINUOUS
 62
     4
  5
3E4
 10
2161.22858
 20
4940.844921
 30
0.0
 11
2165.22866
 21
4941.554161
 31
0.0
  0
LINE
  8
1
  6
CONTINUOUS
 62
     4
  5
3E5
 10
2164.83344
 20
4924.720631
 30
0.0
 11
2161.6238
 21
4924.153001
 31
0.0
  0
LINE
  8
1
  6
CONTINUOUS
 62
     4
  5
3E6
 10
2164.83344
 20
4927.754081
 30
0.0
 11
2161.6238
 21
4927.186521
 31
0.0
  0
LINE
  8
1
  6
CONTINUOUS
 62
     4
  5
3E7
 10
2164.83344
 20
4930.807201
 30
0.0
 11
2161.6238
 21
4930.239641
 31
0.0
  0
LINE
  8
1
  6
CONTINUOUS
 62
     4
  5
3E8
 10
2164.83344
 20
4933.860321
 30
0.0
 11
2161.6238
 21
4933.292831
 31
0.0
  0
LINE
  8
1
  6
CONTINUOUS
 62
     4
  5
3E9
 10
2164.83344
 20
4936.913511
 30
0.0
 11
2161.6238
 21
4936.345951
 31
0.0
  0
LINE
  8
1
  6
CONTINUOUS
 62
     4
  5
3EA
 10
2164.83344
 20
4939.947031
 30
0.0
 11
2161.6238
 21
4939.379471
 31
0.0
  0
LINE
  8
1
  6
CONTINUOUS
 62
     4
  5
3EB
 10
2164.83344
 20
4943.000151
 30
0.0
 11
2161.6238
 21
4942.432521
 31
0.0
  0
LINE
  8
1
  6
CONTINUOUS
 62
     4
  5
3EC
 10
2161.22858
 20
4922.564421
 30
0.0
 11
2165.22866
 21
4923.268621
 31
0.0
  0
LINE
  8
1
  6
CONTINUOUS
 62
     4
  5
3ED
 10
2163.22862
 20
4912.429751
 30
0.0
 11
2158.97864
 21
4912.429751
 31
0.0
  0
LINE
  8
1
  6
CONTINUOUS
 62
     4
  5
3EE
 10
2161.22858
 20
4916.517891
 30
0.0
 11
2165.22866
 21
4917.227131
 31
0.0
  0
LINE
  8
1
  6
CONTINUOUS
 62
     4
  5
3EF
 10
2161.22858
 20
4919.531741
 30
0.0
 11
2165.22866
 21
4920.240981
 31
0.0
  0
LINE
  8
1
  6
CONTINUOUS
 62
     4
  5
3F0
 10
2164.83344
 20
4915.639461
 30
0.0
 11
2161.6238
 21
4915.071901
 31
0.0
  0
LINE
  8
1
  6
CONTINUOUS
 62
     4
  5
3F1
 10
2164.83344
 20
4918.653381
 30
0.0
 11
2161.6238
 21
4918.085821
 31
0.0
  0
LINE
  8
1
  6
CONTINUOUS
 62
     4
  5
3F2
 10
2164.83344
 20
4921.686971
 30
0.0
 11
2161.6238
 21
4921.119411
 31
0.0
  0
LINE
  8
1
  6
CONTINUOUS
 62
     4
  5
3F3
 10
2160.6256
 20
4912.429751
 30
0.0
 11
2161.82862
 21
4913.632701
 31
0.0
  0
LINE
  8
1
  6
CONTINUOUS
 62
     4
  5
3F4
 10
2160.6256
 20
4912.429751
 30
0.0
 11
2158.97864
 21
4912.429751
 31
0.0
  0
LINE
  8
1
  6
CONTINUOUS
 62
     4
  5
3F5
 10
2165.83164
 20
4912.429751
 30
0.0
 11
2164.62862
 21
4913.632701
 31
0.0
  0
LINE
  8
1
  6
CONTINUOUS
 62
     4
  5
3F6
 10
2165.83164
 20
4912.429751
 30
0.0
 11
2167.4786
 21
4912.429751
 31
0.0
  0
LINE
  8
1
  6
CONTINUOUS
 62
     4
  5
3F7
 10
2164.83344
 20
4914.112901
 30
0.0
 11
2161.6238
 21
4913.545411
 31
0.0
  0
LINE
  8
1
  6
CONTINUOUS
 62
     4
  5
3F8
 10
2162.62186
 20
4908.938711
 30
0.0
 11
2163.83538
 21
4908.938711
 31
0.0
  0
LINE
  8
1
  6
CONTINUOUS
 62
     4
  5
3F9
 10
2162.62186
 20
4908.429741
 30
0.0
 11
2162.62186
 21
4908.938711
 31
0.0
  0
LINE
  8
1
  6
CONTINUOUS
 62
     4
  5
3FA
 10
2163.83538
 20
4908.429741
 30
0.0
 11
2163.83538
 21
4908.938711
 31
0.0
  0
LINE
  8
1
  6
CONTINUOUS
 62
     4
  5
3FB
 10
2162.62186
 20
4908.429741
 30
0.0
 11
2163.83538
 21
4908.429741
 31
0.0
  0
LINE
  8
1
  6
CONTINUOUS
 62
     4
  5
3FC
 10
2161.22858
 20
4943.898041
 30
0.0
 11
2165.22866
 21
4944.607281
 31
0.0
  0
LINE
  8
1
  6
CONTINUOUS
 62
     4
  5
3FD
 10
2164.61994
 20
4947.552461
 30
0.0
 11
2161.73496
 21
4947.040901
 31
0.0
  0
LINE
  8
1
  6
CONTINUOUS
 62
     4
  5
3FE
 10
2164.83344
 20
4946.053201
 30
0.0
 11
2161.6238
 21
4945.485641
 31
0.0
  0
LINE
  8
1
  6
CONTINUOUS
 62
     4
  5
3FF
 10
2164.32706
 20
4949.016721
 30
0.0
 11
2162.04968
 21
4948.614081
 31
0.0
  0
LINE
  8
1
  6
CONTINUOUS
 62
     4
  5
400
 10
2221.8504
 20
4925.615791
 30
0.0
 11
2225.85034
 21
4926.310821
 31
0.0
  0
LINE
  8
1
  6
CONTINUOUS
 62
     4
  5
401
 10
2221.8504
 20
4928.652111
 30
0.0
 11
2225.85034
 21
4929.361351
 31
0.0
  0
LINE
  8
1
  6
CONTINUOUS
 62
     4
  5
402
 10
2221.8504
 20
4931.705231
 30
0.0
 11
2225.85034
 21
4932.414471
 31
0.0
  0
LINE
  8
1
  6
CONTINUOUS
 62
     4
  5
403
 10
2221.8504
 20
4934.758351
 30
0.0
 11
2225.85034
 21
4935.467521
 31
0.0
  0
LINE
  8
1
  6
CONTINUOUS
 62
     4
  5
404
 10
2221.8504
 20
4937.808811
 30
0.0
 11
2225.85034
 21
4938.503771
 31
0.0
  0
LINE
  8
1
  6
CONTINUOUS
 62
     4
  5
405
 10
2221.8504
 20
4940.844921
 30
0.0
 11
2225.85034
 21
4941.554161
 31
0.0
  0
LINE
  8
1
  6
CONTINUOUS
 62
     4
  5
406
 10
2225.45526
 20
4924.720631
 30
0.0
 11
2222.24548
 21
4924.153001
 31
0.0
  0
LINE
  8
1
  6
CONTINUOUS
 62
     4
  5
407
 10
2225.45526
 20
4927.754081
 30
0.0
 11
2222.24548
 21
4927.186521
 31
0.0
  0
LINE
  8
1
  6
CONTINUOUS
 62
     4
  5
408
 10
2225.45526
 20
4930.807201
 30
0.0
 11
2222.24548
 21
4930.239641
 31
0.0
  0
LINE
  8
1
  6
CONTINUOUS
 62
     4
  5
409
 10
2225.45526
 20
4933.860321
 30
0.0
 11
2222.24548
 21
4933.292831
 31
0.0
  0
LINE
  8
1
  6
CONTINUOUS
 62
     4
  5
40A
 10
2225.45526
 20
4936.913511
 30
0.0
 11
2222.24548
 21
4936.345951
 31
0.0
  0
LINE
  8
1
  6
CONTINUOUS
 62
     4
  5
40B
 10
2225.45526
 20
4939.947031
 30
0.0
 11
2222.24548
 21
4939.379471
 31
0.0
  0
LINE
  8
1
  6
CONTINUOUS
 62
     4
  5
40C
 10
2225.45526
 20
4943.000151
 30
0.0
 11
2222.24548
 21
4942.432521
 31
0.0
  0
LINE
  8
1
  6
CONTINUOUS
 62
     4
  5
40D
 10
2221.8504
 20
4922.564421
 30
0.0
 11
2225.85034
 21
4923.268621
 31
0.0
  0
LINE
  8
1
  6
CONTINUOUS
 62
     4
  5
40E
 10
2223.85044
 20
4912.429751
 30
0.0
 11
2219.60032
 21
4912.429751
 31
0.0
  0
LINE
  8
1
  6
CONTINUOUS
 62
     4
  5
40F
 10
2221.8504
 20
4916.517891
 30
0.0
 11
2225.85034
 21
4917.227131
 31
0.0
  0
LINE
  8
1
  6
CONTINUOUS
 62
     4
  5
410
 10
2221.8504
 20
4919.531741
 30
0.0
 11
2225.85034
 21
4920.240981
 31
0.0
  0
LINE
  8
1
  6
CONTINUOUS
 62
     4
  5
411
 10
2225.45526
 20
4915.639461
 30
0.0
 11
2222.24548
 21
4915.071901
 31
0.0
  0
LINE
  8
1
  6
CONTINUOUS
 62
     4
  5
412
 10
2225.45526
 20
4918.653381
 30
0.0
 11
2222.24548
 21
4918.085821
 31
0.0
  0
LINE
  8
1
  6
CONTINUOUS
 62
     4
  5
413
 10
2225.45526
 20
4921.686971
 30
0.0
 11
2222.24548
 21
4921.119411
 31
0.0
  0
LINE
  8
1
  6
CONTINUOUS
 62
     4
  5
414
 10
2221.24742
 20
4912.429751
 30
0.0
 11
2222.45044
 21
4913.632701
 31
0.0
  0
LINE
  8
1
  6
CONTINUOUS
 62
     4
  5
415
 10
2221.24742
 20
4912.429751
 30
0.0
 11
2219.60032
 21
4912.429751
 31
0.0
  0
LINE
  8
1
  6
CONTINUOUS
 62
     4
  5
416
 10
2226.45332
 20
4912.429751
 30
0.0
 11
2225.25044
 21
4913.632701
 31
0.0
  0
LINE
  8
1
  6
CONTINUOUS
 62
     4
  5
417
 10
2226.45332
 20
4912.429751
 30
0.0
 11
2228.10042
 21
4912.429751
 31
0.0
  0
LINE
  8
1
  6
CONTINUOUS
 62
     4
  5
418
 10
2225.45526
 20
4914.112901
 30
0.0
 11
2222.24548
 21
4913.545411
 31
0.0
  0
LINE
  8
1
  6
CONTINUOUS
 62
     4
  5
419
 10
2223.24368
 20
4908.938711
 30
0.0
 11
2224.45706
 21
4908.938711
 31
0.0
  0
LINE
  8
1
  6
CONTINUOUS
 62
     4
  5
41A
 10
2223.24368
 20
4908.429741
 30
0.0
 11
2223.24368
 21
4908.938711
 31
0.0
  0
LINE
  8
1
  6
CONTINUOUS
 62
     4
  5
41B
 10
2224.45706
 20
4908.429741
 30
0.0
 11
2224.45706
 21
4908.938711
 31
0.0
  0
LINE
  8
1
  6
CONTINUOUS
 62
     4
  5
41C
 10
2223.24368
 20
4908.429741
 30
0.0
 11
2224.45706
 21
4908.429741
 31
0.0
  0
LINE
  8
1
  6
CONTINUOUS
 62
     4
  5
41D
 10
2221.8504
 20
4943.898041
 30
0.0
 11
2225.85034
 21
4944.607281
 31
0.0
  0
LINE
  8
1
  6
CONTINUOUS
 62
     4
  5
41E
 10
2225.24162
 20
4947.552461
 30
0.0
 11
2222.35678
 21
4947.040901
 31
0.0
  0
LINE
  8
1
  6
CONTINUOUS
 62
     4
  5
41F
 10
2225.45526
 20
4946.053201
 30
0.0
 11
2222.24548
 21
4945.485641
 31
0.0
  0
LINE
  8
1
  6
CONTINUOUS
 62
     4
  5
420
 10
2224.94888
 20
4949.016721
 30
0.0
 11
2222.67136
 21
4948.614081
 31
0.0
  0
LINE
  8
40
  6
CONTINUOUS
 62
     4
  5
421
 10
2238.51446
 20
4918.429731
 30
0.0
 11
2238.51446
 21
4907.914191
 31
0.0
  0
LINE
  8
40
  6
CONTINUOUS
 62
     4
  5
422
 10
2236.01448
 20
4905.797251
 30
0.0
 11
2236.01448
 21
4913.429771
 31
0.0
  0
LINE
  8
40
  6
CONTINUOUS
 62
     4
  5
423
 10
2175.80944
 20
4899.429771
 30
0.0
 11
2211.34046
 21
4899.429771
 31
0.0
  0
LINE
  8
40
  6
CONTINUOUS
 62
     4
  5
424
 10
2179.53946
 20
4898.429751
 30
0.0
 11
2207.53946
 21
4898.429751
 31
0.0
  0
LINE
  8
40
  6
CONTINUOUS
 62
     4
  5
425
 10
2208.12382
 20
4897.429731
 30
0.0
 11
2179.02342
 21
4897.429731
 31
0.0
  0
LINE
  8
40
  6
CONTINUOUS
 62
     4
  5
426
 10
2207.68548
 20
4896.429641
 30
0.0
 11
2179.42032
 21
4896.429641
 31
0.0
  0
LINE
  8
12
  6
CONTINUOUS
 62
     4
  5
427
 10
2216.92646
 20
4913.429771
 30
0.0
 11
2238.53952
 21
4913.429771
 31
0.0
  0
LINE
  8
12
  6
CONTINUOUS
 62
     4
  5
428
 10
2151.03952
 20
4905.822031
 30
0.0
 11
2151.03952
 21
4913.429771
 31
0.0
  0
LINE
  8
12
  6
CONTINUOUS
 62
     4
  5
429
 10
2171.88888
 20
4900.441551
 30
0.0
 11
2171.88888
 21
4900.412011
 31
0.0
  0
LINE
  8
12
  6
CONTINUOUS
 62
     4
  5
42A
 10
2170.17094
 20
4900.884791
 30
0.0
 11
2170.17094
 21
4913.429771
 31
0.0
  0
LINE
  8
12
  6
CONTINUOUS
 62
     4
  5
42B
 10
2171.88272
 20
4900.537031
 30
0.0
 11
2170.25802
 21
4913.535051
 31
0.0
  0
LINE
  8
12
  6
CONTINUOUS
 62
     4
  5
42C
 10
2215.20866
 20
4900.336131
 30
0.0
 11
2215.20866
 21
4900.306661
 31
0.0
  0
LINE
  8
12
  6
CONTINUOUS
 62
     4
  5
42D
 10
2216.92646
 20
4900.779441
 30
0.0
 11
2216.92646
 21
4913.324491
 31
0.0
  0
LINE
  8
12
  6
CONTINUOUS
 62
     4
  5
42E
 10
2215.21482
 20
4900.431751
 30
0.0
 11
2216.83952
 21
4913.429771
 31
0.0
  0
LINE
  8
12
  6
CONTINUOUS
 62
     4
  5
42F
 10
2170.27118
 20
4913.429771
 30
0.0
 11
2151.03952
 21
4913.429771
 31
0.0
  0
LINE
  8
12
  6
CONTINUOUS
 62
     4
  5
430
 10
2170.27118
 20
4912.429751
 30
0.0
 11
2151.03952
 21
4912.429751
 31
0.0
  0
LINE
  8
12
  6
CONTINUOUS
 62
     4
  5
431
 10
2216.92646
 20
4912.429751
 30
0.0
 11
2238.53952
 21
4912.429751
 31
0.0
  0
LINE
  8
12
  6
CONTINUOUS
 62
     4
  5
432
 10
2167.4786
 20
4912.429751
 30
0.0
 11
2158.97864
 21
4912.429751
 31
0.0
  0
LINE
  8
12
  6
CONTINUOUS
 62
     4
  5
433
 10
2158.97864
 20
4912.429751
 30
0.0
 11
2158.97864
 21
4909.429761
 31
0.0
  0
LINE
  8
12
  6
CONTINUOUS
 62
     4
  5
434
 10
2167.4786
 20
4912.429751
 30
0.0
 11
2167.4786
 21
4909.429761
 31
0.0
  0
LINE
  8
12
  6
CONTINUOUS
 62
     4
  5
435
 10
2167.4786
 20
4909.429761
 30
0.0
 11
2167.4786
 21
4912.429751
 31
0.0
  0
LINE
  8
12
  6
CONTINUOUS
 62
     4
  5
436
 10
2158.97864
 20
4909.429761
 30
0.0
 11
2158.97864
 21
4912.429751
 31
0.0
  0
LINE
  8
12
  6
CONTINUOUS
 62
     4
  5
437
 10
2158.97864
 20
4909.429761
 30
0.0
 11
2167.4786
 21
4909.429761
 31
0.0
  0
ARC
  8
12
  6
CONTINUOUS
 62
     4
  5
438
 10
2163.22862
 20
4917.961011
 30
0.0
 40
9.53134
 50
243.51896
 51
296.48104
  0
LINE
  8
12
  6
CONTINUOUS
 62
     4
  5
439
 10
2164.62862
 20
4912.429751
 30
0.0
 11
2164.62862
 21
4943.429741
 31
0.0
  0
LINE
  8
12
  6
CONTINUOUS
 62
     4
  5
43A
 10
2161.82862
 20
4912.429751
 30
0.0
 11
2161.82862
 21
4943.429741
 31
0.0
  0
LINE
  8
12
  6
CONTINUOUS
 62
     4
  5
43B
 10
2164.62862
 20
4943.429741
 30
0.0
 11
2161.82862
 21
4943.429741
 31
0.0
  0
LINE
  8
12
  6
CONTINUOUS
 62
     4
  5
43C
 10
2163.22862
 20
4950.429741
 30
0.0
 11
2161.82862
 21
4943.429741
 31
0.0
  0
LINE
  8
12
  6
CONTINUOUS
 62
     4
  5
43D
 10
2163.22862
 20
4950.429741
 30
0.0
 11
2164.62862
 21
4943.429741
 31
0.0
  0
LINE
  8
12
  6
CENTER
 62
     4
  5
43E
 10
2163.22862
 20
4909.429761
 30
0.0
 11
2163.22862
 21
4950.429741
 31
0.0
  0
LINE
  8
12
  6
CENTER
 62
     4
  5
43F
 10
2163.22862
 20
4950.429741
 30
0.0
 11
2163.22862
 21
4910.922721
 31
0.0
  0
LINE
  8
12
  6
CONTINUOUS
 62
     4
  5
440
 10
2228.10042
 20
4912.429751
 30
0.0
 11
2219.60032
 21
4912.429751
 31
0.0
  0
LINE
  8
12
  6
CONTINUOUS
 62
     4
  5
441
 10
2219.60032
 20
4912.429751
 30
0.0
 11
2219.60032
 21
4909.429761
 31
0.0
  0
LINE
  8
12
  6
CONTINUOUS
 62
     4
  5
442
 10
2228.10042
 20
4912.429751
 30
0.0
 11
2228.10042
 21
4909.429761
 31
0.0
  0
LINE
  8
12
  6
CONTINUOUS
 62
     4
  5
443
 10
2228.10042
 20
4909.429761
 30
0.0
 11
2228.10042
 21
4912.429751
 31
0.0
  0
LINE
  8
12
  6
CONTINUOUS
 62
     4
  5
444
 10
2219.60032
 20
4909.429761
 30
0.0
 11
2219.60032
 21
4912.429751
 31
0.0
  0
LINE
  8
12
  6
CONTINUOUS
 62
     4
  5
445
 10
2219.60032
 20
4909.429761
 30
0.0
 11
2228.10042
 21
4909.429761
 31
0.0
  0
ARC
  8
12
  6
CONTINUOUS
 62
     4
  5
446
 10
2223.85044
 20
4917.961011
 30
0.0
 40
9.53134
 50
243.51896
 51
296.48104
  0
LINE
  8
12
  6
CONTINUOUS
 62
     4
  5
447
 10
2225.25044
 20
4912.429751
 30
0.0
 11
2225.25044
 21
4943.429741
 31
0.0
  0
LINE
  8
12
  6
CONTINUOUS
 62
     4
  5
448
 10
2222.45044
 20
4912.429751
 30
0.0
 11
2222.45044
 21
4943.429741
 31
0.0
  0
LINE
  8
12
  6
CONTINUOUS
 62
     4
  5
449
 10
2225.25044
 20
4943.429741
 30
0.0
 11
2222.45044
 21
4943.429741
 31
0.0
  0
LINE
  8
12
  6
CONTINUOUS
 62
     4
  5
44A
 10
2223.85044
 20
4950.429741
 30
0.0
 11
2222.45044
 21
4943.429741
 31
0.0
  0
LINE
  8
12
  6
CONTINUOUS
 62
     4
  5
44B
 10
2223.85044
 20
4950.429741
 30
0.0
 11
2225.25044
 21
4943.429741
 31
0.0
  0
LINE
  8
12
  6
CENTER
 62
     4
  5
44C
 10
2223.85044
 20
4909.429761
 30
0.0
 11
2223.85044
 21
4950.429741
 31
0.0
  0
LINE
  8
12
  6
CENTER
 62
     4
  5
44D
 10
2223.85044
 20
4950.429741
 30
0.0
 11
2223.85044
 21
4910.922721
 31
0.0
  0
LINE
  8
12
  6
CONTINUOUS
 62
     4
  5
44E
 10
2168.93712
 20
4912.676991
 30
0.0
 11
2157.4371
 21
4912.676991
 31
0.0
  0
LINE
  8
12
  6
CONTINUOUS
 62
     4
  5
44F
 10
2168.93712
 20
4913.476881
 30
0.0
 11
2157.4371
 21
4913.476881
 31
0.0
  0
LINE
  8
12
  6
CONTINUOUS
 62
     4
  5
450
 10
2168.93712
 20
4912.676991
 30
0.0
 11
2168.93712
 21
4913.476881
 31
0.0
  0
LINE
  8
12
  6
CONTINUOUS
 62
     4
  5
451
 10
2165.9372
 20
4912.676991
 30
0.0
 11
2165.9372
 21
4913.476881
 31
0.0
  0
LINE
  8
12
  6
CONTINUOUS
 62
     4
  5
452
 10
2160.43716
 20
4912.676991
 30
0.0
 11
2160.43716
 21
4913.476881
 31
0.0
  0
LINE
  8
12
  6
CONTINUOUS
 62
     4
  5
453
 10
2157.4371
 20
4912.676991
 30
0.0
 11
2157.4371
 21
4913.476881
 31
0.0
  0
LINE
  8
12
  6
CONTINUOUS
 62
     4
  5
454
 10
2229.5553
 20
4912.676991
 30
0.0
 11
2218.05528
 21
4912.676991
 31
0.0
  0
LINE
  8
12
  6
CONTINUOUS
 62
     4
  5
455
 10
2229.5553
 20
4913.476881
 30
0.0
 11
2218.05528
 21
4913.476881
 31
0.0
  0
LINE
  8
12
  6
CONTINUOUS
 62
     4
  5
456
 10
2229.5553
 20
4912.676991
 30
0.0
 11
2229.5553
 21
4913.476881
 31
0.0
  0
LINE
  8
12
  6
CONTINUOUS
 62
     4
  5
457
 10
2226.55524
 20
4912.676991
 30
0.0
 11
2226.55524
 21
4913.476881
 31
0.0
  0
LINE
  8
12
  6
CONTINUOUS
 62
     4
  5
458
 10
2221.0552
 20
4912.676991
 30
0.0
 11
2221.0552
 21
4913.476881
 31
0.0
  0
LINE
  8
12
  6
CONTINUOUS
 62
     4
  5
459
 10
2218.05528
 20
4912.676991
 30
0.0
 11
2218.05528
 21
4913.476881
 31
0.0
  0
LINE
  8
8
  6
CONTINUOUS
 62
     4
  5
45A
 10
2210.53994
 20
4899.223131
 30
0.0
 11
2237.0355
 21
4906.060661
 31
0.0
  0
LINE
  8
8
  6
CONTINUOUS
 62
     4
  5
45B
 10
2176.7277
 20
4899.192681
 30
0.0
 11
2149.99666
 21
4906.091041
 31
0.0
  0
ARC
  8
8
  6
CONTINUOUS
 62
     4
  5
45C
 10
2175.57172
 20
4895.393781
 30
0.0
 40
4.00008
 50
360.0
 51
75.529706
  0
LINE
  8
50
  6
CENTER
 62
     4
  5
45D
 10
2163.18718
 20
4912.676991
 30
0.0
 11
2163.18718
 21
4914.798971
 31
0.0
  0
LINE
  8
50
  6
CENTER
 62
     4
  5
45E
 10
2223.80522
 20
4912.676991
 30
0.0
 11
2223.80522
 21
4914.798971
 31
0.0
  0
ARC
  8
8
  6
CONTINUOUS
 62
     4
  5
45F
 10
2211.53394
 20
4895.342891
 30
0.0
 40
4.00008
 50
104.470294
 51
180.0
  0
LINE
  8
3
  6
CONTINUOUS
 62
     6
  5
460
 10
2021.35036
 20
3986.013858
 30
0.0
 11
2666.350051
 21
3986.013858
 31
0.0
  0
LINE
  8
1
  6
CONTINUOUS
 62
     5
  5
461
 10
2021.35036
 20
4141.013834
 30
0.0
 11
2021.35036
 21
4078.513834
 31
0.0
  0
LINE
  8
1
  6
CONTINUOUS
 62
     2
  5
462
 10
2033.70036
 20
4008.513834
 30
0.0
 11
2654.00036
 21
4008.513834
 31
0.0
  0
LINE
  8
3
  6
CONTINUOUS
 62
     6
  5
463
 10
2021.35036
 20
4056.013845
 30
0.0
 11
2021.35036
 21
3986.013858
 31
0.0
  0
LINE
  8
3
  6
CONTINUOUS
 62
     6
  5
464
 10
2021.35036
 20
4056.013845
 30
0.0
 11
2021.35036
 21
4141.013834
 31
0.0
  0
LINE
  8
1
  6
CONTINUOUS
 62
     5
  5
465
 10
2666.345552
 20
4078.513834
 30
0.0
 11
2666.345552
 21
4141.013834
 31
0.0
  0
LINE
  8
2
  6
CONTINUOUS
 62
     5
  5
466
 10
2673.85036
 20
4008.513834
 30
0.0
 11
2798.85036
 21
4008.513834
 31
0.0
  0
LINE
  8
1
  6
CONTINUOUS
 62
     5
  5
467
 10
2673.85036
 20
4008.513834
 30
0.0
 11
2673.85036
 21
4078.513834
 31
0.0
  0
LINE
  8
1
  6
CONTINUOUS
 62
     5
  5
468
 10
2013.70036
 20
4008.513834
 30
0.0
 11
2013.70036
 21
4078.513834
 31
0.0
  0
LINE
  8
1
  6
CONTINUOUS
 62
     5
  5
469
 10
2013.70036
 20
4078.513834
 30
0.0
 11
1993.70036
 21
4078.513834
 31
0.0
  0
LINE
  8
1
  6
CONTINUOUS
 62
     5
  5
46A
 10
2673.85036
 20
4078.513834
 30
0.0
 11
2693.85036
 21
4078.513834
 31
0.0
  0
LINE
  8
1
  6
CONTINUOUS
 62
     2
  5
46B
 10
2673.85036
 20
4078.513834
 30
0.0
 11
2013.70036
 21
4078.513834
 31
0.0
  0
LINE
  8
6
  6
CONTINUOUS
 62
     6
  5
46C
 10
2193.831798
 20
4658.073717
 30
0.0
 11
2193.831798
 21
4846.429481
 31
0.0
  0
LINE
  8
6
  6
CONTINUOUS
 62
     6
  5
46D
 10
2193.831798
 20
4383.068717
 30
0.0
 11
2193.831798
 21
4141.013834
 31
0.0
  0
LINE
  8
6
  6
CONTINUOUS
 62
     3
  5
46E
 10
1593.831798
 20
4407.253593
 30
0.0
 11
1593.831798
 21
4537.528662
 31
0.0
  0
LINE
  8
6
  6
CONTINUOUS
 62
     3
  5
46F
 10
1593.831798
 20
4685.023668
 30
0.0
 11
1593.831798
 21
4918.513834
 31
0.0
  0
LINE
  8
5
  6
CONTINUOUS
 62
     3
  5
470
 10
2928.85036
 20
4891.013834
 30
0.0
 11
2928.85036
 21
4971.013834
 31
0.0
  0
TEXT
  8
5
  6
CONTINUOUS
 62
     3
  5
471
 10
2928.85036
 20
4884.763834
 30
0.0
 40
60.0
  1
80
 50
90.0
 41
0.75
  7

 72
     5
 11
2928.85036
 21
4974.763834
 31
0.0
  0
TEXT
  8
5
  6
CONTINUOUS
 62
     3
  5
472
 10
2928.85036
 20
4528.513834
 30
0.0
 40
60.0
  1
600
 50
90.0
 41
0.666667
  7

 72
     5
 11
2928.85036
 21
4648.513834
 31
0.0
  0
LINE
  8
5
  6
CONTINUOUS
 62
     3
  5
473
 10
2928.85036
 20
4291.013834
 30
0.0
 11
2928.85036
 21
4891.013834
 31
0.0
  0
TEXT
  8
5
  6
CONTINUOUS
 62
     3
  5
474
 10
3028.85036
 20
4456.013834
 30
0.0
 40
60.0
  1
910
 50
90.0
 41
0.666667
  7

 72
     5
 11
3028.85036
 21
4576.013834
 31
0.0
  0
LINE
  8
5
  6
CONTINUOUS
 62
     3
  5
475
 10
3028.85036
 20
4971.013834
 30
0.0
 11
3028.85036
 21
4061.013834
 31
0.0
  0
LINE
  8
5
  6
CONTINUOUS
 62
     3
  5
476
 10
2928.85036
 20
4061.013834
 30
0.0
 11
2928.85036
 21
4291.013834
 31
0.0
  0
TEXT
  8
5
  6
CONTINUOUS
 62
     3
  5
477
 10
2928.85036
 20
4114.763834
 30
0.0
 40
60.0
  1
230
 50
90.0
 41
0.666667
  7

 72
     5
 11
2928.85036
 21
4234.763834
 31
0.0
  0
TEXT
  8
5
  6
CONTINUOUS
 62
     3
  5
478
 10
2284.000206
 20
3878.513834
 30
0.0
 40
60.0
  1
645
 50
360.0
 41
0.666667
  7

 72
     5
 11
2404.000206
 21
3878.513834
 31
0.0
  0
LINE
  8
5
  6
CONTINUOUS
 62
     3
  5
479
 10
2021.35036
 20
3878.513834
 30
0.0
 11
2666.350051
 21
3878.513834
 31
0.0
  0
LINE
  8
5
  6
CONTINUOUS
 62
     3
  5
47A
 10
2666.350051
 20
3878.513834
 30
0.0
 11
2746.35036
 21
3878.513834
 31
0.0
  0
TEXT
  8
5
  6
CONTINUOUS
 62
     3
  5
47B
 10
2661.425206
 20
3878.513834
 30
0.0
 40
60.0
  1
80
 50
360.0
 41
0.75
  7

 72
     5
 11
2751.425206
 21
3878.513834
 31
0.0
  0
LINE
  8
1
  6
CONTINUOUS
 62
     5
  5
47C
 10
1493.85036
 20
1188.801625
 30
0.0
 11
1493.85036
 21
3188.801625
 31
0.0
  0
LINE
  8
40
  6
CONTINUOUS
 62
     6
  5
47D
 10
1595.85023
 20
1526.301615
 30
0.0
 11
1493.85036
 21
1526.301615
 31
0.0
  0
LINE
  8
40
  6
CONTINUOUS
 62
     6
  5
47E
 10
1595.85023
 20
1577.736215
 30
0.0
 11
1595.85023
 21
1526.301615
 31
0.0
  0
CIRCLE
  8
5
  6
CONTINUOUS
 62
     3
  5
47F
 10
1163.85036
 20
888.801625
 30
0.0
 40
7.5
  0
CIRCLE
  8
5
  6
CONTINUOUS
 62
     3
  5
480
 10
1263.85036
 20
888.801625
 30
0.0
 40
7.5
  0
CIRCLE
  8
5
  6
CONTINUOUS
 62
     3
  5
481
 10
1163.85036
 20
3188.801625
 30
0.0
 40
7.5
  0
CIRCLE
  8
5
  6
CONTINUOUS
 62
     3
  5
482
 10
1263.85036
 20
3188.801625
 30
0.0
 40
7.5
  0
LINE
  8
5
  6
CONTINUOUS
 62
     3
  5
483
 10
1163.85036
 20
888.801625
 30
0.0
 11
1463.85036
 21
888.801625
 31
0.0
  0
LINE
  8
5
  6
CONTINUOUS
 62
     3
  5
484
 10
1163.85036
 20
3188.801625
 30
0.0
 11
1463.85036
 21
3188.801625
 31
0.0
  0
LINE
  8
5
  6
CONTINUOUS
 62
     3
  5
485
 10
1163.85036
 20
3188.801625
 30
0.0
 11
1163.85036
 21
888.801625
 31
0.0
  0
TEXT
  8
5
  6
CONTINUOUS
 62
     3
  5
486
 10
1163.85036
 20
1948.801625
 30
0.0
 40
60.0
  1
2,300
 50
90.0
 41
0.6
  7

 72
     5
 11
1163.85036
 21
2128.801625
 31
0.0
  0
LINE
  8
5
  6
CONTINUOUS
 62
     3
  5
487
 10
1263.85036
 20
1188.801625
 30
0.0
 11
1263.85036
 21
3188.801625
 31
0.0
  0
LINE
  8
5
  6
CONTINUOUS
 62
     3
  5
488
 10
1263.85036
 20
1188.801625
 30
0.0
 11
1463.85036
 21
1188.801625
 31
0.0
  0
LINE
  8
5
  6
CONTINUOUS
 62
     3
  5
489
 10
1263.85036
 20
888.801625
 30
0.0
 11
1263.85036
 21
1188.801625
 31
0.0
  0
TEXT
  8
5
  6
CONTINUOUS
 62
     3
  5
48A
 10
1263.85036
 20
978.801625
 30
0.0
 40
60.0
  1
300
 50
90.0
 41
0.666667
  7

 72
     5
 11
1263.85036
 21
1098.801625
 31
0.0
  0
TEXT
  8
5
  6
CONTINUOUS
 62
     3
  5
48B
 10
1263.85036
 20
2098.801625
 30
0.0
 40
60.0
  1
2,000
 50
90.0
 41
0.6
  7

 72
     5
 11
1263.85036
 21
2278.801625
 31
0.0
  0
CIRCLE
  8
5
  6
CONTINUOUS
 62
     3
  5
48C
 10
1363.85036
 20
1188.801625
 30
0.0
 40
7.5
  0
CIRCLE
  8
5
  6
CONTINUOUS
 62
     3
  5
48D
 10
1263.85036
 20
1188.801625
 30
0.0
 40
7.5
  0
ARC
  8
40
  6
CONTINUOUS
 62
     6
  5
48E
 10
1565.85019
 20
1577.736215
 30
0.0
 40
30.00004
 50
360.0
 51
87.193615
  0
LINE
  8
40
  6
CONTINUOUS
 62
     6
  5
48F
 10
1567.31893
 20
1607.700275
 30
0.0
 11
1493.85015
 21
1611.301635
 31
0.0
  0
CIRCLE
  8
5
  6
CONTINUOUS
 62
     3
  5
490
 10
1363.85036
 20
1688.801625
 30
0.0
 40
7.5
  0
LINE
  8
1
  6
CONTINUOUS
 62
     6
  5
491
 10
1752.67094
 20
4177.957598
 30
0.0
 11
1752.67094
 21
4215.717598
 31
0.0
  0
LINE
  8
1
  6
CONTINUOUS
 62
     6
  5
492
 10
1778.27094
 20
4160.853599
 30
0.0
 11
1778.27094
 21
4222.277598
 31
0.0
  0
ARC
  8
1
  6
CONTINUOUS
 62
     6
  5
493
 10
1732.670941
 20
4177.957598
 30
0.0
 40
20.0
 50
274.42
 51
360.0
  0
ARC
  8
1
  6
CONTINUOUS
 62
     6
  5
494
 10
1567.070944
 20
4196.053598
 30
0.0
 40
39.199999
 50
183.31
 51
266.54
  0
ARC
  8
1
  6
CONTINUOUS
 62
     6
  5
495
 10
1535.070945
 20
4164.053599
 30
0.0
 40
23.999999
 50
179.99
 51
270.0
  0
ARC
  8
1
  6
CONTINUOUS
 62
     6
  5
496
 10
1757.47094
 20
4160.853599
 30
0.0
 40
20.8
 50
270.0
 51
360.0
  0
LINE
  8
1
  6
CONTINUOUS
 62
     6
  5
497
 10
1586.734944
 20
4381.653594
 30
0.0
 11
1548.670945
 21
4381.653594
 31
0.0
  0
ARC
  8
1
  6
CONTINUOUS
 62
     6
  5
498
 10
1531.870945
 20
4386.453594
 30
0.0
 40
20.8
 50
90.0
 51
180.0
  0
ARC
  8
1
  6
CONTINUOUS
 62
     6
  5
499
 10
1548.974945
 20
4361.653594
 30
0.0
 40
20.0
 50
90.0
 51
175.57
  0
LINE
  8
1
  6
CONTINUOUS
 62
     6
  5
49A
 10
1529.038945
 20
4363.189594
 30
0.0
 11
1527.966945
 21
4193.365598
 31
0.0
  0
LINE
  8
1
  6
CONTINUOUS
 62
     6
  5
49B
 10
1743.03894
 20
4241.733597
 30
0.0
 11
1612.766943
 21
4372.021594
 31
0.0
  0
ARC
  8
1
  6
CONTINUOUS
 62
     6
  5
49C
 10
1712.670941
 20
4215.717598
 30
0.0
 40
39.999999
 50
360.0
 51
40.59
  0
ARC
  8
1
  6
CONTINUOUS
 62
     6
  5
49D
 10
1755.07094
 20
4222.277598
 30
0.0
 40
23.199999
 50
360.0
 51
45.0
  0
ARC
  8
1
  6
CONTINUOUS
 62
     6
  5
49E
 10
1586.734944
 20
4341.653595
 30
0.0
 40
39.983999
 50
49.4
 51
90.0
  0
LINE
  8
6
  6
CONTINUOUS
 62
     2
  5
49F
 10
1511.070946
 20
4202.263834
 30
0.0
 11
1493.85036
 21
4202.263834
 31
0.0
  0
LINE
  8
6
  6
CONTINUOUS
 62
     2
  5
4A0
 10
1511.070946
 20
4302.263834
 30
0.0
 11
1493.85036
 21
4302.263834
 31
0.0
  0
LINE
  8
1
  6
CONTINUOUS
 62
     6
  5
4A1
 10
1511.070946
 20
4164.053599
 30
0.0
 11
1511.070946
 21
4386.453594
 31
0.0
  0
LINE
  8
1
  6
CONTINUOUS
 62
     6
  5
4A2
 10
1593.294944
 20
4407.253593
 30
0.0
 11
1531.870945
 21
4407.253593
 31
0.0
  0
LINE
  8
1
  6
CONTINUOUS
 62
     6
  5
4A3
 10
1757.47094
 20
4140.053599
 30
0.0
 11
1535.070945
 21
4140.053599
 31
0.0
  0
LINE
  8
1
  6
CONTINUOUS
 62
     6
  5
4A4
 10
1564.414944
 20
4156.933599
 30
0.0
 11
1734.222941
 21
4158.021599
 31
0.0
  0
LINE
  8
1
  6
CONTINUOUS
 62
     6
  5
4A5
 10
1771.475817
 20
4238.682474
 30
0.0
 11
1609.715821
 21
4400.458471
 31
0.0
  0
ARC
  8
1
  6
CONTINUOUS
 62
     6
  5
4A6
 10
1593.322257
 20
4384.064908
 30
0.0
 40
23.183999
 50
45.0
 51
90.0
  0
LINE
  8
1
  6
CENTER
 62
     2
  5
4A7
 10
1441.35036
 20
4008.513834
 30
0.0
 11
1441.35036
 21
5023.513834
 31
0.0
  0
LINE
  8
5
  6
CONTINUOUS
 62
     3
  5
4A8
 10
1158.85036
 20
4061.013834
 30
0.0
 11
1358.85036
 21
4061.013834
 31
0.0
  0
LINE
  8
5
  6
CONTINUOUS
 62
     3
  5
4A9
 10
1158.85036
 20
4971.013834
 30
0.0
 11
1358.85036
 21
4971.013834
 31
0.0
  0
CIRCLE
  8
5
  6
CONTINUOUS
 62
     3
  5
4AA
 10
1158.85036
 20
4971.013834
 30
0.0
 40
7.5
  0
CIRCLE
  8
5
  6
CONTINUOUS
 62
     3
  5
4AB
 10
1158.85036
 20
4061.013834
 30
0.0
 40
7.5
  0
ARC
  8
1
  6
CONTINUOUS
 62
     6
  5
4AC
 10
1755.07094
 20
4222.277598
 30
0.0
 40
23.199999
 50
360.0
 51
45.0
  0
LINE
  8
40
  6
CONTINUOUS
 62
     6
  5
4AD
 10
1595.85023
 20
4685.023668
 30
0.0
 11
1595.85023
 21
4537.528662
 31
0.0
  0
LINE
  8
5
  6
CONTINUOUS
 62
     6
  5
4AE
 10
1595.85023
 20
4537.528662
 30
0.0
 11
1493.85036
 21
4537.528662
 31
0.0
  0
LINE
  8
5
  6
CONTINUOUS
 62
     6
  5
4AF
 10
1595.85023
 20
4685.023668
 30
0.0
 11
1493.85036
 21
4685.023668
 31
0.0
  0
TEXT
  8
5
  6
CONTINUOUS
 62
     3
  5
4B0
 10
1158.85036
 20
4456.013834
 30
0.0
 40
60.0
  1
910
 50
90.0
 41
0.666667
  7

 72
     5
 11
1158.85036
 21
4576.013834
 31
0.0
  0
LINE
  8
5
  6
CONTINUOUS
 62
     3
  5
4B1
 10
1158.85036
 20
4061.013834
 30
0.0
 11
1158.85036
 21
4971.013834
 31
0.0
  0
LINE
  8
5
  6
CONTINUOUS
 62
     3
  5
4B2
 10
1363.85036
 20
1688.801625
 30
0.0
 11
1463.85036
 21
1688.801625
 31
0.0
  0
LINE
  8
5
  6
CONTINUOUS
 62
     3
  5
4B3
 10
1363.85036
 20
1188.801625
 30
0.0
 11
1363.85036
 21
1688.801625
 31
0.0
  0
TEXT
  8
5
  6
CONTINUOUS
 62
     3
  5
4B4
 10
1363.85036
 20
1378.801625
 30
0.0
 40
60.0
  1
500
 50
90.0
 41
0.666667
  7

 72
     5
 11
1363.85036
 21
1498.801625
 31
0.0
  0
LINE
  8
1
  6
CONTINUOUS
 62
     5
  5
4B5
 10
2168.85036
 20
1188.801625
 30
0.0
 11
1493.85036
 21
1188.801625
 31
0.0
  0
LINE
  8
2
  6
CONTINUOUS
 62
     3
  5
4B6
 10
1693.767253
 20
1288.801625
 30
0.0
 11
1493.85036
 21
1288.801625
 31
0.0
  0
LINE
  8
2
  6
CONTINUOUS
 62
     3
  5
4B7
 10
1693.767253
 20
1288.801625
 30
0.0
 11
1493.85036
 21
1288.801625
 31
0.0
  0
LINE
  8
2
  6
CONTINUOUS
 62
     3
  5
4B8
 10
2693.85036
 20
1388.801625
 30
0.0
 11
1493.85036
 21
1388.801625
 31
0.0
  0
LINE
  8
2
  6
CONTINUOUS
 62
     3
  5
4B9
 10
2693.85036
 20
1488.801625
 30
0.0
 11
1493.85036
 21
1488.801625
 31
0.0
  0
LINE
  8
1
  6
CONTINUOUS
 62
     5
  5
4BA
 10
2693.85036
 20
3188.801625
 30
0.0
 11
1493.85036
 21
3188.801625
 31
0.0
  0
LINE
  8
2
  6
CONTINUOUS
 62
     3
  5
4BB
 10
2693.85036
 20
2188.801625
 30
0.0
 11
1493.85036
 21
2188.801625
 31
0.0
  0
LINE
  8
2
  6
CONTINUOUS
 62
     3
  5
4BC
 10
2693.85036
 20
2388.801625
 30
0.0
 11
1493.85036
 21
2388.801625
 31
0.0
  0
LINE
  8
2
  6
CONTINUOUS
 62
     3
  5
4BD
 10
2693.85036
 20
2488.801625
 30
0.0
 11
1493.85036
 21
2488.801625
 31
0.0
  0
LINE
  8
2
  6
CONTINUOUS
 62
     3
  5
4BE
 10
2693.85036
 20
2588.801625
 30
0.0
 11
1493.85036
 21
2588.801625
 31
0.0
  0
LINE
  8
2
  6
CONTINUOUS
 62
     3
  5
4BF
 10
2693.85036
 20
2688.801625
 30
0.0
 11
1493.85036
 21
2688.801625
 31
0.0
  0
LINE
  8
2
  6
CONTINUOUS
 62
     3
  5
4C0
 10
2693.85036
 20
2788.801625
 30
0.0
 11
1493.85036
 21
2788.801625
 31
0.0
  0
LINE
  8
2
  6
CONTINUOUS
 62
     3
  5
4C1
 10
2693.85036
 20
2888.801625
 30
0.0
 11
1493.85036
 21
2888.801625
 31
0.0
  0
LINE
  8
2
  6
CONTINUOUS
 62
     3
  5
4C2
 10
2693.85036
 20
2988.801625
 30
0.0
 11
1493.85036
 21
2988.801625
 31
0.0
  0
LINE
  8
2
  6
CONTINUOUS
 62
     3
  5
4C3
 10
2693.85036
 20
3088.801625
 30
0.0
 11
1493.85036
 21
3088.801625
 31
0.0
  0
LINE
  8
2
  6
CONTINUOUS
 62
     3
  5
4C4
 10
1579.85036
 20
1888.801625
 30
0.0
 11
1493.85036
 21
1888.801625
 31
0.0
  0
LINE
  8
2
  6
CONTINUOUS
 62
     3
  5
4C5
 10
1579.85036
 20
1988.801625
 30
0.0
 11
1493.85036
 21
1988.801625
 31
0.0
  0
LINE
  8
2
  6
CONTINUOUS
 62
     3
  5
4C6
 10
1579.85036
 20
2088.801625
 30
0.0
 11
1493.85036
 21
2088.801625
 31
0.0
  0
LINE
  8
2
  6
CONTINUOUS
 62
     3
  5
4C7
 10
2693.85036
 20
1588.801625
 30
0.0
 11
1595.85023
 21
1588.801625
 31
0.0
  0
LINE
  8
2
  6
CONTINUOUS
 62
     3
  5
4C8
 10
1579.85036
 20
1788.801625
 30
0.0
 11
1493.85036
 21
1788.801625
 31
0.0
  0
LINE
  8
2
  6
CONTINUOUS
 62
     3
  5
4C9
 10
1579.85036
 20
1688.756142
 30
0.0
 11
1493.85036
 21
1688.756142
 31
0.0
  0
CIRCLE
  8
5
  6
CONTINUOUS
 62
     3
  5
4CA
 10
1493.85038
 20
2331.756042
 30
0.0
 40
7.5
  0
LINE
  8
5
  6
CONTINUOUS
 62
     3
  5
4CB
 10
1493.85038
 20
2181.756042
 30
0.0
 11
1493.85038
 21
2331.756042
 31
0.0
  0
CIRCLE
  8
5
  6
CONTINUOUS
 62
     3
  5
4CC
 10
2693.85038
 20
2331.756042
 30
0.0
 40
7.5
  0
LINE
  8
5
  6
CONTINUOUS
 62
     3
  5
4CD
 10
2693.85038
 20
2181.756042
 30
0.0
 11
2693.85038
 21
2331.756042
 31
0.0
  0
CIRCLE
  8
5
  6
CONTINUOUS
 62
     3
  5
4CE
 10
1893.85036
 20
2331.756042
 30
0.0
 40
7.5
  0
CIRCLE
  8
5
  6
CONTINUOUS
 62
     3
  5
4CF
 10
1893.85036
 20
2331.756042
 30
0.0
 40
7.5
  0
LINE
  8
5
  6
CONTINUOUS
 62
     3
  5
4D0
 10
1493.85038
 20
2331.756042
 30
0.0
 11
1893.85036
 21
2331.756042
 31
0.0
  0
LINE
  8
5
  6
CONTINUOUS
 62
     3
  5
4D1
 10
1893.85036
 20
2331.756042
 30
0.0
 11
2693.85038
 21
2331.756042
 31
0.0
  0
LINE
  8
5
  6
CONTINUOUS
 62
     3
  5
4D2
 10
1893.85036
 20
2181.756042
 30
0.0
 11
1893.85036
 21
2331.756042
 31
0.0
  0
LINE
  8
5
  6
CONTINUOUS
 62
     3
  5
4D3
 10
1893.85036
 20
2181.756042
 30
0.0
 11
1893.85036
 21
2331.756042
 31
0.0
  0
LINE
  8
2
  6
CONTINUOUS
 62
     3
  5
4D4
 10
2693.85036
 20
2288.801625
 30
0.0
 11
1493.85036
 21
2288.801625
 31
0.0
  0
CIRCLE
  8
5
  6
CONTINUOUS
 62
     3
  5
4D5
 10
1441.35036
 20
5253.513834
 30
0.0
 40
7.5
  0
CIRCLE
  8
5
  6
CONTINUOUS
 62
     3
  5
4D6
 10
1441.35036
 20
3878.513834
 30
0.0
 40
7.5
  0
CIRCLE
  8
5
  6
CONTINUOUS
 62
     3
  5
4D7
 10
1441.35036
 20
3778.513834
 30
0.0
 40
7.5
  0
LINE
  8
4
  6
CENTER
 62
     2
  5
4D8
 10
1388.85036
 20
4061.013834
 30
0.0
 11
2798.85036
 21
4061.013834
 31
0.0
  0
LINE
  8
2
  6
CONTINUOUS
 62
     5
  5
4D9
 10
1388.85036
 20
4008.513834
 30
0.0
 11
2013.70036
 21
4008.513834
 31
0.0
  0
LINE
  8
5
  6
CONTINUOUS
 62
     3
  5
4DA
 10
1441.35036
 20
3878.513834
 30
0.0
 11
2021.35036
 21
3878.513834
 31
0.0
  0
TEXT
  8
5
  6
CONTINUOUS
 62
     3
  5
4DB
 10
1671.42536
 20
3878.513834
 30
0.0
 40
60.0
  1
580
 50
360.0
 41
0.666667
  7

 72
     5
 11
1791.42536
 21
3878.513834
 31
0.0
  0
LINE
  8
5
  6
CONTINUOUS
 62
     3
  5
4DC
 10
1441.35036
 20
3778.513834
 30
0.0
 11
1441.35036
 21
3978.513834
 31
0.0
  0
LINE
  8
5
  6
CONTINUOUS
 62
     3
  5
4DD
 10
1441.35036
 20
3778.513834
 30
0.0
 11
2746.35036
 21
3778.513834
 31
0.0
  0
LINE
  8
5
  6
CONTINUOUS
 62
     3
  5
4DE
 10
2746.35036
 20
3778.513834
 30
0.0
 11
2746.35036
 21
3978.513834
 31
0.0
  0
TEXT
  8
5
  6
CONTINUOUS
 62
     3
  5
4DF
 10
2003.85036
 20
3778.513834
 30
0.0
 40
60.0
  1
1,305
 50
360.0
 41
0.6
  7

 72
     5
 11
2183.85036
 21
3778.513834
 31
0.0
  0
LINE
  8
4
  6
CENTER
 62
     2
  5
4E0
 10
1388.85036
 20
4971.013834
 30
0.0
 11
2798.85036
 21
4971.013834
 31
0.0
  0
LINE
  8
2
  6
CONTINUOUS
 62
     5
  5
4E1
 10
1388.85036
 20
5023.513834
 30
0.0
 11
1388.85036
 21
4008.513834
 31
0.0
  0
LINE
  8
2
  6
CONTINUOUS
 62
     5
  5
4E2
 10
1676.35036
 20
5023.513834
 30
0.0
 11
1388.85036
 21
5023.513834
 31
0.0
  0
LINE
  8
5
  6
CONTINUOUS
 62
     3
  5
4E3
 10
1441.35036
 20
5253.513834
 30
0.0
 11
1441.35036
 21
5053.513834
 31
0.0
  0
LINE
  8
5
  6
CONTINUOUS
 62
     3
  5
4E4
 10
1441.35036
 20
5253.513834
 30
0.0
 11
2746.35036
 21
5253.513834
 31
0.0
  0
TEXT
  8
5
  6
CONTINUOUS
 62
     3
  5
4E5
 10
2003.85036
 20
5253.513834
 30
0.0
 40
60.0
  1
1,305
 50
360.0
 41
0.6
  7

 72
     5
 11
2183.85036
 21
5253.513834
 31
0.0
  0
LINE
  8
2
  6
CONTINUOUS
 62
     5
  5
4E6
 10
1493.85036
 20
4918.60194
 30
0.0
 11
2678.85036
 21
4916.513834
 31
0.0
  0
LINE
  8
2
  6
CONTINUOUS
 62
     5
  5
4E7
 10
1493.85036
 20
4918.60194
 30
0.0
 11
1493.85036
 21
4113.513834
 31
0.0
  0
LINE
  8
2
  6
CONTINUOUS
 62
     5
  5
4E8
 10
1493.85036
 20
4113.513834
 30
0.0
 11
1993.70036
 21
4113.513834
 31
0.0
  0
TEXT
  8
5
  6
CONTINUOUS
 62
     3
  5
4E9
 10
1633.85037
 20
2331.756042
 30
0.0
 40
60.0
  1
400
 50
360.0
 41
0.666667
  7

 72
     5
 11
1753.85037
 21
2331.756042
 31
0.0
  0
TEXT
  8
5
  6
CONTINUOUS
 62
     3
  5
4EA
 10
2233.85037
 20
2331.756042
 30
0.0
 40
60.0
  1
800
 41
0.666667
  7

 72
     5
 11
2353.85037
 21
2331.756042
 31
0.0
  0
TEXT
  8
5
  6
CONTINUOUS
 62
     3
  5
4EB
 10
1854.606136
 20
706.02056
 30
0.0
 40
90.0
  1
テスリックス
 41
0.837
  7

 72
     5
 11
2394.606136
 21
706.02056
 31
0.0
  0
TEXT
  8
5
  6
CONTINUOUS
 62
     3
  5
4EC
 10
1854.606136
 20
616.02056
 30
0.0
 40
90.0
  1
取付側展開図
 41
0.837
  7

 72
     5
 11
2394.606136
 21
616.02056
 31
0.0
  0
TEXT
  8
5
  6
CONTINUOUS
 62
     3
  5
4ED
 10
2007.258006
 20
3559.159971
 30
0.0
 40
90.0
  1
平面図
 41
0.837
  7

 72
     5
 11
2277.258006
 21
3559.159971
 31
0.0
  0
LINE
  8
6
  6
CONTINUOUS
 62
     2
  5
4EE
 10
2761.35036
 20
4716.013834
 30
0.0
 11
1493.85036
 21
4716.013834
 31
0.0
  0
LINE
  8
6
  6
CONTINUOUS
 62
     2
  5
4EF
 10
2761.35036
 20
4816.013834
 30
0.0
 11
1493.85036
 21
4816.013834
 31
0.0
  0
LINE
  8
6
  6
CONTINUOUS
 62
     2
  5
4F0
 10
1698.049608
 20
4516.013834
 30
0.0
 11
1493.85036
 21
4516.013834
 31
0.0
  0
LINE
  8
6
  6
CONTINUOUS
 62
     2
  5
4F1
 10
1782.808675
 20
4416.013834
 30
0.0
 11
1493.85036
 21
4416.013834
 31
0.0
  0
LINE
  8
6
  6
CONTINUOUS
 62
     3
  5
4F2
 10
1693.831798
 20
4918.513834
 30
0.0
 11
1693.831798
 21
4316.334173
 31
0.0
  0
LINE
  8
6
  6
CONTINUOUS
 62
     2
  5
4F3
 10
2761.35036
 20
4316.013834
 30
0.0
 11
1694.152105
 21
4316.013834
 31
0.0
  0
LINE
  8
6
  6
CONTINUOUS
 62
     2
  5
4F4
 10
2693.85036
 20
4216.013834
 30
0.0
 11
1778.27094
 21
4216.013834
 31
0.0
  0
LINE
  8
6
  6
CONTINUOUS
 62
     3
  5
4F5
 10
1793.831798
 20
4405.689811
 30
0.0
 11
1793.831798
 21
4113.513834
 31
0.0
  0
LINE
  8
6
  6
CONTINUOUS
 62
     2
  5
4F6
 10
1757.131279
 20
4616.013834
 30
0.0
 11
1595.85023
 21
4616.013834
 31
0.0
  0
TEXT
  8
5
  6
CONTINUOUS
 62
     3
  5
4F7
 10
1731.38631
 20
1522.756192
 30
0.0
 40
60.0
  1
テスリックス
 41
0.837
  7

 72
     5
 11
2091.38631
 21
1522.756192
 31
0.0
  0
LINE
  8
5
  6
CONTINUOUS
 62
     3
  5
4F8
 10
1767.988851
 20
1672.756192
 30
0.0
 11
1681.38631
 21
1522.756192
 31
0.0
  0
LINE
  8
5
  6
CONTINUOUS
 62
     3
  5
4F9
 10
1681.38631
 20
1522.756192
 30
0.0
 11
2091.38631
 21
1522.756192
 31
0.0
  0
LINE
  8
5
  6
CONTINUOUS
 62
     3
  5
4FA
 10
1916.417799
 20
4918.206139
 30
0.0
 11
2003.02034
 21
5068.206139
 31
0.0
  0
TEXT
  8
5
  6
CONTINUOUS
 62
     3
  5
4FB
 10
2053.02034
 20
5068.206139
 30
0.0
 40
60.0
  1
テスリックス
 41
0.837
  7

 72
     5
 11
2413.02034
 21
5068.206139
 31
0.0
  0
LINE
  8
5
  6
CONTINUOUS
 62
     3
  5
4FC
 10
2003.02034
 20
5068.206139
 30
0.0
 11
2413.02034
 21
5068.206139
 31
0.0
  0
ENDSEC
  0
EOF
