  0
SECTION
  2
HEADER
  9
$ACADVER
  1
AC1009
  9
$INSBASE
 10
0.0
 20
0.0
 30
0.0
  9
$EXTMIN
 10
93.410602
 20
292.698552
 30
0.0
  9
$EXTMAX
 10
4061.369676
 20
5703.237663
 30
0.0
  9
$LIMMIN
 10
0.0
 20
0.0
  9
$LIMMAX
 10
4200.0
 20
5940.0
  9
$ORTHOMODE
 70
     0
  9
$REGENMODE
 70
     1
  9
$FILLMODE
 70
     1
  9
$QTEXTMODE
 70
     0
  9
$MIRRTEXT
 70
     1
  9
$DRAGMODE
 70
     2
  9
$LTSCALE
 40
20.0
  9
$OSMODE
 70
     0
  9
$ATTMODE
 70
     1
  9
$TEXTSIZE
 40
0.2
  9
$TRACEWID
 40
0.05
  9
$TEXTSTYLE
  7
STANDARD
  9
$CLAYER
  8
0
  9
$CELTYPE
  6
CONTINUOUS
  9
$CECOLOR
 62
   256
  9
$DIMSCALE
 40
1.0
  9
$DIMASZ
 40
0.18
  9
$DIMEXO
 40
0.0625
  9
$DIMDLI
 40
0.38
  9
$DIMRND
 40
0.0
  9
$DIMDLE
 40
0.0
  9
$DIMEXE
 40
0.18
  9
$DIMTP
 40
0.0
  9
$DIMTM
 40
0.0
  9
$DIMTXT
 40
0.18
  9
$DIMCEN
 40
0.09
  9
$DIMTSZ
 40
0.0
  9
$DIMTOL
 70
     0
  9
$DIMLIM
 70
     0
  9
$DIMTIH
 70
     1
  9
$DIMTOH
 70
     1
  9
$DIMSE1
 70
     0
  9
$DIMSE2
 70
     0
  9
$DIMTAD
 70
     0
  9
$DIMZIN
 70
     0
  9
$DIMBLK
  1

  9
$DIMASO
 70
     1
  9
$DIMSHO
 70
     1
  9
$DIMPOST
  1

  9
$DIMAPOST
  1

  9
$DIMALT
 70
     0
  9
$DIMALTD
 70
     2
  9
$DIMALTF
 40
25.4
  9
$DIMLFAC
 40
1.0
  9
$DIMTOFL
 70
     0
  9
$DIMTVP
 40
0.0
  9
$DIMTIX
 70
     0
  9
$DIMSOXD
 70
     0
  9
$DIMSAH
 70
     0
  9
$DIMBLK1
  1

  9
$DIMBLK2
  1

  9
$DIMSTYLE
  2
STANDARD
  9
$DIMCLRD
 70
     0
  9
$DIMCLRE
 70
     0
  9
$DIMCLRT
 70
     0
  9
$DIMTFAC
 40
1.0
  9
$DIMGAP
 40
0.09
  9
$LUNITS
 70
     2
  9
$LUPREC
 70
     4
  9
$AXISMODE
 70
     0
  9
$AXISUNIT
 10
0.0
 20
0.0
  9
$SKETCHINC
 40
0.1
  9
$FILLETRAD
 40
0.0
  9
$AUNITS
 70
     0
  9
$AUPREC
 70
     0
  9
$MENU
  1
acad
  9
$ELEVATION
 40
0.0
  9
$PELEVATION
 40
0.0
  9
$THICKNESS
 40
0.0
  9
$LIMCHECK
 70
     0
  9
$BLIPMODE
 70
     1
  9
$CHAMFERA
 40
0.0
  9
$CHAMFERB
 40
0.0
  9
$SKPOLY
 70
     0
  9
$TDCREATE
 40
0.000000000
  9
$TDUPDATE
 40
0.000000000
  9
$TDINDWG
 40
0.0000000000
  9
$TDUSRTIMER
 40
0.0000000000
  9
$USRTIMER
 70
     1
  9
$ANGBASE
 50
0.0
  9
$ANGDIR
 70
     0
  9
$PDMODE
 70
     0
  9
$PDSIZE
 40
0.0
  9
$PLINEWID
 40
0.0
  9
$COORDS
 70
     0
  9
$SPLFRAME
 70
     0
  9
$SPLINETYPE
 70
     6
  9
$SPLINESEGS
 70
     8
  9
$ATTDIA
 70
     0
  9
$ATTREQ
 70
     1
  9
$HANDLING
 70
     1
  9
$HANDSEED
  5
AAB
  9
$SURFTAB1
 70
     6
  9
$SURFTAB2
 70
     6
  9
$SURFTYPE
 70
     6
  9
$SURFU
 70
     6
  9
$SURFV
 70
     6
  9
$UCSNAME
  2

  9
$UCSORG
 10
0.0
 20
0.0
 30
0.0
  9
$UCSXDIR
 10
1.0
 20
0.0
 30
0.0
  9
$UCSYDIR
 10
0.0
 20
1.0
 30
0.0
  9
$PUCSNAME
  2

  9
$PUCSORG
 10
0.0
 20
0.0
 30
0.0
  9
$PUCSXDIR
 10
1.0
 20
0.0
 30
0.0
  9
$PUCSYDIR
 10
0.0
 20
1.0
 30
0.0
  9
$USERI1
 70
     0
  9
$USERI2
 70
     0
  9
$USERI3
 70
     0
  9
$USERI4
 70
     0
  9
$USERI5
 70
     0
  9
$USERR1
 40
0.0
  9
$USERR2
 40
0.0
  9
$USERR3
 40
0.0
  9
$USERR4
 40
0.0
  9
$USERR5
 40
0.0
  9
$WORLDVIEW
 70
     1
  9
$SHADEDGE
 70
     3
  9
$SHADEDIF
 70
    70
  9
$TILEMODE
 70
     1
  9
$MAXACTVP
 70
    16
  9
$PINSBASE
 10
0.0
 20
0.0
 30
0.0
  9
$PLIMCHECK
 70
     0
  9
$PEXTMIN
 10
1.000000E+20
 20
1.000000E+20
 30
1.000000E+20
  9
$PEXTMAX
 10
-1.000000E+20
 20
-1.000000E+20
 30
-1.000000E+20
  9
$PLIMMIN
 10
0.0
 20
0.0
  9
$PLIMMAX
 10
12.0
 20
9.0
  9
$UNITMODE
 70
     0
  9
$VISRETAIN
 70
     0
  9
$PLINEGEN
 70
     1
  9
$PSLTSCALE
 70
     0
  9
$TREEDEPTH
 70
  3020
  9
$DWGCODEPAGE
  3
dos932
  0
ENDSEC
  0
SECTION
  2
TABLES
  0
TABLE
  2
VPORT
 70
     1
  0
VPORT
  2
*ACTIVE
 70
     0
 10
0.0
 20
0.0
 11
1.0
 21
1.0
 12
2100.0
 22
2970.0
 13
0.0
 23
0.0
 14
1000.0
 24
1000.0
 15
1000.0
 25
1000.0
 16
0.0
 26
0.0
 36
1.0
 17
0.0
 27
0.0
 37
0.0
 40
5940.0
 41
0.707071
 42
50.0
 43
0.0
 44
0.0
 50
0.0
 51
0.0
 71
     0
 72
   100
 73
     1
 74
     1
 75
     0
 76
     0
 77
     0
 78
     0
  0
ENDTAB
  0
TABLE
  2
LTYPE
 70
     5
  0
LTYPE
  2
CONTINUOUS
 70
    64
  3
Solid line
 72
    65
 73
     0
 40
0.0
  0
LTYPE
  2
HIDDEN
 70
    64
  3
__ __ __ __ __ __ __ __ __ __ __ __ __ __ __ __
 72
    65
 73
     5
 40
8.0
 49
1.0
 49
-2.0
 49
2.0
 49
-2.0
 49
1.0
  0
LTYPE
  2
DOT
 70
    64
  3
. . . . . . . . . . . . . . . . . . . . . . . .
 72
    65
 73
     3
 40
1.6
 49
0.4
 49
-0.8
 49
0.4
  0
LTYPE
  2
CENTER
 70
    64
  3
____ _ ____ _ ____ _ ____ _ ____ _ ____ _ ____ 
 72
    65
 73
     5
 40
12.0
 49
5.0
 49
-0.8
 49
0.4
 49
-0.8
 49
5.0
  0
LTYPE
  2
DIVIDE
 70
    64
  3
____ . . ____ . . ____ . . ____ . . ____ . . __
 72
    65
 73
     7
 40
13.2
 49
5.0
 49
-0.8
 49
0.4
 49
-0.8
 49
0.4
 49
-0.8
 49
5.0
  0
ENDTAB
  0
TABLE
  2
LAYER
 70
    11
  0
LAYER
  2
0
 70
     0
 62
     7
  6
CONTINUOUS
  0
LAYER
  2
1
 70
     0
 62
     1
  6
CONTINUOUS
  0
LAYER
  2
2
 70
     0
 62
     1
  6
CONTINUOUS
  0
LAYER
  2
3
 70
     0
 62
     1
  6
CONTINUOUS
  0
LAYER
  2
4
 70
     0
 62
     1
  6
CONTINUOUS
  0
LAYER
  2
5
 70
     0
 62
     1
  6
CONTINUOUS
  0
LAYER
  2
7
 70
     0
 62
     1
  6
CONTINUOUS
  0
LAYER
  2
8
 70
     0
 62
     1
  6
CONTINUOUS
  0
LAYER
  2
12
 70
     0
 62
     1
  6
CONTINUOUS
  0
LAYER
  2
40
 70
     0
 62
     1
  6
CONTINUOUS
  0
LAYER
  2
50
 70
     0
 62
     1
  6
CONTINUOUS
  0
ENDTAB
  0
TABLE
  2
STYLE
 70
     3
  0
STYLE
  2
STANDARD
 70
     0
 40
0.0
 41
1.0
 50
0.0
 71
     0
 42
0.0
  3
txt
  4

  0
STYLE
  2

 70
     0
 40
1000.0
 41
1.0
 50
0.0
 71
     0
 42
1000.0
  3
txt
  4
extfont
  0
STYLE
  2

 70
     0
 40
1000.0
 41
1.0
 50
0.0
 71
     0
 42
1000.0
  3
txt
  4
extfont
  0
ENDTAB
  0
TABLE
  2
VIEW
 70
     0
  0
ENDTAB
  0
TABLE
  2
UCS
 70
     0
  0
ENDTAB
  0
TABLE
  2
APPID
 70
     1
  0
APPID
  2
ACAD
 70
     0
  0
ENDTAB
  0
TABLE
  2
DIMSTYLE
 70
     1
  0
DIMSTYLE
  2
STANDARD
 70
     0
  3

  4

  5

  6

  7

 40
1.0
 41
0.18
 42
0.0625
 43
0.38
 44
0.18
 45
0.0
 46
0.0
 47
0.0
 48
0.0
 71
     0
 72
     0
 73
     1
 74
     1
 75
     0
 76
     0
 77
     0
 78
     0
140
0.18
141
0.09
142
0.0
143
25.4
144
1.0
145
0.0
146
1.0
147
0.09
170
     0
171
     2
172
     0
173
     0
174
     0
175
     0
176
     0
177
     0
178
     0
  0
ENDTAB
  0
ENDSEC
  0
SECTION
  2
BLOCKS
  0
ENDSEC
  0
SECTION
  2
ENTITIES
  0
LINE
  8
1
  6
CONTINUOUS
 62
     6
  5
102
 10
2687.588835
 20
4113.043978
 30
0.0
 11
3087.588835
 21
4113.043978
 31
0.0
  0
LINE
  8
1
  6
CONTINUOUS
 62
     6
  5
103
 10
2693.588835
 20
4107.043978
 30
0.0
 11
3093.588835
 21
4107.043978
 31
0.0
  0
LINE
  8
1
  6
CONTINUOUS
 62
     6
  5
104
 10
2687.588835
 20
3813.043978
 30
0.0
 11
2687.588835
 21
4113.043978
 31
0.0
  0
LINE
  8
1
  6
CONTINUOUS
 62
     6
  5
105
 10
2693.588835
 20
3807.043978
 30
0.0
 11
2693.588835
 21
4107.043978
 31
0.0
  0
LINE
  8
1
  6
CONTINUOUS
 62
     6
  5
106
 10
2727.348835
 20
4476.471349
 30
0.0
 11
2397.589835
 21
4476.471349
 31
0.0
  0
LINE
  8
1
  6
CONTINUOUS
 62
     6
  5
107
 10
2668.584835
 20
4645.973349
 30
0.0
 11
2668.584835
 21
4581.974349
 31
0.0
  0
LINE
  8
1
  6
CONTINUOUS
 62
     6
  5
108
 10
2651.688835
 20
4523.476349
 30
0.0
 11
2397.589835
 21
4523.476349
 31
0.0
  0
ARC
  8
1
  6
CONTINUOUS
 62
     6
  5
109
 10
2692.584835
 20
4581.974349
 30
0.0
 40
23.999993
 50
180.0
 51
270.0
  0
ARC
  8
1
  6
CONTINUOUS
 62
     6
  5
10A
 10
2623.125835
 20
4846.347349
 30
0.0
 40
359.99995
 50
271.505
 51
290.194
  0
ARC
  8
1
  6
CONTINUOUS
 62
     6
  5
10B
 10
2692.584835
 20
4645.973349
 30
0.0
 40
23.999993
 50
90.0
 51
180.0
  0
ARC
  8
1
  6
CONTINUOUS
 62
     6
  5
10C
 10
2623.125835
 20
4381.592349
 30
0.0
 40
359.99995
 50
69.847
 51
88.498809
  0
ARC
  8
1
  6
CONTINUOUS
 62
     6
  5
10D
 10
2651.688835
 20
4643.474349
 30
0.0
 40
120.0
 50
270.0
 51
291.90901
  0
ARC
  8
1
  6
CONTINUOUS
 62
     6
  5
10E
 10
2651.688835
 20
4584.472349
 30
0.0
 40
120.0
 50
68.091003
 51
90.0
  0
ARC
  8
1
  6
CONTINUOUS
 62
     6
  5
10F
 10
2669.760835
 20
4553.971349
 30
0.0
 40
61.999901
 50
282.402
 51
354.604
  0
ARC
  8
1
  6
CONTINUOUS
 62
     6
  5
110
 10
2614.349835
 20
4805.956349
 30
0.0
 40
319.99999
 50
273.268
 51
282.402
  0
ARC
  8
1
  6
CONTINUOUS
 62
     6
  5
111
 10
2669.760835
 20
4673.976349
 30
0.0
 40
61.999996
 50
5.396011
 51
77.598007
  0
ARC
  8
1
  6
CONTINUOUS
 62
     6
  5
112
 10
2614.349835
 20
4421.997349
 30
0.0
 40
319.99999
 50
77.598007
 51
86.732406
  0
ARC
  8
1
  6
CONTINUOUS
 62
     6
  5
113
 10
2397.589835
 20
4576.473349
 30
0.0
 40
52.999998
 50
239.52301
 51
270.0
  0
ARC
  8
1
  6
CONTINUOUS
 62
     6
  5
114
 10
2397.589835
 20
4576.473349
 30
0.0
 40
99.999998
 50
233.76501
 51
270.0
  0
ARC
  8
1
  6
CONTINUOUS
 62
     6
  5
115
 10
2312.586835
 20
4613.973349
 30
0.0
 40
33.0
 50
131.3711
 51
228.12701
  0
ARC
  8
1
  6
CONTINUOUS
 62
     6
  5
116
 10
2312.586835
 20
4613.973349
 30
0.0
 40
74.999882
 50
132.5485
 51
228.12701
  0
ARC
  8
1
  6
CONTINUOUS
 62
     6
  5
117
 10
2446.589835
 20
4613.973349
 30
0.0
 40
149.99999
 50
172.31056
 51
187.68901
  0
ARC
  8
1
  6
CONTINUOUS
 62
     6
  5
118
 10
2305.860835
 20
4632.976349
 30
0.0
 40
7.9999
 50
90.001708
 51
172.3113
  0
ARC
  8
1
  6
CONTINUOUS
 62
     6
  5
119
 10
2305.860835
 20
4594.971349
 30
0.0
 40
7.999999
 50
187.68901
 51
270.0
  0
LINE
  8
1
  6
CONTINUOUS
 62
     6
  5
11A
 10
2397.589835
 20
4751.476349
 30
0.0
 11
2705.826835
 21
4751.476349
 31
0.0
  0
LINE
  8
1
  6
CONTINUOUS
 62
     6
  5
11B
 10
2397.589835
 20
4704.478349
 30
0.0
 11
2650.674835
 21
4704.478349
 31
0.0
  0
ARC
  8
1
  6
CONTINUOUS
 62
     6
  5
11C
 10
2624.294835
 20
4961.712349
 30
0.0
 40
499.99996
 50
228.12701
 51
239.52301
  0
ARC
  8
1
  6
CONTINUOUS
 62
     6
  5
11D
 10
2870.456835
 20
5221.757349
 30
0.0
 40
899.99979
 50
227.45201
 51
233.76501
  0
ARC
  8
1
  6
CONTINUOUS
 62
     6
  5
11E
 10
2397.589835
 20
4651.474349
 30
0.0
 40
52.999899
 50
90.0
 51
120.4766
  0
ARC
  8
1
  6
CONTINUOUS
 62
     6
  5
11F
 10
2624.294835
 20
4266.234349
 30
0.0
 40
499.99996
 50
120.47671
 51
131.87271
  0
ARC
  8
1
  6
CONTINUOUS
 62
     6
  5
120
 10
2397.589835
 20
4651.474349
 30
0.0
 40
99.999881
 50
90.0
 51
126.23471
  0
ARC
  8
1
  6
CONTINUOUS
 62
     6
  5
121
 10
2870.456835
 20
4006.193349
 30
0.0
 40
899.99979
 50
126.23471
 51
132.5485
  0
LINE
  8
1
  6
CONTINUOUS
 62
     6
  5
122
 10
1185.588835
 20
5081.045566
 30
0.0
 11
1147.588847
 21
5081.045323
 31
0.0
  0
LINE
  8
1
  6
CONTINUOUS
 62
     6
  5
123
 10
1187.588835
 20
5083.045578
 30
0.0
 11
1147.588835
 21
5083.045323
 31
0.0
  0
LINE
  8
1
  6
CONTINUOUS
 62
     6
  5
124
 10
1187.588835
 20
5088.045578
 30
0.0
 11
1187.588835
 21
5068.045578
 31
0.0
  0
LINE
  8
1
  6
CONTINUOUS
 62
     6
  5
125
 10
1208.588835
 20
5088.045712
 30
0.0
 11
1187.588835
 21
5088.045578
 31
0.0
  0
LINE
  8
1
  6
CONTINUOUS
 62
     6
  5
126
 10
1208.588835
 20
5068.045712
 30
0.0
 11
1187.588835
 21
5068.045578
 31
0.0
  0
LINE
  8
1
  6
CONTINUOUS
 62
     6
  5
127
 10
1208.588835
 20
5088.045712
 30
0.0
 11
1208.588835
 21
5068.045712
 31
0.0
  0
LINE
  8
1
  6
CONTINUOUS
 62
     6
  5
128
 10
1147.588847
 20
5081.045323
 30
0.0
 11
1147.588847
 21
4420.046309
 31
0.0
  0
LINE
  8
1
  6
CONTINUOUS
 62
     6
  5
129
 10
1185.588835
 20
5081.045566
 30
0.0
 11
1185.588835
 21
4420.046309
 31
0.0
  0
LINE
  8
1
  6
CONTINUOUS
 62
     6
  5
12A
 10
1147.588847
 20
4420.046309
 30
0.0
 11
1185.588835
 21
4420.046309
 31
0.0
  0
LINE
  8
1
  6
CONTINUOUS
 62
     6
  5
12B
 10
1147.588835
 20
4418.046309
 30
0.0
 11
1187.588835
 21
4418.046309
 31
0.0
  0
LINE
  8
1
  6
CONTINUOUS
 62
     6
  5
12C
 10
1147.588835
 20
4418.046309
 30
0.0
 11
1147.588835
 21
4388.046309
 31
0.0
  0
LINE
  8
1
  6
CONTINUOUS
 62
     6
  5
12D
 10
1187.588835
 20
4413.046309
 30
0.0
 11
1208.588835
 21
4413.046309
 31
0.0
  0
LINE
  8
1
  6
CONTINUOUS
 62
     6
  5
12E
 10
1187.588835
 20
4433.046309
 30
0.0
 11
1187.588835
 21
4418.046309
 31
0.0
  0
LINE
  8
1
  6
CONTINUOUS
 62
     6
  5
12F
 10
1187.588835
 20
4433.046309
 30
0.0
 11
1208.588835
 21
4433.046309
 31
0.0
  0
LINE
  8
1
  6
CONTINUOUS
 62
     6
  5
130
 10
1208.588835
 20
4433.046309
 30
0.0
 11
1208.588835
 21
4413.046309
 31
0.0
  0
LINE
  8
1
  6
CONTINUOUS
 62
     6
  5
131
 10
1187.588835
 20
4418.046309
 30
0.0
 11
1187.588835
 21
4413.046309
 31
0.0
  0
LINE
  8
1
  6
CONTINUOUS
 62
     6
  5
132
 10
1287.588835
 20
5083.046216
 30
0.0
 11
1208.588835
 21
5083.045712
 31
0.0
  0
LINE
  8
1
  6
CONTINUOUS
 62
     6
  5
133
 10
1208.588835
 20
4418.046309
 30
0.0
 11
1287.588835
 21
4418.046309
 31
0.0
  0
LINE
  8
1
  6
CONTINUOUS
 62
     6
  5
134
 10
1287.588835
 20
4418.046309
 30
0.0
 11
1287.588835
 21
4388.046309
 31
0.0
  0
LINE
  8
1
  6
CONTINUOUS
 62
     6
  5
135
 10
1287.588835
 20
4388.046309
 30
0.0
 11
1147.588835
 21
4388.046309
 31
0.0
  0
ARC
  8
12
  6
CONTINUOUS
 62
     6
  5
136
 10
1641.088835
 20
4078.043978
 30
0.0
 40
110.0
 50
90.29024
 51
180.0
  0
ARC
  8
12
  6
CONTINUOUS
 62
     6
  5
137
 10
1661.919612
 20
4078.803413
 30
0.0
 40
101.40321
 50
101.854392
 51
186.090861
  0
LINE
  8
12
  6
CONTINUOUS
 62
     6
  5
138
 10
1640.531616
 20
4188.042567
 30
0.0
 11
1841.088835
 21
4188.043978
 31
0.0
  0
LINE
  8
12
  6
CONTINUOUS
 62
     6
  5
139
 10
1641.088835
 20
4178.043978
 30
0.0
 11
1841.088835
 21
4178.043978
 31
0.0
  0
LINE
  8
12
  6
CONTINUOUS
 62
     6
  5
13A
 10
1531.088835
 20
4078.043978
 30
0.0
 11
1531.088835
 21
3838.043978
 31
0.0
  0
LINE
  8
12
  6
CONTINUOUS
 62
     6
  5
13B
 10
2681.088834
 20
3818.043978
 30
0.0
 11
2681.08879
 21
4078.043978
 31
0.0
  0
LINE
  8
1
  6
CONTINUOUS
 62
     6
  5
13C
 10
2703.586835
 20
4557.974349
 30
0.0
 11
2692.584835
 21
4557.974349
 31
0.0
  0
LINE
  8
1
  6
CONTINUOUS
 62
     6
  5
13D
 10
2692.584835
 20
4669.972349
 30
0.0
 11
2703.586835
 21
4669.972349
 31
0.0
  0
LINE
  8
1
  6
CONTINUOUS
 62
     6
  5
13E
 10
2715.246835
 20
4666.942349
 30
0.0
 11
2715.463835
 21
4666.823349
 31
0.0
  0
ARC
  8
1
  6
CONTINUOUS
 62
     6
  5
13F
 10
2716.590835
 20
4591.975349
 30
0.0
 40
115.99999
 50
275.322
 51
309.63301
  0
ARC
  8
1
  6
CONTINUOUS
 62
     6
  5
140
 10
2279.614835
 20
5118.207349
 30
0.0
 40
799.99998
 50
309.695
 51
318.30601
  0
ARC
  8
1
  6
CONTINUOUS
 62
     6
  5
141
 10
2716.590835
 20
4635.971349
 30
0.0
 40
115.99999
 50
50.223007
 51
95.322204
  0
ARC
  8
1
  6
CONTINUOUS
 62
     6
  5
142
 10
2034.585835
 20
4613.973349
 30
0.0
 40
700.00006
 50
354.604
 51
5.656006
  0
ARC
  8
1
  6
CONTINUOUS
 62
     6
  5
143
 10
2716.590835
 20
4591.975349
 30
0.0
 40
88.999998
 50
290.09201
 51
305.79701
  0
ARC
  8
1
  6
CONTINUOUS
 62
     6
  5
144
 10
2837.589835
 20
4523.973349
 30
0.0
 40
39.999999
 50
112.1069
 51
131.91101
  0
ARC
  8
1
  6
CONTINUOUS
 62
     6
  5
145
 10
2632.756835
 20
5023.615349
 30
0.0
 40
499.99996
 50
292.277
 51
299.492
  0
ARC
  8
1
  6
CONTINUOUS
 62
     6
  5
146
 10
2476.874835
 20
4925.835349
 30
0.0
 40
499.99996
 50
305.65701
 51
311.91101
  0
ARC
  8
1
  6
CONTINUOUS
 62
     6
  5
147
 10
2673.588835
 20
4613.973349
 30
0.0
 40
120.0
 50
331.915
 51
28.073013
  0
ARC
  8
1
  6
CONTINUOUS
 62
     6
  5
148
 10
2845.589835
 20
4613.973349
 30
0.0
 40
41.999998
 50
318.21501
 51
41.698013
  0
ARC
  8
1
  6
CONTINUOUS
 62
     6
  5
149
 10
2703.586835
 20
4645.973349
 30
0.0
 40
23.999993
 50
60.925003
 51
90.0
  0
ARC
  8
1
  6
CONTINUOUS
 62
     6
  5
14A
 10
2686.599835
 20
5562.021349
 30
0.0
 40
999.99905
 50
276.218
 51
279.04901
  0
ARC
  8
1
  6
CONTINUOUS
 62
     6
  5
14B
 10
2716.590835
 20
4635.971349
 30
0.0
 40
88.999909
 50
54.203002
 51
69.908004
  0
ARC
  8
1
  6
CONTINUOUS
 62
     6
  5
14C
 10
2476.874835
 20
4302.111349
 30
0.0
 40
499.99897
 50
48.089004
 51
54.343002
  0
ARC
  8
1
  6
CONTINUOUS
 62
     6
  5
14D
 10
2685.270835
 20
4559.976349
 30
0.0
 40
30.000096
 50
291.90901
 51
355.083
  0
ARC
  8
1
  6
CONTINUOUS
 62
     6
  5
14E
 10
2057.584835
 20
4613.973349
 30
0.0
 40
660.0
 50
355.083
 51
4.917007
  0
ARC
  8
1
  6
CONTINUOUS
 62
     6
  5
14F
 10
2685.270835
 20
4667.971349
 30
0.0
 40
29.999901
 50
4.917007
 51
68.091003
  0
ARC
  8
1
  6
CONTINUOUS
 62
     6
  5
150
 10
2703.586835
 20
4581.974349
 30
0.0
 40
23.999993
 50
270.0
 51
299.66801
  0
ARC
  8
1
  6
CONTINUOUS
 62
     6
  5
151
 10
2797.079835
 20
4548.022349
 30
0.0
 40
20.000099
 50
96.218109
 51
151.8981
  0
ARC
  8
1
  6
CONTINUOUS
 62
     6
  5
152
 10
2797.079835
 20
4679.911349
 30
0.0
 40
19.999999
 50
208.10301
 51
263.78201
  0
ARC
  8
1
  6
CONTINUOUS
 62
     6
  5
153
 10
2837.589835
 20
4703.974349
 30
0.0
 40
39.999999
 50
228.089
 51
247.893
  0
LINE
  8
1
  6
CONTINUOUS
 62
     6
  5
154
 10
2832.452698
 20
4631.323978
 30
0.0
 11
2823.172698
 21
4615.263978
 31
0.0
  0
LINE
  8
1
  6
CONTINUOUS
 62
     6
  5
155
 10
2867.952697
 20
4615.263978
 30
0.0
 11
2864.432697
 21
4621.343978
 31
0.0
  0
LINE
  8
1
  6
CONTINUOUS
 62
     6
  5
156
 10
2858.672697
 20
4594.763979
 30
0.0
 11
2867.952697
 21
4610.823978
 31
0.0
  0
LINE
  8
1
  6
CONTINUOUS
 62
     6
  5
157
 10
2836.292698
 20
4592.543979
 30
0.0
 11
2854.832697
 21
4592.543979
 31
0.0
  0
LINE
  8
1
  6
CONTINUOUS
 62
     6
  5
158
 10
2823.172698
 20
4610.823978
 30
0.0
 11
2832.452698
 21
4594.763979
 31
0.0
  0
LINE
  8
1
  6
CONTINUOUS
 62
     6
  5
159
 10
2830.392698
 20
4634.783978
 30
0.0
 11
2819.152698
 21
4615.303978
 31
0.0
  0
LINE
  8
1
  6
CONTINUOUS
 62
     6
  5
15A
 10
2835.912698
 20
4637.043978
 30
0.0
 11
2834.332698
 21
4637.043978
 31
0.0
  0
LINE
  8
1
  6
CONTINUOUS
 62
     6
  5
15B
 10
2871.972697
 20
4615.303978
 30
0.0
 11
2865.772697
 21
4626.023978
 31
0.0
  0
LINE
  8
1
  6
CONTINUOUS
 62
     6
  5
15C
 10
2860.732697
 20
4591.303979
 30
0.0
 11
2871.972697
 21
4610.783978
 31
0.0
  0
LINE
  8
1
  6
CONTINUOUS
 62
     6
  5
15D
 10
2834.332698
 20
4589.043979
 30
0.0
 11
2856.792697
 21
4589.043979
 31
0.0
  0
LINE
  8
1
  6
CONTINUOUS
 62
     6
  5
15E
 10
2819.152698
 20
4610.783978
 30
0.0
 11
2830.392698
 21
4591.303979
 31
0.0
  0
LINE
  8
1
  6
CONTINUOUS
 62
     6
  5
15F
 10
3078.552692
 20
4720.543976
 30
0.0
 11
3080.552692
 21
4720.543976
 31
0.0
  0
LINE
  8
1
  6
CONTINUOUS
 62
     6
  5
160
 10
3065.452693
 20
4709.063976
 30
0.0
 11
3064.552693
 21
4705.303976
 31
0.0
  0
LINE
  8
1
  6
CONTINUOUS
 62
     6
  5
161
 10
3064.552693
 20
4681.043977
 30
0.0
 11
3064.552693
 21
4705.043976
 31
0.0
  0
LINE
  8
1
  6
CONTINUOUS
 62
     6
  5
162
 10
3065.452693
 20
4677.003977
 30
0.0
 11
3064.592693
 21
4680.623977
 31
0.0
  0
LINE
  8
1
  6
CONTINUOUS
 62
     6
  5
163
 10
2984.552694
 20
4681.043977
 30
0.0
 11
2988.772694
 21
4681.043977
 31
0.0
  0
LINE
  8
1
  6
CONTINUOUS
 62
     6
  5
164
 10
2984.552694
 20
4705.043976
 30
0.0
 11
2988.772694
 21
4705.043976
 31
0.0
  0
LINE
  8
1
  6
CONTINUOUS
 62
     6
  5
165
 10
3010.772694
 20
4680.803977
 30
0.0
 11
3016.312694
 21
4680.803977
 31
0.0
  0
LINE
  8
1
  6
CONTINUOUS
 62
     6
  5
166
 10
3010.772694
 20
4705.303976
 30
0.0
 11
3016.312694
 21
4705.303976
 31
0.0
  0
LINE
  8
1
  6
CONTINUOUS
 62
     6
  5
167
 10
3018.332694
 20
4705.643976
 30
0.0
 11
3027.772693
 21
4705.643976
 31
0.0
  0
LINE
  8
1
  6
CONTINUOUS
 62
     6
  5
168
 10
3018.332694
 20
4680.443977
 30
0.0
 11
3027.772693
 21
4680.443977
 31
0.0
  0
LINE
  8
1
  6
CONTINUOUS
 62
     6
  5
169
 10
2976.592695
 20
4681.403977
 30
0.0
 11
2972.552695
 21
4687.303977
 31
0.0
  0
LINE
  8
1
  6
CONTINUOUS
 62
     6
  5
16A
 10
2972.552695
 20
4698.783976
 30
0.0
 11
2976.612695
 21
4704.683976
 31
0.0
  0
LINE
  8
1
  6
CONTINUOUS
 62
     6
  5
16B
 10
2984.552694
 20
4680.283977
 30
0.0
 11
2984.552694
 21
4705.783976
 31
0.0
  0
LINE
  8
1
  6
CONTINUOUS
 62
     6
  5
16C
 10
2972.552695
 20
4687.283977
 30
0.0
 11
2972.552695
 21
4698.783976
 31
0.0
  0
LINE
  8
1
  6
CONTINUOUS
 62
     6
  5
16D
 10
2977.952695
 20
4680.023977
 30
0.0
 11
2984.232694
 21
4680.023977
 31
0.0
  0
LINE
  8
1
  6
CONTINUOUS
 62
     6
  5
16E
 10
2977.952695
 20
4706.023976
 30
0.0
 11
2984.232694
 21
4706.023976
 31
0.0
  0
LINE
  8
1
  6
CONTINUOUS
 62
     6
  5
16F
 10
2994.212694
 20
4754.043975
 30
0.0
 11
2994.212694
 21
4693.043976
 31
0.0
  0
LINE
  8
1
  6
CONTINUOUS
 62
     6
  5
170
 10
3006.912694
 20
4754.043975
 30
0.0
 11
3006.912694
 21
4693.043976
 31
0.0
  0
LINE
  8
1
  6
CONTINUOUS
 62
     6
  5
171
 10
3028.552693
 20
4705.043976
 30
0.0
 11
3028.552693
 21
4681.043977
 31
0.0
  0
LINE
  8
1
  6
CONTINUOUS
 62
     6
  5
172
 10
2987.972694
 20
4691.843977
 30
0.0
 11
2993.232694
 21
4682.723977
 31
0.0
  0
LINE
  8
1
  6
CONTINUOUS
 62
     6
  5
173
 10
2993.232694
 20
4703.343976
 30
0.0
 11
2987.972694
 21
4694.223976
 31
0.0
  0
LINE
  8
1
  6
CONTINUOUS
 62
     6
  5
174
 10
3013.152694
 20
4694.223976
 30
0.0
 11
3007.892694
 21
4703.343976
 31
0.0
  0
LINE
  8
1
  6
CONTINUOUS
 62
     6
  5
175
 10
3007.892694
 20
4682.723977
 30
0.0
 11
3013.152694
 21
4691.843977
 31
0.0
  0
LINE
  8
1
  6
CONTINUOUS
 62
     6
  5
176
 10
2995.292694
 20
4681.523977
 30
0.0
 11
3005.832694
 21
4681.523977
 31
0.0
  0
LINE
  8
1
  6
CONTINUOUS
 62
     6
  5
177
 10
2969.552695
 20
4697.903976
 30
0.0
 11
2969.552695
 21
4688.183977
 31
0.0
  0
LINE
  8
1
  6
CONTINUOUS
 62
     6
  5
178
 10
2969.552695
 20
4697.903976
 30
0.0
 11
2972.552695
 21
4697.903976
 31
0.0
  0
LINE
  8
1
  6
CONTINUOUS
 62
     6
  5
179
 10
2969.552695
 20
4688.183977
 30
0.0
 11
2972.552695
 21
4688.183977
 31
0.0
  0
LINE
  8
1
  6
CONTINUOUS
 62
     6
  5
17A
 10
3028.552693
 20
4703.343976
 30
0.0
 11
3064.552693
 21
4703.343976
 31
0.0
  0
LINE
  8
1
  6
CONTINUOUS
 62
     6
  5
17B
 10
3028.552693
 20
4682.743977
 30
0.0
 11
3064.552693
 21
4682.743977
 31
0.0
  0
LINE
  8
1
  6
CONTINUOUS
 62
     6
  5
17C
 10
2862.932697
 20
4734.963976
 30
0.0
 11
2853.172697
 21
4700.823976
 31
0.0
  0
LINE
  8
1
  6
CONTINUOUS
 62
     6
  5
17D
 10
2895.232696
 20
4725.743976
 30
0.0
 11
2885.472697
 21
4691.583977
 31
0.0
  0
LINE
  8
1
  6
CONTINUOUS
 62
     6
  5
17E
 10
2853.132697
 20
4697.303976
 30
0.0
 11
2830.292698
 21
4617.403978
 31
0.0
  0
LINE
  8
1
  6
CONTINUOUS
 62
     6
  5
17F
 10
2883.652697
 20
4688.583977
 30
0.0
 11
2860.832697
 21
4608.683978
 31
0.0
  0
LINE
  8
1
  6
CONTINUOUS
 62
     6
  5
180
 10
2863.112697
 20
4749.983975
 30
0.0
 11
2903.012696
 21
4738.583975
 31
0.0
  0
LINE
  8
1
  6
CONTINUOUS
 62
     6
  5
181
 10
2859.812697
 20
4738.463975
 30
0.0
 11
2899.712696
 21
4727.063976
 31
0.0
  0
LINE
  8
1
  6
CONTINUOUS
 62
     6
  5
182
 10
2862.192697
 20
4749.483975
 30
0.0
 11
2859.292697
 21
4739.363975
 31
0.0
  0
LINE
  8
1
  6
CONTINUOUS
 62
     6
  5
183
 10
2900.632696
 20
4727.563976
 30
0.0
 11
2903.532696
 21
4737.683975
 31
0.0
  0
LINE
  8
1
  6
CONTINUOUS
 62
     6
  5
184
 10
2860.832697
 20
4735.563976
 30
0.0
 11
2897.332696
 21
4725.123976
 31
0.0
  0
LINE
  8
1
  6
CONTINUOUS
 62
     6
  5
185
 10
2860.132697
 20
4736.823976
 30
0.0
 11
2860.532697
 21
4738.243975
 31
0.0
  0
LINE
  8
1
  6
CONTINUOUS
 62
     6
  5
186
 10
2898.592696
 20
4725.843976
 30
0.0
 11
2898.992696
 21
4727.243976
 31
0.0
  0
LINE
  8
1
  6
CONTINUOUS
 62
     6
  5
187
 10
2860.132697
 20
4736.823976
 30
0.0
 11
2860.832697
 21
4735.563976
 31
0.0
  0
LINE
  8
1
  6
CONTINUOUS
 62
     6
  5
188
 10
2897.332696
 20
4725.123976
 30
0.0
 11
2898.592696
 21
4725.843976
 31
0.0
  0
LINE
  8
1
  6
CONTINUOUS
 62
     6
  5
189
 10
2866.852697
 20
4782.203974
 30
0.0
 11
2916.852696
 21
4767.903975
 31
0.0
  0
LINE
  8
1
  6
CONTINUOUS
 62
     6
  5
18A
 10
2871.252697
 20
4797.583974
 30
0.0
 11
2921.252696
 21
4783.303974
 31
0.0
  0
LINE
  8
1
  6
CONTINUOUS
 62
     6
  5
18B
 10
2907.112696
 20
4770.683975
 30
0.0
 11
2898.332696
 21
4739.923975
 31
0.0
  0
LINE
  8
1
  6
CONTINUOUS
 62
     6
  5
18C
 10
2876.592697
 20
4779.403975
 30
0.0
 11
2867.792697
 21
4748.643975
 31
0.0
  0
LINE
  8
1
  6
CONTINUOUS
 62
     6
  5
18D
 10
2894.092696
 20
4840.703973
 30
0.0
 11
2880.992697
 21
4794.803974
 31
0.0
  0
LINE
  8
1
  6
CONTINUOUS
 62
     6
  5
18E
 10
2919.772696
 20
4815.023974
 30
0.0
 11
2911.512696
 21
4786.083974
 31
0.0
  0
LINE
  8
1
  6
CONTINUOUS
 62
     6
  5
18F
 10
3054.552693
 20
4769.043975
 30
0.0
 11
2977.772695
 21
4769.043975
 31
0.0
  0
LINE
  8
1
  6
CONTINUOUS
 62
     6
  5
190
 10
2746.5527
 20
5000.26397
 30
0.0
 11
2746.5527
 21
5077.043968
 31
0.0
  0
LINE
  8
1
  6
CONTINUOUS
 62
     6
  5
191
 10
3033.172693
 20
4801.043974
 30
0.0
 11
2985.972694
 21
4801.043974
 31
0.0
  0
LINE
  8
1
  6
CONTINUOUS
 62
     6
  5
192
 10
2778.552699
 20
5008.463969
 30
0.0
 11
2778.552699
 21
5056.043968
 31
0.0
  0
LINE
  8
1
  6
CONTINUOUS
 62
     6
  5
193
 10
2957.272695
 20
4777.543975
 30
0.0
 11
2755.0527
 21
4979.74397
 31
0.0
  0
LINE
  8
1
  6
CONTINUOUS
 62
     6
  5
194
 10
3011.032694
 20
4766.043975
 30
0.0
 11
3011.032694
 21
4769.043975
 31
0.0
  0
LINE
  8
1
  6
CONTINUOUS
 62
     6
  5
195
 10
2990.092694
 20
4766.043975
 30
0.0
 11
2990.092694
 21
4769.043975
 31
0.0
  0
LINE
  8
1
  6
CONTINUOUS
 62
     6
  5
196
 10
2989.552694
 20
4766.043975
 30
0.0
 11
3011.552694
 21
4766.043975
 31
0.0
  0
LINE
  8
1
  6
CONTINUOUS
 62
     6
  5
197
 10
2989.552694
 20
4754.043975
 30
0.0
 11
3011.552694
 21
4754.043975
 31
0.0
  0
LINE
  8
1
  6
CONTINUOUS
 62
     6
  5
198
 10
2989.052694
 20
4754.903975
 30
0.0
 11
2989.052694
 21
4765.183975
 31
0.0
  0
LINE
  8
1
  6
CONTINUOUS
 62
     6
  5
199
 10
3012.052694
 20
4754.903975
 30
0.0
 11
3012.052694
 21
4765.183975
 31
0.0
  0
LINE
  8
1
  6
CONTINUOUS
 62
     6
  5
19A
 10
2842.172698
 20
4892.643972
 30
0.0
 11
2832.452698
 21
4882.543972
 31
0.0
  0
LINE
  8
1
  6
CONTINUOUS
 62
     6
  5
19B
 10
2860.052697
 20
4854.923973
 30
0.0
 11
2870.152697
 21
4864.663973
 31
0.0
  0
LINE
  8
1
  6
CONTINUOUS
 62
     6
  5
19C
 10
2858.652697
 20
4854.943973
 30
0.0
 11
2832.452698
 21
4881.123972
 31
0.0
  0
LINE
  8
1
  6
CONTINUOUS
 62
     6
  5
19D
 10
2993.832694
 20
4705.463976
 30
0.0
 11
2994.212694
 21
4705.523976
 31
0.0
  0
ARC
  8
1
  6
CONTINUOUS
 62
     6
  5
19E
 10
2845.552697
 20
4613.043978
 30
0.0
 40
22.499999
 50
118.93
 51
125.66
  0
ARC
  8
1
  6
CONTINUOUS
 62
     6
  5
19F
 10
2845.552697
 20
4613.043978
 30
0.0
 40
22.499999
 50
354.35
 51
5.66
  0
ARC
  8
1
  6
CONTINUOUS
 62
     6
  5
1A0
 10
2845.552697
 20
4613.043978
 30
0.0
 40
22.499999
 50
294.35
 51
305.66
  0
ARC
  8
1
  6
CONTINUOUS
 62
     6
  5
1A1
 10
2845.552697
 20
4613.043978
 30
0.0
 40
22.499999
 50
234.35
 51
245.66
  0
ARC
  8
1
  6
CONTINUOUS
 62
     6
  5
1A2
 10
2845.552697
 20
4613.043978
 30
0.0
 40
22.499999
 50
174.35
 51
185.66
  0
ARC
  8
1
  6
CONTINUOUS
 62
     6
  5
1A3
 10
2845.552697
 20
4613.043978
 30
0.0
 40
16.24
 50
151.72
 51
356.39
  0
ARC
  8
1
  6
CONTINUOUS
 62
     6
  5
1A4
 10
2845.552697
 20
4613.043978
 30
0.0
 40
31.999999
 50
103.8
 51
44.32
  0
ARC
  8
1
  6
CONTINUOUS
 62
     6
  5
1A5
 10
2845.552697
 20
4613.043978
 30
0.0
 40
26.499999
 50
110.86
 51
37.26
  0
ARC
  8
1
  6
CONTINUOUS
 62
     6
  5
1A6
 10
3078.552692
 20
4707.543976
 30
0.0
 40
13.0
 50
90.0
 51
159.54
  0
ARC
  8
1
  6
CONTINUOUS
 62
     6
  5
1A7
 10
3090.092692
 20
4703.243976
 30
0.0
 40
25.279999
 50
159.54
 51
166.68
  0
ARC
  8
1
  6
CONTINUOUS
 62
     6
  5
1A8
 10
3066.352693
 20
4705.043976
 30
0.0
 40
1.8
 50
166.67
 51
180.0
  0
ARC
  8
1
  6
CONTINUOUS
 62
     6
  5
1A9
 10
3066.352693
 20
4681.043977
 30
0.0
 40
1.78
 50
180.0
 51
193.34
  0
ARC
  8
1
  6
CONTINUOUS
 62
     6
  5
1AA
 10
3090.092692
 20
4682.843977
 30
0.0
 40
25.279999
 50
193.33
 51
200.47
  0
ARC
  8
1
  6
CONTINUOUS
 62
     6
  5
1AB
 10
3078.552692
 20
4678.543977
 30
0.0
 40
13.0
 50
200.47
 51
270.0
  0
ARC
  8
1
  6
CONTINUOUS
 62
     6
  5
1AC
 10
3000.552694
 20
4720.043976
 30
0.0
 40
39.979999
 50
260.31
 51
278.4
  0
ARC
  8
1
  6
CONTINUOUS
 62
     6
  5
1AD
 10
2988.772694
 20
4651.043977
 30
0.0
 40
29.999999
 50
80.31
 51
90.0
  0
ARC
  8
1
  6
CONTINUOUS
 62
     6
  5
1AE
 10
3010.772694
 20
4650.803977
 30
0.0
 40
29.999999
 50
90.0
 51
98.4
  0
ARC
  8
1
  6
CONTINUOUS
 62
     6
  5
1AF
 10
3016.312694
 20
4674.803977
 30
0.0
 40
6.0
 50
70.34
 51
90.0
  0
ARC
  8
1
  6
CONTINUOUS
 62
     6
  5
1B0
 10
3010.772694
 20
4735.303976
 30
0.0
 40
29.999999
 50
262.59
 51
270.0
  0
ARC
  8
1
  6
CONTINUOUS
 62
     6
  5
1B1
 10
3016.312694
 20
4711.303976
 30
0.0
 40
5.98
 50
270.0
 51
289.67
  0
ARC
  8
1
  6
CONTINUOUS
 62
     6
  5
1B2
 10
2988.772694
 20
4735.043976
 30
0.0
 40
29.979999
 50
270.0
 51
279.7
  0
ARC
  8
1
  6
CONTINUOUS
 62
     6
  5
1B3
 10
3023.152694
 20
4698.743976
 30
0.0
 40
8.28
 50
49.39
 51
56.25
  0
ARC
  8
1
  6
CONTINUOUS
 62
     6
  5
1B4
 10
3023.152694
 20
4687.343977
 30
0.0
 40
8.3
 50
303.73
 51
310.62
  0
ARC
  8
1
  6
CONTINUOUS
 62
     6
  5
1B5
 10
2981.092694
 20
4684.483977
 30
0.0
 40
5.42
 50
214.5
 51
234.7
  0
ARC
  8
1
  6
CONTINUOUS
 62
     6
  5
1B6
 10
2981.092694
 20
4701.603976
 30
0.0
 40
5.42
 50
50.37
 51
54.7
  0
ARC
  8
1
  6
CONTINUOUS
 62
     6
  5
1B7
 10
2981.092694
 20
4701.603976
 30
0.0
 40
5.42
 50
125.31
 51
145.51
  0
ARC
  8
1
  6
CONTINUOUS
 62
     6
  5
1B8
 10
2981.092694
 20
4684.483977
 30
0.0
 40
5.42
 50
305.31
 51
309.64
  0
ARC
  8
1
  6
CONTINUOUS
 62
     6
  5
1B9
 10
3000.552694
 20
4693.043976
 30
0.0
 40
6.34
 50
180.0
 51
0.0
  0
ARC
  8
1
  6
CONTINUOUS
 62
     6
  5
1BA
 10
3000.552694
 20
4693.043976
 30
0.0
 40
12.64
 50
174.63
 51
185.39
  0
ARC
  8
1
  6
CONTINUOUS
 62
     6
  5
1BB
 10
3000.552694
 20
4693.043976
 30
0.0
 40
12.64
 50
120.14
 51
125.38
  0
ARC
  8
1
  6
CONTINUOUS
 62
     6
  5
1BC
 10
3000.552694
 20
4693.043976
 30
0.0
 40
12.64
 50
54.63
 51
59.88
  0
ARC
  8
1
  6
CONTINUOUS
 62
     6
  5
1BD
 10
3000.552694
 20
4693.043976
 30
0.0
 40
12.64
 50
294.62
 51
305.39
  0
ARC
  8
1
  6
CONTINUOUS
 62
     6
  5
1BE
 10
3000.552694
 20
4693.043976
 30
0.0
 40
12.64
 50
234.62
 51
245.39
  0
ARC
  8
1
  6
CONTINUOUS
 62
     6
  5
1BF
 10
3000.552694
 20
4693.043976
 30
0.0
 40
12.64
 50
354.62
 51
5.39
  0
ARC
  8
1
  6
CONTINUOUS
 62
     6
  5
1C0
 10
2856.732697
 20
4699.803976
 30
0.0
 40
3.68
 50
164.06
 51
194.53
  0
ARC
  8
1
  6
CONTINUOUS
 62
     6
  5
1C1
 10
2850.252697
 20
4698.123976
 30
0.0
 40
3.0
 50
344.06
 51
14.52
  0
ARC
  8
1
  6
CONTINUOUS
 62
     6
  5
1C2
 10
2881.912697
 20
4692.623976
 30
0.0
 40
3.7
 50
313.6
 51
344.06
  0
ARC
  8
1
  6
CONTINUOUS
 62
     6
  5
1C3
 10
2886.532697
 20
4687.763977
 30
0.0
 40
2.98
 50
133.59
 51
164.06
  0
ARC
  8
1
  6
CONTINUOUS
 62
     6
  5
1C4
 10
2845.552697
 20
4613.043978
 30
0.0
 40
15.86
 50
164.06
 51
344.06
  0
ARC
  8
1
  6
CONTINUOUS
 62
     6
  5
1C5
 10
2896.392696
 20
4734.243976
 30
0.0
 40
7.92
 50
25.69
 51
33.31
  0
ARC
  8
1
  6
CONTINUOUS
 62
     6
  5
1C6
 10
2866.432697
 20
4742.803975
 30
0.0
 40
7.92
 50
205.69
 51
213.31
  0
ARC
  8
1
  6
CONTINUOUS
 62
     6
  5
1C7
 10
2896.392696
 20
4734.243976
 30
0.0
 40
7.92
 50
294.81
 51
302.43
  0
ARC
  8
1
  6
CONTINUOUS
 62
     6
  5
1C8
 10
2866.432697
 20
4742.803975
 30
0.0
 40
7.92
 50
114.81
 51
122.43
  0
ARC
  8
1
  6
CONTINUOUS
 62
     6
  5
1C9
 10
2869.052697
 20
4789.903974
 30
0.0
 40
7.98
 50
74.06
 51
254.06
  0
ARC
  8
1
  6
CONTINUOUS
 62
     6
  5
1CA
 10
2919.052696
 20
4775.603975
 30
0.0
 40
7.98
 50
254.06
 51
74.06
  0
ARC
  8
1
  6
CONTINUOUS
 62
     6
  5
1CB
 10
2894.052696
 20
4782.743974
 30
0.0
 40
20.0
 50
140.48
 51
187.64
  0
ARC
  8
1
  6
CONTINUOUS
 62
     6
  5
1CC
 10
2894.052696
 20
4782.743974
 30
0.0
 40
20.0
 50
320.48
 51
7.64
  0
ARC
  8
1
  6
CONTINUOUS
 62
     6
  5
1CD
 10
2894.052696
 20
4782.743974
 30
0.0
 40
26.479999
 50
110.86
 51
146.49
  0
ARC
  8
1
  6
CONTINUOUS
 62
     6
  5
1CE
 10
2894.052696
 20
4782.743974
 30
0.0
 40
26.479999
 50
290.86
 51
326.49
  0
ARC
  8
1
  6
CONTINUOUS
 62
     6
  5
1CF
 10
2894.052696
 20
4782.743974
 30
0.0
 40
26.479999
 50
1.63
 51
37.26
  0
ARC
  8
1
  6
CONTINUOUS
 62
     6
  5
1D0
 10
2894.052696
 20
4782.743974
 30
0.0
 40
26.479999
 50
181.63
 51
217.26
  0
ARC
  8
1
  6
CONTINUOUS
 62
     6
  5
1D1
 10
2793.552699
 20
5056.043968
 30
0.0
 40
15.0
 50
174.84
 51
180.0
  0
ARC
  8
1
  6
CONTINUOUS
 62
     6
  5
1D2
 10
3054.552693
 20
4795.043974
 30
0.0
 40
25.999999
 50
270.0
 51
0.0
  0
ARC
  8
1
  6
CONTINUOUS
 62
     6
  5
1D3
 10
2772.552699
 20
5077.043968
 30
0.0
 40
25.999999
 50
90.0
 51
180.0
  0
ARC
  8
1
  6
CONTINUOUS
 62
     6
  5
1D4
 10
2977.772695
 20
4798.043974
 30
0.0
 40
28.999999
 50
225.0
 51
270.0
  0
ARC
  8
1
  6
CONTINUOUS
 62
     6
  5
1D5
 10
2775.552699
 20
5000.26397
 30
0.0
 40
28.979999
 50
180.0
 51
225.0
  0
ARC
  8
1
  6
CONTINUOUS
 62
     6
  5
1D6
 10
3033.172693
 20
4826.043974
 30
0.0
 40
24.999999
 50
270.0
 51
355.58
  0
ARC
  8
1
  6
CONTINUOUS
 62
     6
  5
1D7
 10
2803.552698
 20
5055.663968
 30
0.0
 40
24.999999
 50
94.43
 51
180.0
  0
ARC
  8
1
  6
CONTINUOUS
 62
     6
  5
1D8
 10
2740.4527
 20
4762.923975
 30
0.0
 40
349.999992
 50
46.04
 51
59.68
  0
CIRCLE
  8
1
  6
CONTINUOUS
 62
     6
  5
1D9
 10
2938.552695
 20
4961.04397
 30
0.0
 40
7.5
  0
LINE
  8
1
  6
CONTINUOUS
 62
     6
  5
1DA
 10
2953.452695
 20
4813.083974
 30
0.0
 11
2790.592699
 21
4975.92397
 31
0.0
  0
ARC
  8
1
  6
CONTINUOUS
 62
     6
  5
1DB
 10
2985.972694
 20
4851.043973
 30
0.0
 40
49.999999
 50
229.41
 51
270.0
  0
ARC
  8
1
  6
CONTINUOUS
 62
     6
  5
1DC
 10
2828.552698
 20
5008.463969
 30
0.0
 40
49.979999
 50
180.0
 51
220.6
  0
ARC
  8
1
  6
CONTINUOUS
 62
     6
  5
1DD
 10
2998.972694
 20
4760.043975
 30
0.0
 40
11.16
 50
207.38
 51
212.53
  0
ARC
  8
1
  6
CONTINUOUS
 62
     6
  5
1DE
 10
3002.152694
 20
4760.043975
 30
0.0
 40
11.16
 50
27.38
 51
32.53
  0
ARC
  8
1
  6
CONTINUOUS
 62
     6
  5
1DF
 10
2998.972694
 20
4760.043975
 30
0.0
 40
11.16
 50
147.48
 51
152.63
  0
ARC
  8
1
  6
CONTINUOUS
 62
     6
  5
1E0
 10
3002.152694
 20
4760.043975
 30
0.0
 40
11.16
 50
327.48
 51
332.63
  0
ARC
  8
1
  6
CONTINUOUS
 62
     6
  5
1E1
 10
2833.172698
 20
4881.843972
 30
0.0
 40
0.98
 50
136.1
 51
225.0
  0
ARC
  8
1
  6
CONTINUOUS
 62
     6
  5
1E2
 10
2859.352697
 20
4855.663973
 30
0.0
 40
1.0
 50
225.0
 51
313.9
  0
ARC
  8
1
  6
CONTINUOUS
 62
     6
  5
1E3
 10
2849.112697
 20
4871.603972
 30
0.0
 40
9.02
 50
173.72
 51
276.29
  0
ARC
  8
1
  6
CONTINUOUS
 62
     6
  5
1E4
 10
2970.132695
 20
4992.60397
 30
0.0
 40
6.52
 50
201.69
 51
248.33
  0
ARC
  8
1
  6
CONTINUOUS
 62
     6
  5
1E5
 10
2970.112695
 20
4992.12397
 30
0.0
 40
6.02
 50
296.56
 51
314.98
  0
ARC
  8
1
  6
CONTINUOUS
 62
     6
  5
1E6
 10
2970.052695
 20
4992.34397
 30
0.0
 40
6.24
 50
248.14
 51
272.25
  0
ARC
  8
1
  6
CONTINUOUS
 62
     6
  5
1E7
 10
2970.092695
 20
4992.20397
 30
0.0
 40
6.1
 50
272.0
 51
296.38
  0
ARC
  8
1
  6
CONTINUOUS
 62
     6
  5
1E8
 10
2969.652695
 20
4992.58397
 30
0.0
 40
6.02
 50
135.02
 51
153.45
  0
ARC
  8
1
  6
CONTINUOUS
 62
     6
  5
1E9
 10
2969.872695
 20
4992.52397
 30
0.0
 40
6.24
 50
177.76
 51
201.86
  0
ARC
  8
1
  6
CONTINUOUS
 62
     6
  5
1EA
 10
2969.732695
 20
4992.56397
 30
0.0
 40
6.1
 50
153.63
 51
178.01
  0
LINE
  8
1
  6
CONTINUOUS
 62
     6
  5
1EB
 10
3090.552692
 20
4693.043976
 30
0.0
 11
3070.552692
 21
4693.043976
 31
0.0
  0
ARC
  8
1
  6
CONTINUOUS
 62
     6
  5
1EC
 10
2279.614835
 20
4109.743349
 30
0.0
 40
799.99998
 50
41.694
 51
42.236338
  0
ARC
  8
1
  6
CONTINUOUS
 62
     6
  5
1ED
 10
2279.614835
 20
4109.743349
 30
0.0
 40
799.99998
 50
44.875528
 51
50.305007
  0
ARC
  8
1
  6
CONTINUOUS
 62
     6
  5
1EE
 10
2632.756835
 20
4204.335349
 30
0.0
 40
499.99897
 50
60.50801
 51
61.5553
  0
ARC
  8
1
  6
CONTINUOUS
 62
     6
  5
1EF
 10
2632.756835
 20
4204.335349
 30
0.0
 40
499.99897
 50
65.258122
 51
67.723007
  0
ARC
  8
1
  6
CONTINUOUS
 62
     6
  5
1F0
 10
2837.589835
 20
4613.973349
 30
0.0
 40
39.999999
 50
279.04901
 51
37.544447
  0
ARC
  8
1
  6
CONTINUOUS
 62
     6
  5
1F1
 10
2686.599835
 20
3665.922349
 30
0.0
 40
999.99905
 50
81.132756
 51
83.782012
  0
LINE
  8
3
  6
CONTINUOUS
 62
     2
  5
1F2
 10
2687.588835
 20
4151.714329
 30
0.0
 11
2687.588835
 21
4123.840138
 31
0.0
  0
LINE
  8
2
  6
CONTINUOUS
 62
     2
  5
1F3
 10
2703.588784
 20
4097.043931
 30
0.0
 11
3103.588835
 21
4097.043931
 31
0.0
  0
LINE
  8
2
  6
CONTINUOUS
 62
     2
  5
1F4
 10
2703.588835
 20
3807.043978
 30
0.0
 11
2703.588786
 21
4097.043931
 31
0.0
  0
LINE
  8
2
  6
CONTINUOUS
 62
     2
  5
1F5
 10
3117.588835
 20
3783.043978
 30
0.0
 11
2777.588784
 21
4033.043931
 31
0.0
  0
LINE
  8
2
  6
CONTINUOUS
 62
     2
  5
1F6
 10
3117.588784
 20
4033.043931
 30
0.0
 11
2777.588835
 21
3783.043978
 31
0.0
  0
LINE
  8
2
  6
DOT
 62
     2
  5
1F7
 10
2387.588835
 20
4476.974707
 30
0.0
 11
2387.588835
 21
4749.113249
 31
0.0
  0
LINE
  8
2
  6
CONTINUOUS
 62
     2
  5
1F8
 10
2687.588835
 20
4113.043978
 30
0.0
 11
2687.588835
 21
4476.471349
 31
0.0
  0
LINE
  8
2
  6
CONTINUOUS
 62
     2
  5
1F9
 10
2787.588835
 20
4113.043978
 30
0.0
 11
2787.588835
 21
4500.240504
 31
0.0
  0
LINE
  8
2
  6
CONTINUOUS
 62
     2
  5
1FA
 10
1187.588835
 20
5088.045578
 30
0.0
 11
1208.588835
 21
5068.045712
 31
0.0
  0
LINE
  8
2
  6
CONTINUOUS
 62
     2
  5
1FB
 10
1147.588835
 20
5107.729364
 30
0.0
 11
1151.977568
 21
5113.045351
 31
0.0
  0
LINE
  8
2
  6
CONTINUOUS
 62
     2
  5
1FC
 10
1153.145469
 20
5083.045359
 30
0.0
 11
1177.912779
 21
5113.045517
 31
0.0
  0
LINE
  8
2
  6
CONTINUOUS
 62
     2
  5
1FD
 10
1179.08068
 20
5083.045524
 30
0.0
 11
1203.847991
 21
5113.045682
 31
0.0
  0
LINE
  8
2
  6
CONTINUOUS
 62
     2
  5
1FE
 10
1208.588835
 20
5081.855192
 30
0.0
 11
1202.088788
 21
5088.045671
 31
0.0
  0
LINE
  8
2
  6
CONTINUOUS
 62
     2
  5
1FF
 10
1229.783202
 20
5113.045848
 30
0.0
 11
1208.588835
 21
5087.373526
 31
0.0
  0
LINE
  8
2
  6
CONTINUOUS
 62
     2
  5
200
 10
1194.088881
 20
5068.04562
 30
0.0
 11
1187.588835
 21
5074.236099
 31
0.0
  0
LINE
  8
2
  6
CONTINUOUS
 62
     2
  5
201
 10
1187.588835
 20
4433.046309
 30
0.0
 11
1208.588835
 21
4413.046309
 31
0.0
  0
LINE
  8
2
  6
CONTINUOUS
 62
     2
  5
202
 10
1202.088835
 20
4433.046309
 30
0.0
 11
1208.588835
 21
4426.855833
 31
0.0
  0
LINE
  8
2
  6
CONTINUOUS
 62
     2
  5
203
 10
1194.088835
 20
4413.046309
 30
0.0
 11
1187.588835
 21
4419.236785
 31
0.0
  0
LINE
  8
2
  6
CONTINUOUS
 62
     2
  5
204
 10
1147.588835
 20
4412.729329
 30
0.0
 11
1151.978388
 21
4418.046309
 31
0.0
  0
LINE
  8
2
  6
CONTINUOUS
 62
     2
  5
205
 10
1153.146282
 20
4388.046309
 30
0.0
 11
1177.913462
 21
4418.046309
 31
0.0
  0
LINE
  8
2
  6
CONTINUOUS
 62
     2
  5
206
 10
1205.016431
 20
4388.046309
 30
0.0
 11
1229.783611
 21
4418.046309
 31
0.0
  0
LINE
  8
2
  6
CONTINUOUS
 62
     2
  5
207
 10
1230.951506
 20
4388.046309
 30
0.0
 11
1255.718686
 21
4418.046309
 31
0.0
  0
LINE
  8
2
  6
CONTINUOUS
 62
     2
  5
208
 10
1256.88658
 20
4388.046309
 30
0.0
 11
1281.65376
 21
4418.046309
 31
0.0
  0
LINE
  8
2
  6
CONTINUOUS
 62
     2
  5
209
 10
1179.081357
 20
4388.046309
 30
0.0
 11
1199.720673
 21
4413.046309
 31
0.0
  0
LINE
  8
2
  6
CONTINUOUS
 62
     2
  5
20A
 10
1282.821655
 20
4388.046309
 30
0.0
 11
1287.588835
 21
4393.820701
 31
0.0
  0
LINE
  8
2
  6
CONTINUOUS
 62
     2
  5
20B
 10
2237.592711
 20
4613.043978
 30
0.0
 11
1185.588835
 21
4613.043978
 31
0.0
  0
LINE
  8
2
  6
CONTINUOUS
 62
     2
  5
20C
 10
2313.355579
 20
4713.043978
 30
0.0
 11
1185.588835
 21
4713.043978
 31
0.0
  0
LINE
  8
2
  6
CONTINUOUS
 62
     2
  5
20D
 10
2315.727188
 20
4513.043978
 30
0.0
 11
1185.588835
 21
4513.043978
 31
0.0
  0
LINE
  8
3
  6
CONTINUOUS
 62
     2
  5
20E
 10
2687.588835
 20
4163.043978
 30
0.0
 11
2687.588835
 21
4113.043978
 31
0.0
  0
LINE
  8
3
  6
CONTINUOUS
 62
     2
  5
20F
 10
3087.588835
 20
4163.043978
 30
0.0
 11
3087.588835
 21
4113.043978
 31
0.0
  0
LINE
  8
2
  6
CONTINUOUS
 62
     2
  5
210
 10
2687.588835
 20
4751.476349
 30
0.0
 11
2687.588835
 21
5118.042997
 31
0.0
  0
LINE
  8
2
  6
CONTINUOUS
 62
     2
  5
211
 10
2887.588835
 20
4113.043978
 30
0.0
 11
2887.588835
 21
4698.99046
 31
0.0
  0
LINE
  8
2
  6
CONTINUOUS
 62
     2
  5
212
 10
2804.998807
 20
4713.043978
 30
0.0
 11
2856.666172
 21
4713.043978
 31
0.0
  0
LINE
  8
2
  6
CONTINUOUS
 62
     2
  5
213
 10
2987.588835
 20
4113.043978
 30
0.0
 11
2987.588835
 21
4681.043977
 31
0.0
  0
LINE
  8
2
  6
CONTINUOUS
 62
     2
  5
214
 10
2891.604126
 20
4713.043978
 30
0.0
 11
2994.212694
 21
4713.043978
 31
0.0
  0
LINE
  8
2
  6
CONTINUOUS
 62
     2
  5
215
 10
3006.912694
 20
4713.043978
 30
0.0
 11
3066.773475
 21
4713.043978
 31
0.0
  0
LINE
  8
2
  6
CONTINUOUS
 62
     2
  5
216
 10
3080.552692
 20
4713.043978
 30
0.0
 11
3087.588835
 21
4713.043978
 31
0.0
  0
LINE
  8
2
  6
CONTINUOUS
 62
     2
  5
217
 10
2787.588835
 20
4727.706193
 30
0.0
 11
2787.588835
 21
4947.211053
 31
0.0
  0
LINE
  8
2
  6
CONTINUOUS
 62
     2
  5
218
 10
2787.588835
 20
5103.043967
 30
0.0
 11
2787.588835
 21
5118.042997
 31
0.0
  0
LINE
  8
2
  6
CONTINUOUS
 62
     2
  5
219
 10
2887.588835
 20
4817.915633
 30
0.0
 11
2887.588835
 21
4847.220943
 31
0.0
  0
LINE
  8
2
  6
CONTINUOUS
 62
     2
  5
21A
 10
2887.588835
 20
5103.043967
 30
0.0
 11
2887.588835
 21
5118.042997
 31
0.0
  0
LINE
  8
2
  6
CONTINUOUS
 62
     2
  5
21B
 10
2987.588835
 20
4705.043976
 30
0.0
 11
2987.588835
 21
4769.043975
 31
0.0
  0
LINE
  8
2
  6
CONTINUOUS
 62
     2
  5
21C
 10
2987.588835
 20
5103.043967
 30
0.0
 11
2987.588835
 21
5118.042997
 31
0.0
  0
LINE
  8
2
  6
CONTINUOUS
 62
     2
  5
21D
 10
1185.588835
 20
4913.043978
 30
0.0
 11
2821.759289
 21
4913.043978
 31
0.0
  0
LINE
  8
2
  6
CONTINUOUS
 62
     2
  5
21E
 10
1185.588835
 20
4813.043978
 30
0.0
 11
2886.198449
 21
4813.043978
 31
0.0
  0
LINE
  8
2
  6
CONTINUOUS
 62
     2
  5
21F
 10
3080.552692
 20
4813.043978
 30
0.0
 11
3087.588835
 21
4813.043978
 31
0.0
  0
LINE
  8
2
  6
CONTINUOUS
 62
     2
  5
220
 10
1272.588835
 20
4418.046309
 30
0.0
 11
1272.588835
 21
5083.046216
 31
0.0
  0
TEXT
  8
2
  6
CONTINUOUS
 62
     2
  5
221
 10
2900.86234
 20
3856.538595
 30
0.0
 40
60.0
  1
PS
 41
0.75
  7

 72
     5
 11
2990.86234
 21
3856.538595
 31
0.0
  0
LINE
  8
1
  6
CONTINUOUS
 62
     6
  5
222
 10
2097.58872
 20
5118.042997
 30
0.0
 11
2092.588721
 21
5118.042997
 31
0.0
  0
LINE
  8
1
  6
CONTINUOUS
 62
     6
  5
223
 10
1571.588839
 20
5333.042985
 30
0.0
 11
1571.588839
 21
5318.042985
 31
0.0
  0
LINE
  8
1
  6
CONTINUOUS
 62
     6
  5
224
 10
2073.588723
 20
5333.042985
 30
0.0
 11
2073.588723
 21
5318.042985
 31
0.0
  0
ARC
  8
12
  6
CONTINUOUS
 62
     6
  5
225
 10
1841.088835
 20
4078.043978
 30
0.0
 40
110.0
 50
360.0
 51
90.0
  0
ARC
  8
12
  6
CONTINUOUS
 62
     6
  5
226
 10
1741.088835
 20
4068.043978
 30
0.0
 40
180.0
 50
180.0
 51
360.0
  0
ARC
  8
12
  6
CONTINUOUS
 62
     6
  5
227
 10
1820.258058
 20
4078.803413
 30
0.0
 40
101.40321
 50
353.909139
 51
78.145608
  0
LINE
  8
12
  6
DOT
 62
     6
  5
228
 10
1531.088835
 20
4078.043978
 30
0.0
 11
1951.088835
 21
4078.043978
 31
0.0
  0
CIRCLE
  8
12
  6
CONTINUOUS
 62
     6
  5
229
 10
1741.088835
 20
3993.043978
 30
0.0
 40
7.5
  0
LINE
  8
1
  6
CONTINUOUS
 62
     6
  5
22A
 10
1552.588841
 20
5433.042957
 30
0.0
 11
1552.588841
 21
5413.042959
 31
0.0
  0
LINE
  8
1
  6
CONTINUOUS
 62
     6
  5
22B
 10
2092.588721
 20
5433.042957
 30
0.0
 11
2092.588721
 21
5413.237663
 31
0.0
  0
LINE
  8
5
  6
CONTINUOUS
 62
     4
  5
22C
 10
1527.588844
 20
5143.04299
 30
0.0
 11
1527.588844
 21
5333.042985
 31
0.0
  0
LINE
  8
5
  6
CONTINUOUS
 62
     4
  5
22D
 10
1562.588839
 20
5333.042985
 30
0.0
 11
1527.588844
 21
5333.042985
 31
0.0
  0
LINE
  8
5
  6
CONTINUOUS
 62
     4
  5
22E
 10
2082.588723
 20
5333.042985
 30
0.0
 11
2117.588718
 21
5333.042985
 31
0.0
  0
LINE
  8
5
  6
CONTINUOUS
 62
     4
  5
22F
 10
2117.588718
 20
5333.042985
 30
0.0
 11
2117.588718
 21
5143.043499
 31
0.0
  0
LINE
  8
1
  6
CONTINUOUS
 62
     6
  5
230
 10
2057.588727
 20
5248.042985
 30
0.0
 11
2078.588725
 21
5248.042985
 31
0.0
  0
LINE
  8
1
  6
CONTINUOUS
 62
     6
  5
231
 10
1587.588835
 20
5248.042985
 30
0.0
 11
1572.588837
 21
5248.042985
 31
0.0
  0
LINE
  8
1
  6
CONTINUOUS
 62
     6
  5
232
 10
1547.588842
 20
5118.042997
 30
0.0
 11
1572.588837
 21
5118.042997
 31
0.0
  0
LINE
  8
2
  6
CONTINUOUS
 62
     3
  5
233
 10
1672.588725
 20
5248.042985
 30
0.0
 11
1672.588725
 21
5118.042997
 31
0.0
  0
LINE
  8
2
  6
CONTINUOUS
 62
     3
  5
234
 10
1772.588725
 20
5248.042985
 30
0.0
 11
1772.588725
 21
5118.042997
 31
0.0
  0
LINE
  8
2
  6
CONTINUOUS
 62
     3
  5
235
 10
1972.588725
 20
5248.042985
 30
0.0
 11
1972.588725
 21
5118.042997
 31
0.0
  0
LINE
  8
2
  6
CONTINUOUS
 62
     3
  5
236
 10
2072.588725
 20
5124.042997
 30
0.0
 11
1572.588837
 21
5124.042997
 31
0.0
  0
LINE
  8
1
  6
CONTINUOUS
 62
     1
  5
237
 10
1572.588837
 20
5248.042985
 30
0.0
 11
1572.588837
 21
5118.042997
 31
0.0
  0
LINE
  8
1
  6
CONTINUOUS
 62
     1
  5
238
 10
2072.588725
 20
5248.042985
 30
0.0
 11
2072.588725
 21
5118.042997
 31
0.0
  0
LINE
  8
1
  6
CONTINUOUS
 62
     1
  5
239
 10
2078.588725
 20
5248.042985
 30
0.0
 11
2078.588725
 21
5124.042997
 31
0.0
  0
LINE
  8
1
  6
CONTINUOUS
 62
     1
  5
23A
 10
1566.588837
 20
5248.042985
 30
0.0
 11
1566.588837
 21
5124.042997
 31
0.0
  0
LINE
  8
3
  6
CONTINUOUS
 62
     2
  5
23B
 10
2079.659791
 20
5318.042985
 30
0.0
 11
2082.588723
 21
5320.971917
 31
0.0
  0
LINE
  8
3
  6
CONTINUOUS
 62
     2
  5
23C
 10
2080.517655
 20
5333.042985
 30
0.0
 11
2073.588723
 21
5326.114052
 31
0.0
  0
LINE
  8
3
  6
CONTINUOUS
 62
     2
  5
23D
 10
2073.588723
 20
5333.18512
 30
0.0
 11
2073.446587
 21
5333.042985
 31
0.0
  0
LINE
  8
3
  6
CONTINUOUS
 62
     2
  5
23E
 10
2082.588723
 20
5328.042985
 30
0.0
 11
2073.588723
 21
5319.042985
 31
0.0
  0
LINE
  8
3
  6
CONTINUOUS
 62
     2
  5
23F
 10
2652.826743
 20
4113.043978
 30
0.0
 11
2680.700933
 21
4113.043978
 31
0.0
  0
LINE
  8
2
  6
CONTINUOUS
 62
     2
  5
240
 10
1565.517771
 20
5318.042985
 30
0.0
 11
1562.588839
 21
5320.971917
 31
0.0
  0
LINE
  8
2
  6
CONTINUOUS
 62
     2
  5
241
 10
1564.659907
 20
5333.042985
 30
0.0
 11
1571.588839
 21
5326.114052
 31
0.0
  0
LINE
  8
2
  6
CONTINUOUS
 62
     2
  5
242
 10
1571.588839
 20
5333.18512
 30
0.0
 11
1571.730975
 21
5333.042985
 31
0.0
  0
LINE
  8
2
  6
CONTINUOUS
 62
     2
  5
243
 10
1562.588839
 20
5328.042985
 30
0.0
 11
1571.588839
 21
5319.042985
 31
0.0
  0
LINE
  8
3
  6
CONTINUOUS
 62
     2
  5
244
 10
2637.588835
 20
4113.043978
 30
0.0
 11
2687.588835
 21
4113.043978
 31
0.0
  0
LINE
  8
3
  6
CONTINUOUS
 62
     2
  5
245
 10
2637.588835
 20
3813.043978
 30
0.0
 11
2687.588835
 21
3813.043978
 31
0.0
  0
LINE
  8
2
  6
CONTINUOUS
 62
     2
  5
246
 10
2587.588835
 20
4476.471349
 30
0.0
 11
2587.588835
 21
4078.043978
 31
0.0
  0
LINE
  8
2
  6
CONTINUOUS
 62
     2
  5
247
 10
1972.588835
 20
4078.043978
 30
0.0
 11
1972.588835
 21
5118.042997
 31
0.0
  0
LINE
  8
2
  6
CONTINUOUS
 62
     2
  5
248
 10
1872.588835
 20
4177.732242
 30
0.0
 11
1872.588835
 21
5118.042997
 31
0.0
  0
LINE
  8
2
  6
CONTINUOUS
 62
     2
  5
249
 10
1772.588835
 20
4188.043602
 30
0.0
 11
1772.588835
 21
5118.042997
 31
0.0
  0
LINE
  8
2
  6
CONTINUOUS
 62
     2
  5
24A
 10
1672.588835
 20
4188.042898
 30
0.0
 11
1672.588835
 21
5118.042997
 31
0.0
  0
LINE
  8
2
  6
CONTINUOUS
 62
     2
  5
24B
 10
1572.588835
 20
4174.157193
 30
0.0
 11
1572.588835
 21
5118.042997
 31
0.0
  0
LINE
  8
1
  6
CONTINUOUS
 62
     6
  5
24C
 10
1287.588835
 20
5083.046216
 30
0.0
 11
1287.588835
 21
5113.046344
 31
0.0
  0
LINE
  8
2
  6
CONTINUOUS
 62
     2
  5
24D
 10
1281.653624
 20
5113.046178
 30
0.0
 11
1256.886313
 21
5083.04602
 31
0.0
  0
LINE
  8
2
  6
CONTINUOUS
 62
     2
  5
24E
 10
1255.718413
 20
5113.046013
 30
0.0
 11
1230.951102
 21
5083.045855
 31
0.0
  0
LINE
  8
1
  6
CONTINUOUS
 62
     6
  5
24F
 10
3050.552693
 20
5103.043967
 30
0.0
 11
2772.552699
 21
5103.043967
 31
0.0
  0
LINE
  8
1
  6
CONTINUOUS
 62
     6
  5
250
 10
2965.392695
 20
4996.84397
 30
0.0
 11
3006.072694
 21
5037.523969
 31
0.0
  0
ARC
  8
1
  6
CONTINUOUS
 62
     6
  5
251
 10
3050.552693
 20
5073.043968
 30
0.0
 40
29.999999
 50
0.0
 51
90.01
  0
LINE
  8
1
  6
CONTINUOUS
 62
     6
  5
252
 10
2801.632698
 20
5080.583968
 30
0.0
 11
3013.912694
 21
5081.923968
 31
0.0
  0
LINE
  8
2
  6
CONTINUOUS
 62
     2
  5
253
 10
1185.588835
 20
5013.043978
 30
0.0
 11
2746.5527
 21
5013.043978
 31
0.0
  0
LINE
  8
1
  6
CONTINUOUS
 62
     6
  5
254
 10
3087.588835
 20
4113.043978
 30
0.0
 11
3087.588835
 21
5118.042997
 31
0.0
  0
LINE
  8
1
  6
CONTINUOUS
 62
     6
  5
255
 10
1286.088835
 20
3813.043978
 30
0.0
 11
2687.588835
 21
3813.043978
 31
0.0
  0
LINE
  8
1
  6
CONTINUOUS
 62
     6
  5
256
 10
1280.088835
 20
3807.043978
 30
0.0
 11
2693.588835
 21
3807.043978
 31
0.0
  0
LINE
  8
1
  6
CONTINUOUS
 62
     6
  5
257
 10
3093.588835
 20
4107.043978
 30
0.0
 11
3093.588835
 21
5124.042997
 31
0.0
  0
LINE
  8
1
  6
CONTINUOUS
 62
     6
  5
258
 10
1587.588839
 20
5248.042985
 30
0.0
 11
2057.588723
 21
5248.042985
 31
0.0
  0
LINE
  8
1
  6
CONTINUOUS
 62
     6
  5
259
 10
1587.588839
 20
5318.042985
 30
0.0
 11
2057.588723
 21
5318.042985
 31
0.0
  0
LINE
  8
1
  6
CONTINUOUS
 62
     6
  5
25A
 10
1637.588839
 20
5286.042978
 30
0.0
 11
2007.588723
 21
5286.042978
 31
0.0
  0
LINE
  8
1
  6
CONTINUOUS
 62
     6
  5
25B
 10
1637.588839
 20
5280.042978
 30
0.0
 11
2007.588723
 21
5280.042978
 31
0.0
  0
LINE
  8
1
  6
CONTINUOUS
 62
     6
  5
25C
 10
1280.088835
 20
3807.043978
 30
0.0
 11
1280.088835
 21
4388.046309
 31
0.0
  0
LINE
  8
1
  6
CONTINUOUS
 62
     6
  5
25D
 10
1286.088835
 20
3813.043978
 30
0.0
 11
1286.088835
 21
4388.046309
 31
0.0
  0
LINE
  8
1
  6
CONTINUOUS
 62
     6
  5
25E
 10
2387.588835
 20
4163.043978
 30
0.0
 11
2387.588835
 21
4063.043978
 31
0.0
  0
LINE
  8
1
  6
CONTINUOUS
 62
     6
  5
25F
 10
2287.588835
 20
4113.043978
 30
0.0
 11
2487.588835
 21
4113.043978
 31
0.0
  0
LINE
  8
1
  6
CONTINUOUS
 62
     6
  5
260
 10
2487.588835
 20
4113.043978
 30
0.0
 11
2447.287512
 21
4102.685232
 31
0.0
  0
LINE
  8
1
  6
CONTINUOUS
 62
     6
  5
261
 10
2487.588835
 20
4113.460371
 30
0.0
 11
2447.287512
 21
4123.819117
 31
0.0
  0
LINE
  8
1
  6
CONTINUOUS
 62
     6
  5
262
 10
2287.588835
 20
4113.043978
 30
0.0
 11
2327.890158
 21
4102.685232
 31
0.0
  0
LINE
  8
1
  6
CONTINUOUS
 62
     6
  5
263
 10
2287.588835
 20
4113.460371
 30
0.0
 11
2327.890158
 21
4123.819117
 31
0.0
  0
CIRCLE
  8
1
  6
CONTINUOUS
 62
     6
  5
264
 10
2387.469112
 20
4113.252175
 30
0.0
 40
7.5
  0
LINE
  8
12
  6
CONTINUOUS
 62
     6
  5
265
 10
1951.088835
 20
4078.043978
 30
0.0
 11
1951.088835
 21
3838.043978
 31
0.0
  0
LINE
  8
12
  6
CONTINUOUS
 62
     6
  5
266
 10
1291.088835
 20
3838.043978
 30
0.0
 11
2681.088834
 21
3838.043978
 31
0.0
  0
LINE
  8
12
  6
CONTINUOUS
 62
     6
  5
267
 10
1291.088835
 20
3818.043978
 30
0.0
 11
2681.088834
 21
3818.043978
 31
0.0
  0
LINE
  8
12
  6
DOT
 62
     6
  5
268
 10
1291.088835
 20
4068.043978
 30
0.0
 11
2681.088834
 21
4068.043978
 31
0.0
  0
LINE
  8
12
  6
CONTINUOUS
 62
     6
  5
269
 10
1291.088835
 20
4078.043978
 30
0.0
 11
1531.088835
 21
4078.043978
 31
0.0
  0
LINE
  8
12
  6
CONTINUOUS
 62
     6
  5
26A
 10
1951.088835
 20
4078.043978
 30
0.0
 11
2681.08879
 21
4078.043978
 31
0.0
  0
LINE
  8
1
  6
CONTINUOUS
 62
     6
  5
26B
 10
3080.552692
 20
4795.043974
 30
0.0
 11
3080.552692
 21
5073.043968
 31
0.0
  0
LINE
  8
1
  6
CONTINUOUS
 62
     6
  5
26C
 10
2974.372695
 20
4987.86397
 30
0.0
 11
3015.052694
 21
5028.563969
 31
0.0
  0
ARC
  8
1
  6
CONTINUOUS
 62
     6
  5
26D
 10
3010.552694
 20
5033.043969
 30
0.0
 40
48.999999
 50
3.46
 51
86.69
  0
LINE
  8
1
  6
CONTINUOUS
 62
     6
  5
26E
 10
3059.452693
 20
5036.363969
 30
0.0
 11
3058.092693
 21
4824.103974
 31
0.0
  0
ARC
  8
1
  6
CONTINUOUS
 62
     6
  5
26F
 10
3010.552694
 20
5033.043969
 30
0.0
 40
6.34
 50
315.0
 51
135.0
  0
ARC
  8
1
  6
CONTINUOUS
 62
     6
  5
270
 10
3010.552694
 20
5033.043969
 30
0.0
 40
16.48
 50
247.64
 51
202.37
  0
ARC
  8
1
  6
CONTINUOUS
 62
     6
  5
271
 10
2740.4527
 20
4762.923975
 30
0.0
 40
349.979992
 50
30.33
 51
43.97
  0
LINE
  8
12
  6
CONTINUOUS
 62
     6
  5
272
 10
1291.088835
 20
3818.043978
 30
0.0
 11
1291.088835
 21
4078.043978
 31
0.0
  0
LINE
  8
1
  6
CONTINUOUS
 62
     6
  5
273
 10
2092.588721
 20
5433.042957
 30
0.0
 11
1552.588841
 21
5433.042957
 31
0.0
  0
LINE
  8
1
  6
CONTINUOUS
 62
     6
  5
274
 10
1147.588847
 20
5081.045323
 30
0.0
 11
486.588847
 21
5081.045323
 31
0.0
  0
ARC
  8
1
  6
CONTINUOUS
 62
     6
  5
275
 10
1147.588847
 20
5081.045323
 30
0.0
 40
660.999014
 50
180.0
 51
270.0
  0
LINE
  8
2
  6
CONTINUOUS
 62
     3
  5
276
 10
2072.588725
 20
5224.042997
 30
0.0
 11
1572.588837
 21
5224.042997
 31
0.0
  0
LINE
  8
2
  6
CONTINUOUS
 62
     3
  5
277
 10
1872.588725
 20
5248.042985
 30
0.0
 11
1872.588725
 21
5118.042997
 31
0.0
  0
LINE
  8
1
  6
CONTINUOUS
 62
     1
  5
278
 10
3087.588835
 20
5118.042997
 30
0.0
 11
1572.588837
 21
5118.042997
 31
0.0
  0
LINE
  8
1
  6
CONTINUOUS
 62
     1
  5
279
 10
1552.588841
 20
5118.042997
 30
0.0
 11
1267.585246
 21
5118.042997
 31
0.0
  0
LINE
  8
1
  6
CONTINUOUS
 62
     1
  5
27A
 10
3093.588835
 20
5124.042997
 30
0.0
 11
2078.588725
 21
5124.042997
 31
0.0
  0
LINE
  8
1
  6
CONTINUOUS
 62
     1
  5
27B
 10
1566.588837
 20
5124.042997
 30
0.0
 11
1267.585246
 21
5124.042997
 31
0.0
  0
LINE
  8
4
  6
CENTER
 62
     2
  5
27C
 10
1187.588906
 20
5268.042976
 30
0.0
 11
1552.588841
 21
5268.042976
 31
0.0
  0
LINE
  8
4
  6
CENTER
 62
     2
  5
27D
 10
1512.588835
 20
5283.042978
 30
0.0
 11
2132.588835
 21
5283.042978
 31
0.0
  0
LINE
  8
4
  6
CENTER
 62
     2
  5
27E
 10
2457.588656
 20
5268.042976
 30
0.0
 11
2092.588721
 21
5268.042976
 31
0.0
  0
LINE
  8
4
  6
CENTER
 62
     2
  5
27F
 10
1411.588866
 20
5283.042978
 30
0.0
 11
1722.588811
 21
5283.042978
 31
0.0
  0
LINE
  8
3
  6
CONTINUOUS
 62
     2
  5
280
 10
1167.586835
 20
4138.046309
 30
0.0
 11
1167.586835
 21
4238.046309
 31
0.0
  0
LINE
  8
3
  6
CONTINUOUS
 62
     2
  5
281
 10
1217.588835
 20
4138.046309
 30
0.0
 11
1217.588835
 21
4238.046309
 31
0.0
  0
LINE
  8
2
  6
CONTINUOUS
 62
     2
  5
282
 10
2487.588835
 20
4476.471349
 30
0.0
 11
2487.588835
 21
4078.043978
 31
0.0
  0
LINE
  8
2
  6
CONTINUOUS
 62
     2
  5
283
 10
1945.372103
 20
4113.043978
 30
0.0
 11
2687.588835
 21
4113.043978
 31
0.0
  0
LINE
  8
2
  6
CONTINUOUS
 62
     2
  5
284
 10
2072.588835
 20
4078.043978
 30
0.0
 11
2072.588835
 21
5118.042997
 31
0.0
  0
LINE
  8
2
  6
CONTINUOUS
 62
     2
  5
285
 10
1472.588835
 20
5118.042997
 30
0.0
 11
1472.588835
 21
4078.043978
 31
0.0
  0
LINE
  8
2
  6
CONTINUOUS
 62
     2
  5
286
 10
1372.588835
 20
5118.042997
 30
0.0
 11
1372.588835
 21
4078.043978
 31
0.0
  0
LINE
  8
2
  6
CONTINUOUS
 62
     2
  5
287
 10
2282.588835
 20
4540.280396
 30
0.0
 11
2282.588835
 21
4078.043978
 31
0.0
  0
LINE
  8
2
  6
CONTINUOUS
 62
     2
  5
288
 10
1536.805567
 20
4113.043978
 30
0.0
 11
1286.088835
 21
4113.043978
 31
0.0
  0
LINE
  8
5
  6
CONTINUOUS
 62
     5
  5
289
 10
3117.588784
 20
4033.043931
 30
0.0
 11
3117.588784
 21
4107.043931
 31
0.0
  0
LINE
  8
5
  6
CONTINUOUS
 62
     5
  5
28A
 10
2777.588835
 20
3783.043978
 30
0.0
 11
2703.588835
 21
3783.043978
 31
0.0
  0
LINE
  8
5
  6
CONTINUOUS
 62
     5
  5
28B
 10
2703.588835
 20
3783.043978
 30
0.0
 11
2703.588835
 21
3813.043978
 31
0.0
  0
LINE
  8
5
  6
CONTINUOUS
 62
     5
  5
28C
 10
2703.588835
 20
3813.043978
 30
0.0
 11
2713.588835
 21
3813.043978
 31
0.0
  0
LINE
  8
5
  6
CONTINUOUS
 62
     5
  5
28D
 10
2777.588835
 20
3783.043978
 30
0.0
 11
2777.588835
 21
3813.043978
 31
0.0
  0
LINE
  8
5
  6
CONTINUOUS
 62
     5
  5
28E
 10
2777.588835
 20
3813.043978
 30
0.0
 11
2767.588835
 21
3813.043978
 31
0.0
  0
LINE
  8
5
  6
CONTINUOUS
 62
     5
  5
28F
 10
2777.588784
 20
4033.043931
 30
0.0
 11
2703.588784
 21
4033.043931
 31
0.0
  0
LINE
  8
5
  6
CONTINUOUS
 62
     5
  5
290
 10
2777.588784
 20
4033.043931
 30
0.0
 11
2777.588784
 21
4003.043931
 31
0.0
  0
LINE
  8
5
  6
CONTINUOUS
 62
     5
  5
291
 10
2777.588784
 20
4003.043931
 30
0.0
 11
2767.588784
 21
4003.043931
 31
0.0
  0
LINE
  8
5
  6
CONTINUOUS
 62
     5
  5
292
 10
2703.588784
 20
4033.043931
 30
0.0
 11
2703.588784
 21
4003.043931
 31
0.0
  0
LINE
  8
5
  6
CONTINUOUS
 62
     5
  5
293
 10
2703.588784
 20
4003.043931
 30
0.0
 11
2713.588784
 21
4003.043931
 31
0.0
  0
LINE
  8
5
  6
CONTINUOUS
 62
     5
  5
294
 10
2777.588784
 20
4033.043931
 30
0.0
 11
2777.588835
 21
3783.043978
 31
0.0
  0
LINE
  8
5
  6
CONTINUOUS
 62
     5
  5
295
 10
2777.588784
 20
4033.043931
 30
0.0
 11
3117.588784
 21
4033.043931
 31
0.0
  0
LINE
  8
5
  6
CONTINUOUS
 62
     5
  5
296
 10
2777.588784
 20
4033.043931
 30
0.0
 11
2797.588784
 21
4033.043931
 31
0.0
  0
LINE
  8
5
  6
CONTINUOUS
 62
     5
  5
297
 10
3117.588784
 20
4033.043931
 30
0.0
 11
3097.588784
 21
4033.043931
 31
0.0
  0
LINE
  8
5
  6
CONTINUOUS
 62
     5
  5
298
 10
2797.588784
 20
4033.043931
 30
0.0
 11
2797.588784
 21
4043.043931
 31
0.0
  0
LINE
  8
5
  6
CONTINUOUS
 62
     5
  5
299
 10
3097.588784
 20
4033.043931
 30
0.0
 11
3097.588784
 21
4043.043931
 31
0.0
  0
LINE
  8
5
  6
CONTINUOUS
 62
     5
  5
29A
 10
2777.588784
 20
4033.043931
 30
0.0
 11
2777.588784
 21
4097.043931
 31
0.0
  0
LINE
  8
5
  6
CONTINUOUS
 62
     5
  5
29B
 10
2777.588784
 20
4097.043931
 30
0.0
 11
2797.588784
 21
4097.043931
 31
0.0
  0
LINE
  8
5
  6
CONTINUOUS
 62
     5
  5
29C
 10
2797.588784
 20
4097.043931
 30
0.0
 11
2797.588784
 21
4087.043931
 31
0.0
  0
LINE
  8
5
  6
CONTINUOUS
 62
     5
  5
29D
 10
3117.588784
 20
4097.043931
 30
0.0
 11
3097.588784
 21
4097.043931
 31
0.0
  0
LINE
  8
5
  6
CONTINUOUS
 62
     5
  5
29E
 10
3097.588784
 20
4097.043931
 30
0.0
 11
3097.588784
 21
4087.043931
 31
0.0
  0
LINE
  8
5
  6
CONTINUOUS
 62
     5
  5
29F
 10
1167.586835
 20
4388.046309
 30
0.0
 11
1267.588835
 21
4388.046309
 31
0.0
  0
LINE
  8
5
  6
CONTINUOUS
 62
     5
  5
2A0
 10
1562.588839
 20
5318.042985
 30
0.0
 11
1562.588839
 21
5333.042985
 31
0.0
  0
LINE
  8
5
  6
CONTINUOUS
 62
     5
  5
2A1
 10
1572.588839
 20
5333.042985
 30
0.0
 11
1562.588839
 21
5333.042985
 31
0.0
  0
LINE
  8
5
  6
CONTINUOUS
 62
     5
  5
2A2
 10
1562.588839
 20
5263.042985
 30
0.0
 11
1562.588839
 21
5263.042985
 31
0.0
  0
LINE
  8
5
  6
CONTINUOUS
 62
     5
  5
2A3
 10
1592.588839
 20
5298.042985
 30
0.0
 11
1652.588839
 21
5298.042985
 31
0.0
  0
LINE
  8
5
  6
CONTINUOUS
 62
     5
  5
2A4
 10
1592.588839
 20
5268.042985
 30
0.0
 11
1652.588839
 21
5268.042985
 31
0.0
  0
LINE
  8
5
  6
CONTINUOUS
 62
     5
  5
2A5
 10
1592.588839
 20
5268.042985
 30
0.0
 11
1592.588839
 21
5298.042985
 31
0.0
  0
LINE
  8
5
  6
CONTINUOUS
 62
     5
  5
2A6
 10
1637.588839
 20
5298.042985
 30
0.0
 11
1637.588839
 21
5298.042985
 31
0.0
  0
LINE
  8
5
  6
CONTINUOUS
 62
     5
  5
2A7
 10
1587.588839
 20
5263.042985
 30
0.0
 11
1605.588839
 21
5263.042985
 31
0.0
  0
LINE
  8
5
  6
CONTINUOUS
 62
     5
  5
2A8
 10
1587.588839
 20
5318.042985
 30
0.0
 11
1587.588839
 21
5263.042985
 31
0.0
  0
LINE
  8
5
  6
CONTINUOUS
 62
     5
  5
2A9
 10
1587.588839
 20
5318.042985
 30
0.0
 11
1562.588839
 21
5318.042985
 31
0.0
  0
LINE
  8
5
  6
CONTINUOUS
 62
     5
  5
2AA
 10
1587.588839
 20
5248.042985
 30
0.0
 11
1562.588839
 21
5248.042985
 31
0.0
  0
LINE
  8
5
  6
CONTINUOUS
 62
     5
  5
2AB
 10
2082.588723
 20
5318.042985
 30
0.0
 11
2082.588723
 21
5333.042985
 31
0.0
  0
LINE
  8
5
  6
CONTINUOUS
 62
     5
  5
2AC
 10
2072.588723
 20
5333.042985
 30
0.0
 11
2082.588723
 21
5333.042985
 31
0.0
  0
LINE
  8
5
  6
CONTINUOUS
 62
     5
  5
2AD
 10
2052.588723
 20
5298.042985
 30
0.0
 11
1992.588723
 21
5298.042985
 31
0.0
  0
LINE
  8
5
  6
CONTINUOUS
 62
     5
  5
2AE
 10
2052.588723
 20
5268.042985
 30
0.0
 11
1992.588723
 21
5268.042985
 31
0.0
  0
LINE
  8
5
  6
CONTINUOUS
 62
     5
  5
2AF
 10
2052.588723
 20
5268.042985
 30
0.0
 11
2052.588723
 21
5298.042985
 31
0.0
  0
LINE
  8
5
  6
CONTINUOUS
 62
     5
  5
2B0
 10
2007.588723
 20
5298.042985
 30
0.0
 11
2007.588723
 21
5298.042985
 31
0.0
  0
LINE
  8
5
  6
CONTINUOUS
 62
     5
  5
2B1
 10
2057.588723
 20
5263.042985
 30
0.0
 11
2039.588723
 21
5263.042985
 31
0.0
  0
LINE
  8
5
  6
CONTINUOUS
 62
     5
  5
2B2
 10
2057.588723
 20
5318.042985
 30
0.0
 11
2057.588723
 21
5263.042985
 31
0.0
  0
LINE
  8
5
  6
CONTINUOUS
 62
     5
  5
2B3
 10
2057.588723
 20
5318.042985
 30
0.0
 11
2082.588723
 21
5318.042985
 31
0.0
  0
LINE
  8
5
  6
CONTINUOUS
 62
     5
  5
2B4
 10
2057.588723
 20
5248.042985
 30
0.0
 11
2082.588723
 21
5248.042985
 31
0.0
  0
LINE
  8
5
  6
CONTINUOUS
 62
     5
  5
2B5
 10
1572.588839
 20
5403.042976
 30
0.0
 11
1572.588839
 21
5333.042985
 31
0.0
  0
LINE
  8
5
  6
CONTINUOUS
 62
     5
  5
2B6
 10
1562.58978
 20
5413.042035
 30
0.0
 11
1572.588839
 21
5403.042976
 31
0.0
  0
LINE
  8
5
  6
CONTINUOUS
 62
     5
  5
2B7
 10
1562.588839
 20
5248.042985
 30
0.0
 11
1562.588839
 21
5318.042985
 31
0.0
  0
LINE
  8
5
  6
CONTINUOUS
 62
     5
  5
2B8
 10
2082.588723
 20
5248.042985
 30
0.0
 11
2082.588723
 21
5318.042985
 31
0.0
  0
LINE
  8
5
  6
CONTINUOUS
 62
     5
  5
2B9
 10
2072.588723
 20
5403.042976
 30
0.0
 11
2072.588723
 21
5333.042985
 31
0.0
  0
LINE
  8
5
  6
CONTINUOUS
 62
     5
  5
2BA
 10
2082.783411
 20
5413.237663
 30
0.0
 11
2072.588723
 21
5403.042976
 31
0.0
  0
LINE
  8
5
  6
CONTINUOUS
 62
     5
  5
2BB
 10
2007.588723
 20
5280.042985
 30
0.0
 11
1992.588723
 21
5280.042985
 31
0.0
  0
LINE
  8
5
  6
CONTINUOUS
 62
     5
  5
2BC
 10
1992.588723
 20
5268.042985
 30
0.0
 11
1992.588723
 21
5280.042985
 31
0.0
  0
LINE
  8
5
  6
CONTINUOUS
 62
     5
  5
2BD
 10
2007.588723
 20
5286.042985
 30
0.0
 11
1992.477041
 21
5286.042985
 31
0.0
  0
LINE
  8
5
  6
CONTINUOUS
 62
     5
  5
2BE
 10
1992.588723
 20
5286.042985
 30
0.0
 11
1992.588723
 21
5298.042985
 31
0.0
  0
LINE
  8
5
  6
CONTINUOUS
 62
     5
  5
2BF
 10
2007.588723
 20
5280.042985
 30
0.0
 11
2007.588723
 21
5286.042985
 31
0.0
  0
LINE
  8
5
  6
CONTINUOUS
 62
     5
  5
2C0
 10
1637.588839
 20
5286.042985
 30
0.0
 11
1652.700521
 21
5286.042985
 31
0.0
  0
LINE
  8
5
  6
CONTINUOUS
 62
     5
  5
2C1
 10
1652.588839
 20
5286.042985
 30
0.0
 11
1652.588839
 21
5298.042985
 31
0.0
  0
LINE
  8
5
  6
CONTINUOUS
 62
     5
  5
2C2
 10
1637.588839
 20
5280.042985
 30
0.0
 11
1652.588839
 21
5280.042985
 31
0.0
  0
LINE
  8
5
  6
CONTINUOUS
 62
     5
  5
2C3
 10
1652.588839
 20
5268.042985
 30
0.0
 11
1652.588839
 21
5280.042985
 31
0.0
  0
LINE
  8
5
  6
CONTINUOUS
 62
     5
  5
2C4
 10
1637.588839
 20
5280.042985
 30
0.0
 11
1637.588839
 21
5286.042985
 31
0.0
  0
LINE
  8
5
  6
CONTINUOUS
 62
     5
  5
2C5
 10
1605.588839
 20
5263.042985
 30
0.0
 11
1605.588839
 21
5255.042985
 31
0.0
  0
LINE
  8
5
  6
CONTINUOUS
 62
     5
  5
2C6
 10
1605.588839
 20
5255.042985
 30
0.0
 11
1587.588839
 21
5255.042985
 31
0.0
  0
LINE
  8
5
  6
CONTINUOUS
 62
     5
  5
2C7
 10
1587.588839
 20
5255.042985
 30
0.0
 11
1587.588839
 21
5248.042985
 31
0.0
  0
LINE
  8
5
  6
CONTINUOUS
 62
     5
  5
2C8
 10
2039.588723
 20
5263.042985
 30
0.0
 11
2039.588723
 21
5255.042985
 31
0.0
  0
LINE
  8
5
  6
CONTINUOUS
 62
     5
  5
2C9
 10
2039.588723
 20
5255.042985
 30
0.0
 11
2057.588723
 21
5255.042985
 31
0.0
  0
LINE
  8
5
  6
CONTINUOUS
 62
     5
  5
2CA
 10
2057.588723
 20
5255.042985
 30
0.0
 11
2057.588723
 21
5248.042985
 31
0.0
  0
LINE
  8
5
  6
CONTINUOUS
 62
     5
  5
2CB
 10
3117.588835
 20
3783.043978
 30
0.0
 11
3117.588835
 21
5143.043978
 31
0.0
  0
LINE
  8
5
  6
CONTINUOUS
 62
     5
  5
2CC
 10
1267.588835
 20
3783.043978
 30
0.0
 11
3117.588835
 21
3783.043978
 31
0.0
  0
LINE
  8
5
  6
CONTINUOUS
 62
     5
  5
2CD
 10
3117.588835
 20
5143.043978
 30
0.0
 11
2117.588718
 21
5143.043499
 31
0.0
  0
LINE
  8
5
  6
CONTINUOUS
 62
     5
  5
2CE
 10
1187.588906
 20
5413.042959
 30
0.0
 11
1557.58884
 21
5413.042959
 31
0.0
  0
LINE
  8
5
  6
CONTINUOUS
 62
     5
  5
2CF
 10
1182.588906
 20
5143.04299
 30
0.0
 11
1527.588844
 21
5143.04299
 31
0.0
  0
LINE
  8
5
  6
CONTINUOUS
 62
     5
  5
2D0
 10
1267.588835
 20
3783.043978
 30
0.0
 11
1267.588835
 21
4388.046309
 31
0.0
  0
LINE
  8
5
  6
CONTINUOUS
 62
     5
  5
2D1
 10
1267.585271
 20
5113.046205
 30
0.0
 11
1167.586835
 21
5113.045745
 31
0.0
  0
LINE
  8
5
  6
CONTINUOUS
 62
     4
  5
2D2
 10
2387.588835
 20
4476.974707
 30
0.0
 11
2387.588835
 21
4078.043978
 31
0.0
  0
LINE
  8
5
  6
CONTINUOUS
 62
     5
  5
2D3
 10
1167.583796
 20
5413.041146
 30
0.0
 11
1167.585271
 21
5113.046341
 31
0.0
  0
LINE
  8
5
  6
CONTINUOUS
 62
     5
  5
2D4
 10
1562.58978
 20
5413.042035
 30
0.0
 11
1167.583796
 21
5413.041146
 31
0.0
  0
LINE
  8
5
  6
CONTINUOUS
 62
     5
  5
2D5
 10
1267.585123
 20
5143.046527
 30
0.0
 11
1267.585271
 21
5113.046341
 31
0.0
  0
LINE
  8
5
  6
CONTINUOUS
 62
     5
  5
2D6
 10
1527.588844
 20
5143.047878
 30
0.0
 11
1267.585123
 21
5143.046527
 31
0.0
  0
LINE
  8
5
  6
CONTINUOUS
 62
     5
  5
2D7
 10
2082.783411
 20
5413.237663
 30
0.0
 11
3317.588835
 21
5413.237663
 31
0.0
  0
LINE
  8
5
  6
CONTINUOUS
 62
     5
  5
2D8
 10
3317.588835
 20
5413.237663
 30
0.0
 11
3317.588835
 21
3683.041978
 31
0.0
  0
LINE
  8
5
  6
CONTINUOUS
 62
     5
  5
2D9
 10
1167.586835
 20
3683.041978
 30
0.0
 11
1167.586835
 21
4388.046309
 31
0.0
  0
LINE
  8
5
  6
CONTINUOUS
 62
     5
  5
2DA
 10
1167.586835
 20
3683.041978
 30
0.0
 11
3317.588835
 21
3683.041978
 31
0.0
  0
LINE
  8
4
  6
CENTER
 62
     2
  5
2DB
 10
3317.588835
 20
5268.042978
 30
0.0
 11
1167.584509
 21
5268.042978
 31
0.0
  0
LINE
  8
4
  6
CENTER
 62
     2
  5
2DC
 10
3317.588835
 20
3768.042978
 30
0.0
 11
1167.591882
 21
3768.042978
 31
0.0
  0
LINE
  8
4
  6
CENTER
 62
     2
  5
2DD
 10
1217.588835
 20
5413.237663
 30
0.0
 11
1217.588835
 21
3683.041978
 31
0.0
  0
LINE
  8
4
  6
CENTER
 62
     2
  5
2DE
 10
3217.588835
 20
5413.237663
 30
0.0
 11
3217.588835
 21
3683.041978
 31
0.0
  0
LINE
  8
5
  6
CONTINUOUS
 62
     3
  5
2DF
 10
1217.588835
 20
5643.237663
 30
0.0
 11
1217.588835
 21
5443.237663
 31
0.0
  0
LINE
  8
5
  6
CONTINUOUS
 62
     3
  5
2E0
 10
3217.588835
 20
5643.237663
 30
0.0
 11
3217.588835
 21
5443.237663
 31
0.0
  0
LINE
  8
5
  6
CONTINUOUS
 62
     3
  5
2E1
 10
1572.588839
 20
5543.237663
 30
0.0
 11
1572.588839
 21
5443.237663
 31
0.0
  0
LINE
  8
5
  6
CONTINUOUS
 62
     3
  5
2E2
 10
2072.588723
 20
5543.237663
 30
0.0
 11
2072.588723
 21
5443.237663
 31
0.0
  0
CIRCLE
  8
5
  6
CONTINUOUS
 62
     3
  5
2E3
 10
1217.588835
 20
5643.237663
 30
0.0
 40
7.5
  0
CIRCLE
  8
5
  6
CONTINUOUS
 62
     3
  5
2E4
 10
3217.588835
 20
5643.237663
 30
0.0
 40
7.5
  0
CIRCLE
  8
5
  6
CONTINUOUS
 62
     3
  5
2E5
 10
1217.588835
 20
5543.237663
 30
0.0
 40
7.5
  0
CIRCLE
  8
5
  6
CONTINUOUS
 62
     3
  5
2E6
 10
1572.588839
 20
5543.237663
 30
0.0
 40
7.5
  0
CIRCLE
  8
5
  6
CONTINUOUS
 62
     3
  5
2E7
 10
2072.588723
 20
5543.237663
 30
0.0
 40
7.5
  0
CIRCLE
  8
5
  6
CONTINUOUS
 62
     3
  5
2E8
 10
3217.588835
 20
5543.237663
 30
0.0
 40
7.5
  0
TEXT
  8
5
  6
CONTINUOUS
 62
     3
  5
2E9
 10
2127.588835
 20
5643.237663
 30
0.0
 40
60.0
  1
2,000
 41
0.6
  7

 72
     5
 11
2307.588835
 21
5643.237663
 31
0.0
  0
LINE
  8
5
  6
CONTINUOUS
 62
     3
  5
2EA
 10
1217.588835
 20
5643.237663
 30
0.0
 11
3217.588835
 21
5643.237663
 31
0.0
  0
TEXT
  8
5
  6
CONTINUOUS
 62
     3
  5
2EB
 10
1335.088837
 20
5543.237663
 30
0.0
 40
60.0
  1
355
 41
0.666667
  7

 72
     5
 11
1455.088837
 21
5543.237663
 31
0.0
  0
LINE
  8
5
  6
CONTINUOUS
 62
     3
  5
2EC
 10
1217.588835
 20
5543.237663
 30
0.0
 11
1572.588839
 21
5543.237663
 31
0.0
  0
TEXT
  8
5
  6
CONTINUOUS
 62
     3
  5
2ED
 10
1762.588781
 20
5543.237663
 30
0.0
 40
60.0
  1
500
 41
0.666667
  7

 72
     5
 11
1882.588781
 21
5543.237663
 31
0.0
  0
LINE
  8
5
  6
CONTINUOUS
 62
     3
  5
2EE
 10
1572.588839
 20
5543.237663
 30
0.0
 11
2072.588723
 21
5543.237663
 31
0.0
  0
TEXT
  8
5
  6
CONTINUOUS
 62
     3
  5
2EF
 10
2555.088779
 20
5543.237663
 30
0.0
 40
60.0
  1
1,145
 41
0.6
  7

 72
     5
 11
2735.088779
 21
5543.237663
 31
0.0
  0
LINE
  8
5
  6
CONTINUOUS
 62
     3
  5
2F0
 10
2072.588723
 20
5543.237663
 30
0.0
 11
3217.588835
 21
5543.237663
 31
0.0
  0
LINE
  8
5
  6
CONTINUOUS
 62
     3
  5
2F1
 10
937.584509
 20
5268.041848
 30
0.0
 11
1137.584509
 21
5268.042831
 31
0.0
  0
LINE
  8
5
  6
CONTINUOUS
 62
     3
  5
2F2
 10
937.591882
 20
3768.041848
 30
0.0
 11
1137.591882
 21
3768.042831
 31
0.0
  0
LINE
  8
5
  6
CONTINUOUS
 62
     3
  5
2F3
 10
1037.585418
 20
5083.044921
 30
0.0
 11
1137.585418
 21
5083.045412
 31
0.0
  0
LINE
  8
5
  6
CONTINUOUS
 62
     3
  5
2F4
 10
1037.588687
 20
4418.045288
 30
0.0
 11
1137.588687
 21
4418.045779
 31
0.0
  0
CIRCLE
  8
5
  6
CONTINUOUS
 62
     3
  5
2F5
 10
937.584509
 20
5268.041848
 30
0.0
 40
7.5
  0
CIRCLE
  8
5
  6
CONTINUOUS
 62
     3
  5
2F6
 10
937.591882
 20
3768.041848
 30
0.0
 40
7.5
  0
CIRCLE
  8
5
  6
CONTINUOUS
 62
     3
  5
2F7
 10
1037.584509
 20
5268.042339
 30
0.0
 40
7.5
  0
CIRCLE
  8
5
  6
CONTINUOUS
 62
     3
  5
2F8
 10
1037.585418
 20
5083.044921
 30
0.0
 40
7.5
  0
CIRCLE
  8
5
  6
CONTINUOUS
 62
     3
  5
2F9
 10
1037.588687
 20
4418.045288
 30
0.0
 40
7.5
  0
CIRCLE
  8
5
  6
CONTINUOUS
 62
     3
  5
2FA
 10
1037.591882
 20
3768.042339
 30
0.0
 40
7.5
  0
TEXT
  8
5
  6
CONTINUOUS
 62
     3
  5
2FB
 10
937.588638
 20
4428.041848
 30
0.0
 40
60.0
  1
1,500
 50
90.000282
 41
0.6
  7

 72
     5
 11
937.587753
 21
4608.041848
 31
0.0
  0
LINE
  8
5
  6
CONTINUOUS
 62
     3
  5
2FC
 10
937.584509
 20
5268.041848
 30
0.0
 11
937.591882
 21
3768.041848
 31
0.0
  0
TEXT
  8
5
  6
CONTINUOUS
 62
     3
  5
2FD
 10
1037.585259
 20
5115.54363
 30
0.0
 40
60.0
  1
185
 50
90.000282
 41
0.666667
  7

 72
     5
 11
1037.584669
 21
5235.54363
 31
0.0
  0
LINE
  8
5
  6
CONTINUOUS
 62
     3
  5
2FE
 10
1037.584509
 20
5268.042339
 30
0.0
 11
1037.585418
 21
5083.044921
 31
0.0
  0
TEXT
  8
5
  6
CONTINUOUS
 62
     3
  5
2FF
 10
1037.587348
 20
4690.545104
 30
0.0
 40
60.0
  1
665
 50
90.000282
 41
0.666667
  7

 72
     5
 11
1037.586758
 21
4810.545104
 31
0.0
  0
LINE
  8
5
  6
CONTINUOUS
 62
     3
  5
300
 10
1037.585418
 20
5083.044921
 30
0.0
 11
1037.588687
 21
4418.045288
 31
0.0
  0
TEXT
  8
5
  6
CONTINUOUS
 62
     3
  5
301
 10
1037.59058
 20
4033.043813
 30
0.0
 40
60.0
  1
650
 50
90.000282
 41
0.666667
  7

 72
     5
 11
1037.58999
 21
4153.043813
 31
0.0
  0
LINE
  8
5
  6
CONTINUOUS
 62
     3
  5
302
 10
1037.588687
 20
4418.045288
 30
0.0
 11
1037.591882
 21
3768.042339
 31
0.0
  0
LINE
  8
1
  6
CONTINUOUS
 62
     6
  5
303
 10
1147.588835
 20
5083.045323
 30
0.0
 11
1147.588835
 21
5113.045323
 31
0.0
  0
LINE
  8
1
  6
CONTINUOUS
 62
     6
  5
304
 10
1287.588835
 20
5113.046344
 30
0.0
 11
1147.588835
 21
5113.045323
 31
0.0
  0
LINE
  8
5
  6
CONTINUOUS
 62
     3
  5
305
 10
1217.588835
 20
3453.041978
 30
0.0
 11
1217.588835
 21
3653.041978
 31
0.0
  0
LINE
  8
5
  6
CONTINUOUS
 62
     3
  5
306
 10
3217.588835
 20
3453.041978
 30
0.0
 11
3217.588835
 21
3653.041978
 31
0.0
  0
CIRCLE
  8
5
  6
CONTINUOUS
 62
     3
  5
307
 10
1217.588835
 20
3453.041978
 30
0.0
 40
7.5
  0
CIRCLE
  8
5
  6
CONTINUOUS
 62
     3
  5
308
 10
3217.588835
 20
3453.041978
 30
0.0
 40
7.5
  0
TEXT
  8
5
  6
CONTINUOUS
 62
     3
  5
309
 10
2127.588835
 20
3453.041978
 30
0.0
 40
60.0
  1
2,000
 41
0.6
  7

 72
     5
 11
2307.588835
 21
3453.041978
 31
0.0
  0
LINE
  8
5
  6
CONTINUOUS
 62
     3
  5
30A
 10
1217.588835
 20
3453.041978
 30
0.0
 11
3217.588835
 21
3453.041978
 31
0.0
  0
LINE
  8
5
  6
CONTINUOUS
 62
     3
  5
30B
 10
3547.588835
 20
5268.042978
 30
0.0
 11
3347.588835
 21
5268.042978
 31
0.0
  0
LINE
  8
5
  6
CONTINUOUS
 62
     3
  5
30C
 10
3547.588835
 20
3768.042978
 30
0.0
 11
3347.588835
 21
3768.042978
 31
0.0
  0
CIRCLE
  8
5
  6
CONTINUOUS
 62
     3
  5
30D
 10
3547.588835
 20
3768.042978
 30
0.0
 40
7.5
  0
CIRCLE
  8
5
  6
CONTINUOUS
 62
     3
  5
30E
 10
3547.588835
 20
5268.042978
 30
0.0
 40
7.5
  0
TEXT
  8
5
  6
CONTINUOUS
 62
     3
  5
30F
 10
3547.588835
 20
4428.042978
 30
0.0
 40
60.0
  1
1,500
 50
90.0
 41
0.6
  7

 72
     5
 11
3547.588835
 21
4608.042978
 31
0.0
  0
LINE
  8
5
  6
CONTINUOUS
 62
     3
  5
310
 10
3547.588835
 20
3768.042978
 30
0.0
 11
3547.588835
 21
5268.042978
 31
0.0
  0
LINE
  8
2
  6
CONTINUOUS
 62
     2
  5
311
 10
2587.588835
 20
4751.476349
 30
0.0
 11
2587.588835
 21
5043.000926
 31
0.0
  0
LINE
  8
2
  6
CONTINUOUS
 62
     2
  5
312
 10
2487.588835
 20
4751.476349
 30
0.0
 11
2487.588835
 21
5043.000926
 31
0.0
  0
LINE
  8
2
  6
CONTINUOUS
 62
     2
  5
313
 10
2487.588835
 20
5068.042767
 30
0.0
 11
2487.588835
 21
5118.042997
 31
0.0
  0
LINE
  8
2
  6
CONTINUOUS
 62
     2
  5
314
 10
2282.588835
 20
4687.670301
 30
0.0
 11
2282.588835
 21
5043.000926
 31
0.0
  0
LINE
  8
2
  6
CONTINUOUS
 62
     2
  5
315
 10
2282.588835
 20
5068.042767
 30
0.0
 11
2282.588835
 21
5118.042997
 31
0.0
  0
LINE
  8
5
  6
CONTINUOUS
 62
     4
  5
316
 10
2387.588835
 20
4750.972872
 30
0.0
 11
2387.588835
 21
5043.000926
 31
0.0
  0
LINE
  8
5
  6
CONTINUOUS
 62
     4
  5
317
 10
2387.588835
 20
5068.042767
 30
0.0
 11
2387.588835
 21
5118.042997
 31
0.0
  0
LINE
  8
2
  6
CONTINUOUS
 62
     2
  5
318
 10
2177.588835
 20
4078.043978
 30
0.0
 11
2177.588835
 21
5043.000926
 31
0.0
  0
LINE
  8
2
  6
CONTINUOUS
 62
     2
  5
319
 10
2177.588835
 20
5068.042767
 30
0.0
 11
2177.588835
 21
5099.826554
 31
0.0
  0
LINE
  8
7
  6
CONTINUOUS
 62
     3
  5
31A
 10
2601.588765
 20
5098.092976
 30
0.0
 11
2601.588765
 21
5068.042767
 31
0.0
  0
LINE
  8
40
  6
CONTINUOUS
 62
     4
  5
31B
 10
2603.049665
 20
5098.043017
 30
0.0
 11
2572.227125
 21
5098.043017
 31
0.0
  0
LINE
  8
40
  6
CONTINUOUS
 62
     4
  5
31C
 10
2565.983685
 20
5100.042987
 30
0.0
 11
2609.264685
 21
5100.042987
 31
0.0
  0
LINE
  8
40
  6
CONTINUOUS
 62
     4
  5
31D
 10
2542.588845
 20
5118.042997
 30
0.0
 11
2542.588845
 21
5107.556087
 31
0.0
  0
LINE
  8
40
  6
CONTINUOUS
 62
     4
  5
31E
 10
2632.588825
 20
5118.042997
 30
0.0
 11
2632.588825
 21
5107.527457
 31
0.0
  0
LINE
  8
40
  6
CONTINUOUS
 62
     4
  5
31F
 10
2631.842765
 20
5106.043037
 30
0.0
 11
2543.378305
 21
5106.043037
 31
0.0
  0
ARC
  8
40
  6
CONTINUOUS
 62
     4
  5
320
 10
2544.588745
 20
5107.658777
 30
0.0
 40
2.00004
 50
180.0
 51
255.529705
  0
ARC
  8
40
  6
CONTINUOUS
 62
     4
  5
321
 10
2630.587105
 20
5107.615727
 30
0.0
 40
2.00004
 50
284.069648
 51
360.0
  0
LINE
  8
1
  6
CONTINUOUS
 62
     4
  5
322
 10
2555.277885
 20
5125.229057
 30
0.0
 11
2559.277965
 21
5125.924087
 31
0.0
  0
LINE
  8
1
  6
CONTINUOUS
 62
     4
  5
323
 10
2555.277885
 20
5128.265377
 30
0.0
 11
2559.277965
 21
5128.974617
 31
0.0
  0
LINE
  8
1
  6
CONTINUOUS
 62
     4
  5
324
 10
2555.277885
 20
5131.318497
 30
0.0
 11
2559.277965
 21
5132.027737
 31
0.0
  0
LINE
  8
1
  6
CONTINUOUS
 62
     4
  5
325
 10
2555.277885
 20
5134.371617
 30
0.0
 11
2559.277965
 21
5135.080787
 31
0.0
  0
LINE
  8
1
  6
CONTINUOUS
 62
     4
  5
326
 10
2555.277885
 20
5137.422077
 30
0.0
 11
2559.277965
 21
5138.117037
 31
0.0
  0
LINE
  8
1
  6
CONTINUOUS
 62
     4
  5
327
 10
2555.277885
 20
5140.458187
 30
0.0
 11
2559.277965
 21
5141.167427
 31
0.0
  0
LINE
  8
1
  6
CONTINUOUS
 62
     4
  5
328
 10
2558.882745
 20
5124.333897
 30
0.0
 11
2555.673105
 21
5123.766267
 31
0.0
  0
LINE
  8
1
  6
CONTINUOUS
 62
     4
  5
329
 10
2558.882745
 20
5127.367347
 30
0.0
 11
2555.673105
 21
5126.799787
 31
0.0
  0
LINE
  8
1
  6
CONTINUOUS
 62
     4
  5
32A
 10
2558.882745
 20
5130.420467
 30
0.0
 11
2555.673105
 21
5129.852907
 31
0.0
  0
LINE
  8
1
  6
CONTINUOUS
 62
     4
  5
32B
 10
2558.882745
 20
5133.473587
 30
0.0
 11
2555.673105
 21
5132.906097
 31
0.0
  0
LINE
  8
1
  6
CONTINUOUS
 62
     4
  5
32C
 10
2558.882745
 20
5136.526777
 30
0.0
 11
2555.673105
 21
5135.959217
 31
0.0
  0
LINE
  8
1
  6
CONTINUOUS
 62
     4
  5
32D
 10
2558.882745
 20
5139.560297
 30
0.0
 11
2555.673105
 21
5138.992737
 31
0.0
  0
LINE
  8
1
  6
CONTINUOUS
 62
     4
  5
32E
 10
2558.882745
 20
5142.613417
 30
0.0
 11
2555.673105
 21
5142.045787
 31
0.0
  0
LINE
  8
1
  6
CONTINUOUS
 62
     4
  5
32F
 10
2555.277885
 20
5122.177687
 30
0.0
 11
2559.277965
 21
5122.881887
 31
0.0
  0
LINE
  8
1
  6
CONTINUOUS
 62
     4
  5
330
 10
2557.277925
 20
5112.043017
 30
0.0
 11
2553.027945
 21
5112.043017
 31
0.0
  0
LINE
  8
1
  6
CONTINUOUS
 62
     4
  5
331
 10
2555.277885
 20
5116.131157
 30
0.0
 11
2559.277965
 21
5116.840397
 31
0.0
  0
LINE
  8
1
  6
CONTINUOUS
 62
     4
  5
332
 10
2555.277885
 20
5119.145007
 30
0.0
 11
2559.277965
 21
5119.854247
 31
0.0
  0
LINE
  8
1
  6
CONTINUOUS
 62
     4
  5
333
 10
2558.882745
 20
5115.252727
 30
0.0
 11
2555.673105
 21
5114.685167
 31
0.0
  0
LINE
  8
1
  6
CONTINUOUS
 62
     4
  5
334
 10
2558.882745
 20
5118.266647
 30
0.0
 11
2555.673105
 21
5117.699087
 31
0.0
  0
LINE
  8
1
  6
CONTINUOUS
 62
     4
  5
335
 10
2558.882745
 20
5121.300237
 30
0.0
 11
2555.673105
 21
5120.732677
 31
0.0
  0
LINE
  8
1
  6
CONTINUOUS
 62
     4
  5
336
 10
2554.674905
 20
5112.043017
 30
0.0
 11
2555.877925
 21
5113.245967
 31
0.0
  0
LINE
  8
1
  6
CONTINUOUS
 62
     4
  5
337
 10
2554.674905
 20
5112.043017
 30
0.0
 11
2553.027945
 21
5112.043017
 31
0.0
  0
LINE
  8
1
  6
CONTINUOUS
 62
     4
  5
338
 10
2559.880945
 20
5112.043017
 30
0.0
 11
2558.677925
 21
5113.245967
 31
0.0
  0
LINE
  8
1
  6
CONTINUOUS
 62
     4
  5
339
 10
2559.880945
 20
5112.043017
 30
0.0
 11
2561.527905
 21
5112.043017
 31
0.0
  0
LINE
  8
1
  6
CONTINUOUS
 62
     4
  5
33A
 10
2558.882745
 20
5113.726167
 30
0.0
 11
2555.673105
 21
5113.158677
 31
0.0
  0
LINE
  8
1
  6
CONTINUOUS
 62
     4
  5
33B
 10
2556.671165
 20
5108.551977
 30
0.0
 11
2557.884685
 21
5108.551977
 31
0.0
  0
LINE
  8
1
  6
CONTINUOUS
 62
     4
  5
33C
 10
2556.671165
 20
5108.043007
 30
0.0
 11
2556.671165
 21
5108.551977
 31
0.0
  0
LINE
  8
1
  6
CONTINUOUS
 62
     4
  5
33D
 10
2557.884685
 20
5108.043007
 30
0.0
 11
2557.884685
 21
5108.551977
 31
0.0
  0
LINE
  8
1
  6
CONTINUOUS
 62
     4
  5
33E
 10
2556.671165
 20
5108.043007
 30
0.0
 11
2557.884685
 21
5108.043007
 31
0.0
  0
LINE
  8
1
  6
CONTINUOUS
 62
     4
  5
33F
 10
2555.277885
 20
5143.511307
 30
0.0
 11
2559.277965
 21
5144.220547
 31
0.0
  0
LINE
  8
1
  6
CONTINUOUS
 62
     4
  5
340
 10
2558.669245
 20
5147.165727
 30
0.0
 11
2555.784265
 21
5146.654167
 31
0.0
  0
LINE
  8
1
  6
CONTINUOUS
 62
     4
  5
341
 10
2558.882745
 20
5145.666467
 30
0.0
 11
2555.673105
 21
5145.098907
 31
0.0
  0
LINE
  8
1
  6
CONTINUOUS
 62
     4
  5
342
 10
2558.376365
 20
5148.629987
 30
0.0
 11
2556.098985
 21
5148.227347
 31
0.0
  0
LINE
  8
1
  6
CONTINUOUS
 62
     4
  5
343
 10
2615.899705
 20
5125.229057
 30
0.0
 11
2619.899645
 21
5125.924087
 31
0.0
  0
LINE
  8
1
  6
CONTINUOUS
 62
     4
  5
344
 10
2615.899705
 20
5128.265377
 30
0.0
 11
2619.899645
 21
5128.974617
 31
0.0
  0
LINE
  8
1
  6
CONTINUOUS
 62
     4
  5
345
 10
2615.899705
 20
5131.318497
 30
0.0
 11
2619.899645
 21
5132.027737
 31
0.0
  0
LINE
  8
1
  6
CONTINUOUS
 62
     4
  5
346
 10
2615.899705
 20
5134.371617
 30
0.0
 11
2619.899645
 21
5135.080787
 31
0.0
  0
LINE
  8
1
  6
CONTINUOUS
 62
     4
  5
347
 10
2615.899705
 20
5137.422077
 30
0.0
 11
2619.899645
 21
5138.117037
 31
0.0
  0
LINE
  8
1
  6
CONTINUOUS
 62
     4
  5
348
 10
2615.899705
 20
5140.458187
 30
0.0
 11
2619.899645
 21
5141.167427
 31
0.0
  0
LINE
  8
1
  6
CONTINUOUS
 62
     4
  5
349
 10
2619.504565
 20
5124.333897
 30
0.0
 11
2616.294785
 21
5123.766267
 31
0.0
  0
LINE
  8
1
  6
CONTINUOUS
 62
     4
  5
34A
 10
2619.504565
 20
5127.367347
 30
0.0
 11
2616.294785
 21
5126.799787
 31
0.0
  0
LINE
  8
1
  6
CONTINUOUS
 62
     4
  5
34B
 10
2619.504565
 20
5130.420467
 30
0.0
 11
2616.294785
 21
5129.852907
 31
0.0
  0
LINE
  8
1
  6
CONTINUOUS
 62
     4
  5
34C
 10
2619.504565
 20
5133.473587
 30
0.0
 11
2616.294785
 21
5132.906097
 31
0.0
  0
LINE
  8
1
  6
CONTINUOUS
 62
     4
  5
34D
 10
2619.504565
 20
5136.526777
 30
0.0
 11
2616.294785
 21
5135.959217
 31
0.0
  0
LINE
  8
1
  6
CONTINUOUS
 62
     4
  5
34E
 10
2619.504565
 20
5139.560297
 30
0.0
 11
2616.294785
 21
5138.992737
 31
0.0
  0
LINE
  8
1
  6
CONTINUOUS
 62
     4
  5
34F
 10
2619.504565
 20
5142.613417
 30
0.0
 11
2616.294785
 21
5142.045787
 31
0.0
  0
LINE
  8
1
  6
CONTINUOUS
 62
     4
  5
350
 10
2615.899705
 20
5122.177687
 30
0.0
 11
2619.899645
 21
5122.881887
 31
0.0
  0
LINE
  8
1
  6
CONTINUOUS
 62
     4
  5
351
 10
2617.899745
 20
5112.043017
 30
0.0
 11
2613.649625
 21
5112.043017
 31
0.0
  0
LINE
  8
1
  6
CONTINUOUS
 62
     4
  5
352
 10
2615.899705
 20
5116.131157
 30
0.0
 11
2619.899645
 21
5116.840397
 31
0.0
  0
LINE
  8
1
  6
CONTINUOUS
 62
     4
  5
353
 10
2615.899705
 20
5119.145007
 30
0.0
 11
2619.899645
 21
5119.854247
 31
0.0
  0
LINE
  8
1
  6
CONTINUOUS
 62
     4
  5
354
 10
2619.504565
 20
5115.252727
 30
0.0
 11
2616.294785
 21
5114.685167
 31
0.0
  0
LINE
  8
1
  6
CONTINUOUS
 62
     4
  5
355
 10
2619.504565
 20
5118.266647
 30
0.0
 11
2616.294785
 21
5117.699087
 31
0.0
  0
LINE
  8
1
  6
CONTINUOUS
 62
     4
  5
356
 10
2619.504565
 20
5121.300237
 30
0.0
 11
2616.294785
 21
5120.732677
 31
0.0
  0
LINE
  8
1
  6
CONTINUOUS
 62
     4
  5
357
 10
2615.296725
 20
5112.043017
 30
0.0
 11
2616.499745
 21
5113.245967
 31
0.0
  0
LINE
  8
1
  6
CONTINUOUS
 62
     4
  5
358
 10
2615.296725
 20
5112.043017
 30
0.0
 11
2613.649625
 21
5112.043017
 31
0.0
  0
LINE
  8
1
  6
CONTINUOUS
 62
     4
  5
359
 10
2620.502625
 20
5112.043017
 30
0.0
 11
2619.299745
 21
5113.245967
 31
0.0
  0
LINE
  8
1
  6
CONTINUOUS
 62
     4
  5
35A
 10
2620.502625
 20
5112.043017
 30
0.0
 11
2622.149725
 21
5112.043017
 31
0.0
  0
LINE
  8
1
  6
CONTINUOUS
 62
     4
  5
35B
 10
2619.504565
 20
5113.726167
 30
0.0
 11
2616.294785
 21
5113.158677
 31
0.0
  0
LINE
  8
1
  6
CONTINUOUS
 62
     4
  5
35C
 10
2617.292985
 20
5108.551977
 30
0.0
 11
2618.506365
 21
5108.551977
 31
0.0
  0
LINE
  8
1
  6
CONTINUOUS
 62
     4
  5
35D
 10
2617.292985
 20
5108.043007
 30
0.0
 11
2617.292985
 21
5108.551977
 31
0.0
  0
LINE
  8
1
  6
CONTINUOUS
 62
     4
  5
35E
 10
2618.506365
 20
5108.043007
 30
0.0
 11
2618.506365
 21
5108.551977
 31
0.0
  0
LINE
  8
1
  6
CONTINUOUS
 62
     4
  5
35F
 10
2617.292985
 20
5108.043007
 30
0.0
 11
2618.506365
 21
5108.043007
 31
0.0
  0
LINE
  8
1
  6
CONTINUOUS
 62
     4
  5
360
 10
2615.899705
 20
5143.511307
 30
0.0
 11
2619.899645
 21
5144.220547
 31
0.0
  0
LINE
  8
1
  6
CONTINUOUS
 62
     4
  5
361
 10
2619.290925
 20
5147.165727
 30
0.0
 11
2616.406085
 21
5146.654167
 31
0.0
  0
LINE
  8
1
  6
CONTINUOUS
 62
     4
  5
362
 10
2619.504565
 20
5145.666467
 30
0.0
 11
2616.294785
 21
5145.098907
 31
0.0
  0
LINE
  8
1
  6
CONTINUOUS
 62
     4
  5
363
 10
2618.998185
 20
5148.629987
 30
0.0
 11
2616.720665
 21
5148.227347
 31
0.0
  0
LINE
  8
40
  6
CONTINUOUS
 62
     4
  5
364
 10
2632.563765
 20
5118.042997
 30
0.0
 11
2632.563765
 21
5107.527457
 31
0.0
  0
LINE
  8
40
  6
CONTINUOUS
 62
     4
  5
365
 10
2630.063785
 20
5105.410517
 30
0.0
 11
2630.063785
 21
5113.043037
 31
0.0
  0
LINE
  8
40
  6
CONTINUOUS
 62
     4
  5
366
 10
2569.858745
 20
5099.043037
 30
0.0
 11
2605.389765
 21
5099.043037
 31
0.0
  0
LINE
  8
40
  6
CONTINUOUS
 62
     4
  5
367
 10
2573.588765
 20
5098.043017
 30
0.0
 11
2601.588765
 21
5098.043017
 31
0.0
  0
LINE
  8
40
  6
CONTINUOUS
 62
     4
  5
368
 10
2602.173125
 20
5097.042997
 30
0.0
 11
2573.072725
 21
5097.042997
 31
0.0
  0
LINE
  8
40
  6
CONTINUOUS
 62
     4
  5
369
 10
2601.734785
 20
5096.042907
 30
0.0
 11
2573.469625
 21
5096.042907
 31
0.0
  0
LINE
  8
12
  6
CONTINUOUS
 62
     4
  5
36A
 10
2610.975765
 20
5113.043037
 30
0.0
 11
2632.588825
 21
5113.043037
 31
0.0
  0
LINE
  8
12
  6
CONTINUOUS
 62
     4
  5
36B
 10
2545.088825
 20
5105.435297
 30
0.0
 11
2545.088825
 21
5113.043037
 31
0.0
  0
LINE
  8
12
  6
CONTINUOUS
 62
     4
  5
36C
 10
2565.938185
 20
5100.054817
 30
0.0
 11
2565.938185
 21
5100.025277
 31
0.0
  0
LINE
  8
12
  6
CONTINUOUS
 62
     4
  5
36D
 10
2564.220245
 20
5100.498057
 30
0.0
 11
2564.220245
 21
5113.043037
 31
0.0
  0
LINE
  8
12
  6
CONTINUOUS
 62
     4
  5
36E
 10
2565.932025
 20
5100.150297
 30
0.0
 11
2564.307325
 21
5113.148317
 31
0.0
  0
LINE
  8
12
  6
CONTINUOUS
 62
     4
  5
36F
 10
2609.257965
 20
5099.949397
 30
0.0
 11
2609.257965
 21
5099.919927
 31
0.0
  0
LINE
  8
12
  6
CONTINUOUS
 62
     4
  5
370
 10
2610.975765
 20
5100.392707
 30
0.0
 11
2610.975765
 21
5112.937757
 31
0.0
  0
LINE
  8
12
  6
CONTINUOUS
 62
     4
  5
371
 10
2609.264125
 20
5100.045017
 30
0.0
 11
2610.888825
 21
5113.043037
 31
0.0
  0
LINE
  8
12
  6
CONTINUOUS
 62
     4
  5
372
 10
2564.320485
 20
5113.043037
 30
0.0
 11
2545.088825
 21
5113.043037
 31
0.0
  0
LINE
  8
12
  6
CONTINUOUS
 62
     4
  5
373
 10
2564.320485
 20
5112.043017
 30
0.0
 11
2545.088825
 21
5112.043017
 31
0.0
  0
LINE
  8
12
  6
CONTINUOUS
 62
     4
  5
374
 10
2610.975765
 20
5112.043017
 30
0.0
 11
2632.588825
 21
5112.043017
 31
0.0
  0
LINE
  8
12
  6
CONTINUOUS
 62
     4
  5
375
 10
2561.527905
 20
5112.043017
 30
0.0
 11
2553.027945
 21
5112.043017
 31
0.0
  0
LINE
  8
12
  6
CONTINUOUS
 62
     4
  5
376
 10
2553.027945
 20
5112.043017
 30
0.0
 11
2553.027945
 21
5109.043027
 31
0.0
  0
LINE
  8
12
  6
CONTINUOUS
 62
     4
  5
377
 10
2561.527905
 20
5112.043017
 30
0.0
 11
2561.527905
 21
5109.043027
 31
0.0
  0
LINE
  8
12
  6
CONTINUOUS
 62
     4
  5
378
 10
2561.527905
 20
5109.043027
 30
0.0
 11
2561.527905
 21
5112.043017
 31
0.0
  0
LINE
  8
12
  6
CONTINUOUS
 62
     4
  5
379
 10
2553.027945
 20
5109.043027
 30
0.0
 11
2553.027945
 21
5112.043017
 31
0.0
  0
LINE
  8
12
  6
CONTINUOUS
 62
     4
  5
37A
 10
2553.027945
 20
5109.043027
 30
0.0
 11
2561.527905
 21
5109.043027
 31
0.0
  0
ARC
  8
12
  6
CONTINUOUS
 62
     4
  5
37B
 10
2557.277925
 20
5117.574277
 30
0.0
 40
9.53134
 50
243.51896
 51
296.48104
  0
LINE
  8
12
  6
CONTINUOUS
 62
     4
  5
37C
 10
2558.677925
 20
5112.043017
 30
0.0
 11
2558.677925
 21
5143.043007
 31
0.0
  0
LINE
  8
12
  6
CONTINUOUS
 62
     4
  5
37D
 10
2555.877925
 20
5112.043017
 30
0.0
 11
2555.877925
 21
5143.043007
 31
0.0
  0
LINE
  8
12
  6
CONTINUOUS
 62
     4
  5
37E
 10
2558.677925
 20
5143.043007
 30
0.0
 11
2555.877925
 21
5143.043007
 31
0.0
  0
LINE
  8
12
  6
CONTINUOUS
 62
     4
  5
37F
 10
2557.277925
 20
5150.043007
 30
0.0
 11
2555.877925
 21
5143.043007
 31
0.0
  0
LINE
  8
12
  6
CONTINUOUS
 62
     4
  5
380
 10
2557.277925
 20
5150.043007
 30
0.0
 11
2558.677925
 21
5143.043007
 31
0.0
  0
LINE
  8
12
  6
CENTER
 62
     4
  5
381
 10
2557.277925
 20
5109.043027
 30
0.0
 11
2557.277925
 21
5150.043007
 31
0.0
  0
LINE
  8
12
  6
CENTER
 62
     4
  5
382
 10
2557.277925
 20
5150.043007
 30
0.0
 11
2557.277925
 21
5110.535987
 31
0.0
  0
LINE
  8
12
  6
CONTINUOUS
 62
     4
  5
383
 10
2622.149725
 20
5112.043017
 30
0.0
 11
2613.649625
 21
5112.043017
 31
0.0
  0
LINE
  8
12
  6
CONTINUOUS
 62
     4
  5
384
 10
2613.649625
 20
5112.043017
 30
0.0
 11
2613.649625
 21
5109.043027
 31
0.0
  0
LINE
  8
12
  6
CONTINUOUS
 62
     4
  5
385
 10
2622.149725
 20
5112.043017
 30
0.0
 11
2622.149725
 21
5109.043027
 31
0.0
  0
LINE
  8
12
  6
CONTINUOUS
 62
     4
  5
386
 10
2622.149725
 20
5109.043027
 30
0.0
 11
2622.149725
 21
5112.043017
 31
0.0
  0
LINE
  8
12
  6
CONTINUOUS
 62
     4
  5
387
 10
2613.649625
 20
5109.043027
 30
0.0
 11
2613.649625
 21
5112.043017
 31
0.0
  0
LINE
  8
12
  6
CONTINUOUS
 62
     4
  5
388
 10
2613.649625
 20
5109.043027
 30
0.0
 11
2622.149725
 21
5109.043027
 31
0.0
  0
ARC
  8
12
  6
CONTINUOUS
 62
     4
  5
389
 10
2617.899745
 20
5117.574277
 30
0.0
 40
9.53134
 50
243.51896
 51
296.48104
  0
LINE
  8
12
  6
CONTINUOUS
 62
     4
  5
38A
 10
2619.299745
 20
5112.043017
 30
0.0
 11
2619.299745
 21
5143.043007
 31
0.0
  0
LINE
  8
12
  6
CONTINUOUS
 62
     4
  5
38B
 10
2616.499745
 20
5112.043017
 30
0.0
 11
2616.499745
 21
5143.043007
 31
0.0
  0
LINE
  8
12
  6
CONTINUOUS
 62
     4
  5
38C
 10
2619.299745
 20
5143.043007
 30
0.0
 11
2616.499745
 21
5143.043007
 31
0.0
  0
LINE
  8
12
  6
CONTINUOUS
 62
     4
  5
38D
 10
2617.899745
 20
5150.043007
 30
0.0
 11
2616.499745
 21
5143.043007
 31
0.0
  0
LINE
  8
12
  6
CONTINUOUS
 62
     4
  5
38E
 10
2617.899745
 20
5150.043007
 30
0.0
 11
2619.299745
 21
5143.043007
 31
0.0
  0
LINE
  8
12
  6
CENTER
 62
     4
  5
38F
 10
2617.899745
 20
5109.043027
 30
0.0
 11
2617.899745
 21
5150.043007
 31
0.0
  0
LINE
  8
12
  6
CENTER
 62
     4
  5
390
 10
2617.899745
 20
5150.043007
 30
0.0
 11
2617.899745
 21
5110.535987
 31
0.0
  0
LINE
  8
12
  6
CONTINUOUS
 62
     4
  5
391
 10
2562.986425
 20
5112.290257
 30
0.0
 11
2551.486405
 21
5112.290257
 31
0.0
  0
LINE
  8
12
  6
CONTINUOUS
 62
     4
  5
392
 10
2562.986425
 20
5113.090147
 30
0.0
 11
2551.486405
 21
5113.090147
 31
0.0
  0
LINE
  8
12
  6
CONTINUOUS
 62
     4
  5
393
 10
2562.986425
 20
5112.290257
 30
0.0
 11
2562.986425
 21
5113.090147
 31
0.0
  0
LINE
  8
12
  6
CONTINUOUS
 62
     4
  5
394
 10
2559.986505
 20
5112.290257
 30
0.0
 11
2559.986505
 21
5113.090147
 31
0.0
  0
LINE
  8
12
  6
CONTINUOUS
 62
     4
  5
395
 10
2554.486465
 20
5112.290257
 30
0.0
 11
2554.486465
 21
5113.090147
 31
0.0
  0
LINE
  8
12
  6
CONTINUOUS
 62
     4
  5
396
 10
2551.486405
 20
5112.290257
 30
0.0
 11
2551.486405
 21
5113.090147
 31
0.0
  0
LINE
  8
12
  6
CONTINUOUS
 62
     4
  5
397
 10
2623.604605
 20
5112.290257
 30
0.0
 11
2612.104585
 21
5112.290257
 31
0.0
  0
LINE
  8
12
  6
CONTINUOUS
 62
     4
  5
398
 10
2623.604605
 20
5113.090147
 30
0.0
 11
2612.104585
 21
5113.090147
 31
0.0
  0
LINE
  8
12
  6
CONTINUOUS
 62
     4
  5
399
 10
2623.604605
 20
5112.290257
 30
0.0
 11
2623.604605
 21
5113.090147
 31
0.0
  0
LINE
  8
12
  6
CONTINUOUS
 62
     4
  5
39A
 10
2620.604545
 20
5112.290257
 30
0.0
 11
2620.604545
 21
5113.090147
 31
0.0
  0
LINE
  8
12
  6
CONTINUOUS
 62
     4
  5
39B
 10
2615.104505
 20
5112.290257
 30
0.0
 11
2615.104505
 21
5113.090147
 31
0.0
  0
LINE
  8
12
  6
CONTINUOUS
 62
     4
  5
39C
 10
2612.104585
 20
5112.290257
 30
0.0
 11
2612.104585
 21
5113.090147
 31
0.0
  0
LINE
  8
8
  6
CONTINUOUS
 62
     4
  5
39D
 10
2604.589245
 20
5098.836397
 30
0.0
 11
2631.084805
 21
5105.673927
 31
0.0
  0
LINE
  8
8
  6
CONTINUOUS
 62
     4
  5
39E
 10
2570.777005
 20
5098.805947
 30
0.0
 11
2544.045965
 21
5105.704307
 31
0.0
  0
ARC
  8
8
  6
CONTINUOUS
 62
     4
  5
39F
 10
2569.621025
 20
5095.007047
 30
0.0
 40
4.00008
 50
360.0
 51
75.529706
  0
LINE
  8
50
  6
CENTER
 62
     4
  5
3A0
 10
2557.236485
 20
5112.290257
 30
0.0
 11
2557.236485
 21
5114.412237
 31
0.0
  0
LINE
  8
50
  6
CENTER
 62
     4
  5
3A1
 10
2617.854525
 20
5112.290257
 30
0.0
 11
2617.854525
 21
5114.412237
 31
0.0
  0
ARC
  8
8
  6
CONTINUOUS
 62
     4
  5
3A2
 10
2605.583245
 20
5094.956157
 30
0.0
 40
4.00008
 50
104.470294
 51
180.0
  0
LINE
  8
40
  6
CONTINUOUS
 62
     4
  5
3A3
 10
2141.361337
 20
5098.043017
 30
0.0
 11
2172.183877
 21
5098.043017
 31
0.0
  0
LINE
  8
40
  6
CONTINUOUS
 62
     4
  5
3A4
 10
2178.427317
 20
5100.042987
 30
0.0
 11
2135.146317
 21
5100.042987
 31
0.0
  0
LINE
  8
40
  6
CONTINUOUS
 62
     4
  5
3A5
 10
2201.822157
 20
5118.042997
 30
0.0
 11
2201.822157
 21
5107.556087
 31
0.0
  0
LINE
  8
40
  6
CONTINUOUS
 62
     4
  5
3A6
 10
2111.822177
 20
5118.042997
 30
0.0
 11
2111.822177
 21
5107.527457
 31
0.0
  0
LINE
  8
40
  6
CONTINUOUS
 62
     4
  5
3A7
 10
2112.568237
 20
5106.043037
 30
0.0
 11
2201.032697
 21
5106.043037
 31
0.0
  0
ARC
  8
40
  6
CONTINUOUS
 62
     4
  5
3A8
 10
2199.822257
 20
5107.658777
 30
0.0
 40
2.00004
 50
284.470295
 51
360.0
  0
ARC
  8
40
  6
CONTINUOUS
 62
     4
  5
3A9
 10
2113.823897
 20
5107.615727
 30
0.0
 40
2.00004
 50
180.0
 51
255.930352
  0
LINE
  8
1
  6
CONTINUOUS
 62
     4
  5
3AA
 10
2189.133117
 20
5125.229057
 30
0.0
 11
2185.133037
 21
5125.924087
 31
0.0
  0
LINE
  8
1
  6
CONTINUOUS
 62
     4
  5
3AB
 10
2189.133117
 20
5128.265377
 30
0.0
 11
2185.133037
 21
5128.974617
 31
0.0
  0
LINE
  8
1
  6
CONTINUOUS
 62
     4
  5
3AC
 10
2189.133117
 20
5131.318497
 30
0.0
 11
2185.133037
 21
5132.027737
 31
0.0
  0
LINE
  8
1
  6
CONTINUOUS
 62
     4
  5
3AD
 10
2189.133117
 20
5134.371617
 30
0.0
 11
2185.133037
 21
5135.080787
 31
0.0
  0
LINE
  8
1
  6
CONTINUOUS
 62
     4
  5
3AE
 10
2189.133117
 20
5137.422077
 30
0.0
 11
2185.133037
 21
5138.117037
 31
0.0
  0
LINE
  8
1
  6
CONTINUOUS
 62
     4
  5
3AF
 10
2189.133117
 20
5140.458187
 30
0.0
 11
2185.133037
 21
5141.167427
 31
0.0
  0
LINE
  8
1
  6
CONTINUOUS
 62
     4
  5
3B0
 10
2185.528257
 20
5124.333897
 30
0.0
 11
2188.737897
 21
5123.766267
 31
0.0
  0
LINE
  8
1
  6
CONTINUOUS
 62
     4
  5
3B1
 10
2185.528257
 20
5127.367347
 30
0.0
 11
2188.737897
 21
5126.799787
 31
0.0
  0
LINE
  8
1
  6
CONTINUOUS
 62
     4
  5
3B2
 10
2185.528257
 20
5130.420467
 30
0.0
 11
2188.737897
 21
5129.852907
 31
0.0
  0
LINE
  8
1
  6
CONTINUOUS
 62
     4
  5
3B3
 10
2185.528257
 20
5133.473587
 30
0.0
 11
2188.737897
 21
5132.906097
 31
0.0
  0
LINE
  8
1
  6
CONTINUOUS
 62
     4
  5
3B4
 10
2185.528257
 20
5136.526777
 30
0.0
 11
2188.737897
 21
5135.959217
 31
0.0
  0
LINE
  8
1
  6
CONTINUOUS
 62
     4
  5
3B5
 10
2185.528257
 20
5139.560297
 30
0.0
 11
2188.737897
 21
5138.992737
 31
0.0
  0
LINE
  8
1
  6
CONTINUOUS
 62
     4
  5
3B6
 10
2185.528257
 20
5142.613417
 30
0.0
 11
2188.737897
 21
5142.045787
 31
0.0
  0
LINE
  8
1
  6
CONTINUOUS
 62
     4
  5
3B7
 10
2189.133117
 20
5122.177687
 30
0.0
 11
2185.133037
 21
5122.881887
 31
0.0
  0
LINE
  8
1
  6
CONTINUOUS
 62
     4
  5
3B8
 10
2187.133077
 20
5112.043017
 30
0.0
 11
2191.383057
 21
5112.043017
 31
0.0
  0
LINE
  8
1
  6
CONTINUOUS
 62
     4
  5
3B9
 10
2189.133117
 20
5116.131157
 30
0.0
 11
2185.133037
 21
5116.840397
 31
0.0
  0
LINE
  8
1
  6
CONTINUOUS
 62
     4
  5
3BA
 10
2189.133117
 20
5119.145007
 30
0.0
 11
2185.133037
 21
5119.854247
 31
0.0
  0
LINE
  8
1
  6
CONTINUOUS
 62
     4
  5
3BB
 10
2185.528257
 20
5115.252727
 30
0.0
 11
2188.737897
 21
5114.685167
 31
0.0
  0
LINE
  8
1
  6
CONTINUOUS
 62
     4
  5
3BC
 10
2185.528257
 20
5118.266647
 30
0.0
 11
2188.737897
 21
5117.699087
 31
0.0
  0
LINE
  8
1
  6
CONTINUOUS
 62
     4
  5
3BD
 10
2185.528257
 20
5121.300237
 30
0.0
 11
2188.737897
 21
5120.732677
 31
0.0
  0
LINE
  8
1
  6
CONTINUOUS
 62
     4
  5
3BE
 10
2189.736097
 20
5112.043017
 30
0.0
 11
2188.533077
 21
5113.245967
 31
0.0
  0
LINE
  8
1
  6
CONTINUOUS
 62
     4
  5
3BF
 10
2189.736097
 20
5112.043017
 30
0.0
 11
2191.383057
 21
5112.043017
 31
0.0
  0
LINE
  8
1
  6
CONTINUOUS
 62
     4
  5
3C0
 10
2184.530057
 20
5112.043017
 30
0.0
 11
2185.733077
 21
5113.245967
 31
0.0
  0
LINE
  8
1
  6
CONTINUOUS
 62
     4
  5
3C1
 10
2184.530057
 20
5112.043017
 30
0.0
 11
2182.883097
 21
5112.043017
 31
0.0
  0
LINE
  8
1
  6
CONTINUOUS
 62
     4
  5
3C2
 10
2185.528257
 20
5113.726167
 30
0.0
 11
2188.737897
 21
5113.158677
 31
0.0
  0
LINE
  8
1
  6
CONTINUOUS
 62
     4
  5
3C3
 10
2187.739837
 20
5108.551977
 30
0.0
 11
2186.526317
 21
5108.551977
 31
0.0
  0
LINE
  8
1
  6
CONTINUOUS
 62
     4
  5
3C4
 10
2187.739837
 20
5108.043007
 30
0.0
 11
2187.739837
 21
5108.551977
 31
0.0
  0
LINE
  8
1
  6
CONTINUOUS
 62
     4
  5
3C5
 10
2186.526317
 20
5108.043007
 30
0.0
 11
2186.526317
 21
5108.551977
 31
0.0
  0
LINE
  8
1
  6
CONTINUOUS
 62
     4
  5
3C6
 10
2187.739837
 20
5108.043007
 30
0.0
 11
2186.526317
 21
5108.043007
 31
0.0
  0
LINE
  8
1
  6
CONTINUOUS
 62
     4
  5
3C7
 10
2189.133117
 20
5143.511307
 30
0.0
 11
2185.133037
 21
5144.220547
 31
0.0
  0
LINE
  8
1
  6
CONTINUOUS
 62
     4
  5
3C8
 10
2185.741757
 20
5147.165727
 30
0.0
 11
2188.626737
 21
5146.654167
 31
0.0
  0
LINE
  8
1
  6
CONTINUOUS
 62
     4
  5
3C9
 10
2185.528257
 20
5145.666467
 30
0.0
 11
2188.737897
 21
5145.098907
 31
0.0
  0
LINE
  8
1
  6
CONTINUOUS
 62
     4
  5
3CA
 10
2186.034637
 20
5148.629987
 30
0.0
 11
2188.312017
 21
5148.227347
 31
0.0
  0
LINE
  8
1
  6
CONTINUOUS
 62
     4
  5
3CB
 10
2128.511297
 20
5125.229057
 30
0.0
 11
2124.511357
 21
5125.924087
 31
0.0
  0
LINE
  8
1
  6
CONTINUOUS
 62
     4
  5
3CC
 10
2128.511297
 20
5128.265377
 30
0.0
 11
2124.511357
 21
5128.974617
 31
0.0
  0
LINE
  8
1
  6
CONTINUOUS
 62
     4
  5
3CD
 10
2128.511297
 20
5131.318497
 30
0.0
 11
2124.511357
 21
5132.027737
 31
0.0
  0
LINE
  8
1
  6
CONTINUOUS
 62
     4
  5
3CE
 10
2128.511297
 20
5134.371617
 30
0.0
 11
2124.511357
 21
5135.080787
 31
0.0
  0
LINE
  8
1
  6
CONTINUOUS
 62
     4
  5
3CF
 10
2128.511297
 20
5137.422077
 30
0.0
 11
2124.511357
 21
5138.117037
 31
0.0
  0
LINE
  8
1
  6
CONTINUOUS
 62
     4
  5
3D0
 10
2128.511297
 20
5140.458187
 30
0.0
 11
2124.511357
 21
5141.167427
 31
0.0
  0
LINE
  8
1
  6
CONTINUOUS
 62
     4
  5
3D1
 10
2124.906437
 20
5124.333897
 30
0.0
 11
2128.116217
 21
5123.766267
 31
0.0
  0
LINE
  8
1
  6
CONTINUOUS
 62
     4
  5
3D2
 10
2124.906437
 20
5127.367347
 30
0.0
 11
2128.116217
 21
5126.799787
 31
0.0
  0
LINE
  8
1
  6
CONTINUOUS
 62
     4
  5
3D3
 10
2124.906437
 20
5130.420467
 30
0.0
 11
2128.116217
 21
5129.852907
 31
0.0
  0
LINE
  8
1
  6
CONTINUOUS
 62
     4
  5
3D4
 10
2124.906437
 20
5133.473587
 30
0.0
 11
2128.116217
 21
5132.906097
 31
0.0
  0
LINE
  8
1
  6
CONTINUOUS
 62
     4
  5
3D5
 10
2124.906437
 20
5136.526777
 30
0.0
 11
2128.116217
 21
5135.959217
 31
0.0
  0
LINE
  8
1
  6
CONTINUOUS
 62
     4
  5
3D6
 10
2124.906437
 20
5139.560297
 30
0.0
 11
2128.116217
 21
5138.992737
 31
0.0
  0
LINE
  8
1
  6
CONTINUOUS
 62
     4
  5
3D7
 10
2124.906437
 20
5142.613417
 30
0.0
 11
2128.116217
 21
5142.045787
 31
0.0
  0
LINE
  8
1
  6
CONTINUOUS
 62
     4
  5
3D8
 10
2128.511297
 20
5122.177687
 30
0.0
 11
2124.511357
 21
5122.881887
 31
0.0
  0
LINE
  8
1
  6
CONTINUOUS
 62
     4
  5
3D9
 10
2126.511257
 20
5112.043017
 30
0.0
 11
2130.761377
 21
5112.043017
 31
0.0
  0
LINE
  8
1
  6
CONTINUOUS
 62
     4
  5
3DA
 10
2128.511297
 20
5116.131157
 30
0.0
 11
2124.511357
 21
5116.840397
 31
0.0
  0
LINE
  8
1
  6
CONTINUOUS
 62
     4
  5
3DB
 10
2128.511297
 20
5119.145007
 30
0.0
 11
2124.511357
 21
5119.854247
 31
0.0
  0
LINE
  8
1
  6
CONTINUOUS
 62
     4
  5
3DC
 10
2124.906437
 20
5115.252727
 30
0.0
 11
2128.116217
 21
5114.685167
 31
0.0
  0
LINE
  8
1
  6
CONTINUOUS
 62
     4
  5
3DD
 10
2124.906437
 20
5118.266647
 30
0.0
 11
2128.116217
 21
5117.699087
 31
0.0
  0
LINE
  8
1
  6
CONTINUOUS
 62
     4
  5
3DE
 10
2124.906437
 20
5121.300237
 30
0.0
 11
2128.116217
 21
5120.732677
 31
0.0
  0
LINE
  8
1
  6
CONTINUOUS
 62
     4
  5
3DF
 10
2129.114277
 20
5112.043017
 30
0.0
 11
2127.911257
 21
5113.245967
 31
0.0
  0
LINE
  8
1
  6
CONTINUOUS
 62
     4
  5
3E0
 10
2129.114277
 20
5112.043017
 30
0.0
 11
2130.761377
 21
5112.043017
 31
0.0
  0
LINE
  8
1
  6
CONTINUOUS
 62
     4
  5
3E1
 10
2123.908377
 20
5112.043017
 30
0.0
 11
2125.111257
 21
5113.245967
 31
0.0
  0
LINE
  8
1
  6
CONTINUOUS
 62
     4
  5
3E2
 10
2123.908377
 20
5112.043017
 30
0.0
 11
2122.261277
 21
5112.043017
 31
0.0
  0
LINE
  8
1
  6
CONTINUOUS
 62
     4
  5
3E3
 10
2124.906437
 20
5113.726167
 30
0.0
 11
2128.116217
 21
5113.158677
 31
0.0
  0
LINE
  8
1
  6
CONTINUOUS
 62
     4
  5
3E4
 10
2127.118017
 20
5108.551977
 30
0.0
 11
2125.904637
 21
5108.551977
 31
0.0
  0
LINE
  8
1
  6
CONTINUOUS
 62
     4
  5
3E5
 10
2127.118017
 20
5108.043007
 30
0.0
 11
2127.118017
 21
5108.551977
 31
0.0
  0
LINE
  8
1
  6
CONTINUOUS
 62
     4
  5
3E6
 10
2125.904637
 20
5108.043007
 30
0.0
 11
2125.904637
 21
5108.551977
 31
0.0
  0
LINE
  8
1
  6
CONTINUOUS
 62
     4
  5
3E7
 10
2127.118017
 20
5108.043007
 30
0.0
 11
2125.904637
 21
5108.043007
 31
0.0
  0
LINE
  8
1
  6
CONTINUOUS
 62
     4
  5
3E8
 10
2128.511297
 20
5143.511307
 30
0.0
 11
2124.511357
 21
5144.220547
 31
0.0
  0
LINE
  8
1
  6
CONTINUOUS
 62
     4
  5
3E9
 10
2125.120077
 20
5147.165727
 30
0.0
 11
2128.004917
 21
5146.654167
 31
0.0
  0
LINE
  8
1
  6
CONTINUOUS
 62
     4
  5
3EA
 10
2124.906437
 20
5145.666467
 30
0.0
 11
2128.116217
 21
5145.098907
 31
0.0
  0
LINE
  8
1
  6
CONTINUOUS
 62
     4
  5
3EB
 10
2125.412817
 20
5148.629987
 30
0.0
 11
2127.690337
 21
5148.227347
 31
0.0
  0
LINE
  8
40
  6
CONTINUOUS
 62
     4
  5
3EC
 10
2111.847237
 20
5118.042997
 30
0.0
 11
2111.847237
 21
5107.527457
 31
0.0
  0
LINE
  8
40
  6
CONTINUOUS
 62
     4
  5
3ED
 10
2114.347217
 20
5105.410517
 30
0.0
 11
2114.347217
 21
5113.043037
 31
0.0
  0
LINE
  8
40
  6
CONTINUOUS
 62
     4
  5
3EE
 10
2174.552257
 20
5099.043037
 30
0.0
 11
2139.021237
 21
5099.043037
 31
0.0
  0
LINE
  8
40
  6
CONTINUOUS
 62
     4
  5
3EF
 10
2170.822237
 20
5098.043017
 30
0.0
 11
2142.822237
 21
5098.043017
 31
0.0
  0
LINE
  8
40
  6
CONTINUOUS
 62
     4
  5
3F0
 10
2142.237877
 20
5097.042997
 30
0.0
 11
2171.338277
 21
5097.042997
 31
0.0
  0
LINE
  8
40
  6
CONTINUOUS
 62
     4
  5
3F1
 10
2142.676217
 20
5096.042907
 30
0.0
 11
2170.941377
 21
5096.042907
 31
0.0
  0
LINE
  8
12
  6
CONTINUOUS
 62
     4
  5
3F2
 10
2133.435237
 20
5113.043037
 30
0.0
 11
2111.822177
 21
5113.043037
 31
0.0
  0
LINE
  8
12
  6
CONTINUOUS
 62
     4
  5
3F3
 10
2199.322177
 20
5105.435297
 30
0.0
 11
2199.322177
 21
5113.043037
 31
0.0
  0
LINE
  8
12
  6
CONTINUOUS
 62
     4
  5
3F4
 10
2178.472817
 20
5100.054817
 30
0.0
 11
2178.472817
 21
5100.025277
 31
0.0
  0
LINE
  8
12
  6
CONTINUOUS
 62
     4
  5
3F5
 10
2180.190757
 20
5100.498057
 30
0.0
 11
2180.190757
 21
5113.043037
 31
0.0
  0
LINE
  8
12
  6
CONTINUOUS
 62
     4
  5
3F6
 10
2178.478977
 20
5100.150297
 30
0.0
 11
2180.103677
 21
5113.148317
 31
0.0
  0
LINE
  8
12
  6
CONTINUOUS
 62
     4
  5
3F7
 10
2135.153037
 20
5099.949397
 30
0.0
 11
2135.153037
 21
5099.919927
 31
0.0
  0
LINE
  8
12
  6
CONTINUOUS
 62
     4
  5
3F8
 10
2133.435237
 20
5100.392707
 30
0.0
 11
2133.435237
 21
5112.937757
 31
0.0
  0
LINE
  8
12
  6
CONTINUOUS
 62
     4
  5
3F9
 10
2135.146877
 20
5100.045017
 30
0.0
 11
2133.522177
 21
5113.043037
 31
0.0
  0
LINE
  8
12
  6
CONTINUOUS
 62
     4
  5
3FA
 10
2180.090517
 20
5113.043037
 30
0.0
 11
2199.322177
 21
5113.043037
 31
0.0
  0
LINE
  8
12
  6
CONTINUOUS
 62
     4
  5
3FB
 10
2180.090517
 20
5112.043017
 30
0.0
 11
2199.322177
 21
5112.043017
 31
0.0
  0
LINE
  8
12
  6
CONTINUOUS
 62
     4
  5
3FC
 10
2133.435237
 20
5112.043017
 30
0.0
 11
2111.822177
 21
5112.043017
 31
0.0
  0
LINE
  8
12
  6
CONTINUOUS
 62
     4
  5
3FD
 10
2182.883097
 20
5112.043017
 30
0.0
 11
2191.383057
 21
5112.043017
 31
0.0
  0
LINE
  8
12
  6
CONTINUOUS
 62
     4
  5
3FE
 10
2191.383057
 20
5112.043017
 30
0.0
 11
2191.383057
 21
5109.043027
 31
0.0
  0
LINE
  8
12
  6
CONTINUOUS
 62
     4
  5
3FF
 10
2182.883097
 20
5112.043017
 30
0.0
 11
2182.883097
 21
5109.043027
 31
0.0
  0
LINE
  8
12
  6
CONTINUOUS
 62
     4
  5
400
 10
2182.883097
 20
5109.043027
 30
0.0
 11
2182.883097
 21
5112.043017
 31
0.0
  0
LINE
  8
12
  6
CONTINUOUS
 62
     4
  5
401
 10
2191.383057
 20
5109.043027
 30
0.0
 11
2191.383057
 21
5112.043017
 31
0.0
  0
LINE
  8
12
  6
CONTINUOUS
 62
     4
  5
402
 10
2191.383057
 20
5109.043027
 30
0.0
 11
2182.883097
 21
5109.043027
 31
0.0
  0
ARC
  8
12
  6
CONTINUOUS
 62
     4
  5
403
 10
2187.133077
 20
5117.574277
 30
0.0
 40
9.53134
 50
243.51896
 51
296.48104
  0
LINE
  8
12
  6
CONTINUOUS
 62
     4
  5
404
 10
2185.733077
 20
5112.043017
 30
0.0
 11
2185.733077
 21
5143.043007
 31
0.0
  0
LINE
  8
12
  6
CONTINUOUS
 62
     4
  5
405
 10
2188.533077
 20
5112.043017
 30
0.0
 11
2188.533077
 21
5143.043007
 31
0.0
  0
LINE
  8
12
  6
CONTINUOUS
 62
     4
  5
406
 10
2185.733077
 20
5143.043007
 30
0.0
 11
2188.533077
 21
5143.043007
 31
0.0
  0
LINE
  8
12
  6
CONTINUOUS
 62
     4
  5
407
 10
2187.133077
 20
5150.043007
 30
0.0
 11
2188.533077
 21
5143.043007
 31
0.0
  0
LINE
  8
12
  6
CONTINUOUS
 62
     4
  5
408
 10
2187.133077
 20
5150.043007
 30
0.0
 11
2185.733077
 21
5143.043007
 31
0.0
  0
LINE
  8
12
  6
CENTER
 62
     4
  5
409
 10
2187.133077
 20
5109.043027
 30
0.0
 11
2187.133077
 21
5150.043007
 31
0.0
  0
LINE
  8
12
  6
CENTER
 62
     4
  5
40A
 10
2187.133077
 20
5150.043007
 30
0.0
 11
2187.133077
 21
5110.535987
 31
0.0
  0
LINE
  8
12
  6
CONTINUOUS
 62
     4
  5
40B
 10
2122.261277
 20
5112.043017
 30
0.0
 11
2130.761377
 21
5112.043017
 31
0.0
  0
LINE
  8
12
  6
CONTINUOUS
 62
     4
  5
40C
 10
2130.761377
 20
5112.043017
 30
0.0
 11
2130.761377
 21
5109.043027
 31
0.0
  0
LINE
  8
12
  6
CONTINUOUS
 62
     4
  5
40D
 10
2122.261277
 20
5112.043017
 30
0.0
 11
2122.261277
 21
5109.043027
 31
0.0
  0
LINE
  8
12
  6
CONTINUOUS
 62
     4
  5
40E
 10
2122.261277
 20
5109.043027
 30
0.0
 11
2122.261277
 21
5112.043017
 31
0.0
  0
LINE
  8
12
  6
CONTINUOUS
 62
     4
  5
40F
 10
2130.761377
 20
5109.043027
 30
0.0
 11
2130.761377
 21
5112.043017
 31
0.0
  0
LINE
  8
12
  6
CONTINUOUS
 62
     4
  5
410
 10
2130.761377
 20
5109.043027
 30
0.0
 11
2122.261277
 21
5109.043027
 31
0.0
  0
ARC
  8
12
  6
CONTINUOUS
 62
     4
  5
411
 10
2126.511257
 20
5117.574277
 30
0.0
 40
9.53134
 50
243.51896
 51
296.48104
  0
LINE
  8
12
  6
CONTINUOUS
 62
     4
  5
412
 10
2125.111257
 20
5112.043017
 30
0.0
 11
2125.111257
 21
5143.043007
 31
0.0
  0
LINE
  8
12
  6
CONTINUOUS
 62
     4
  5
413
 10
2127.911257
 20
5112.043017
 30
0.0
 11
2127.911257
 21
5143.043007
 31
0.0
  0
LINE
  8
12
  6
CONTINUOUS
 62
     4
  5
414
 10
2125.111257
 20
5143.043007
 30
0.0
 11
2127.911257
 21
5143.043007
 31
0.0
  0
LINE
  8
12
  6
CONTINUOUS
 62
     4
  5
415
 10
2126.511257
 20
5150.043007
 30
0.0
 11
2127.911257
 21
5143.043007
 31
0.0
  0
LINE
  8
12
  6
CONTINUOUS
 62
     4
  5
416
 10
2126.511257
 20
5150.043007
 30
0.0
 11
2125.111257
 21
5143.043007
 31
0.0
  0
LINE
  8
12
  6
CENTER
 62
     4
  5
417
 10
2126.511257
 20
5109.043027
 30
0.0
 11
2126.511257
 21
5150.043007
 31
0.0
  0
LINE
  8
12
  6
CENTER
 62
     4
  5
418
 10
2126.511257
 20
5150.043007
 30
0.0
 11
2126.511257
 21
5110.535987
 31
0.0
  0
LINE
  8
12
  6
CONTINUOUS
 62
     4
  5
419
 10
2181.424577
 20
5112.290257
 30
0.0
 11
2192.924597
 21
5112.290257
 31
0.0
  0
LINE
  8
12
  6
CONTINUOUS
 62
     4
  5
41A
 10
2181.424577
 20
5113.090147
 30
0.0
 11
2192.924597
 21
5113.090147
 31
0.0
  0
LINE
  8
12
  6
CONTINUOUS
 62
     4
  5
41B
 10
2181.424577
 20
5112.290257
 30
0.0
 11
2181.424577
 21
5113.090147
 31
0.0
  0
LINE
  8
12
  6
CONTINUOUS
 62
     4
  5
41C
 10
2184.424497
 20
5112.290257
 30
0.0
 11
2184.424497
 21
5113.090147
 31
0.0
  0
LINE
  8
12
  6
CONTINUOUS
 62
     4
  5
41D
 10
2189.924537
 20
5112.290257
 30
0.0
 11
2189.924537
 21
5113.090147
 31
0.0
  0
LINE
  8
12
  6
CONTINUOUS
 62
     4
  5
41E
 10
2192.924597
 20
5112.290257
 30
0.0
 11
2192.924597
 21
5113.090147
 31
0.0
  0
LINE
  8
12
  6
CONTINUOUS
 62
     4
  5
41F
 10
2120.806397
 20
5112.290257
 30
0.0
 11
2132.306417
 21
5112.290257
 31
0.0
  0
LINE
  8
12
  6
CONTINUOUS
 62
     4
  5
420
 10
2120.806397
 20
5113.090147
 30
0.0
 11
2132.306417
 21
5113.090147
 31
0.0
  0
LINE
  8
12
  6
CONTINUOUS
 62
     4
  5
421
 10
2120.806397
 20
5112.290257
 30
0.0
 11
2120.806397
 21
5113.090147
 31
0.0
  0
LINE
  8
12
  6
CONTINUOUS
 62
     4
  5
422
 10
2123.806457
 20
5112.290257
 30
0.0
 11
2123.806457
 21
5113.090147
 31
0.0
  0
LINE
  8
12
  6
CONTINUOUS
 62
     4
  5
423
 10
2129.306497
 20
5112.290257
 30
0.0
 11
2129.306497
 21
5113.090147
 31
0.0
  0
LINE
  8
12
  6
CONTINUOUS
 62
     4
  5
424
 10
2132.306417
 20
5112.290257
 30
0.0
 11
2132.306417
 21
5113.090147
 31
0.0
  0
LINE
  8
8
  6
CONTINUOUS
 62
     4
  5
425
 10
2139.821757
 20
5098.836397
 30
0.0
 11
2113.326197
 21
5105.673927
 31
0.0
  0
LINE
  8
8
  6
CONTINUOUS
 62
     4
  5
426
 10
2173.633997
 20
5098.805947
 30
0.0
 11
2200.365037
 21
5105.704307
 31
0.0
  0
ARC
  8
8
  6
CONTINUOUS
 62
     4
  5
427
 10
2174.789977
 20
5095.007047
 30
0.0
 40
4.00008
 50
104.470294
 51
180.0
  0
LINE
  8
50
  6
CENTER
 62
     4
  5
428
 10
2187.174517
 20
5112.290257
 30
0.0
 11
2187.174517
 21
5114.412237
 31
0.0
  0
LINE
  8
50
  6
CENTER
 62
     4
  5
429
 10
2126.556477
 20
5112.290257
 30
0.0
 11
2126.556477
 21
5114.412237
 31
0.0
  0
ARC
  8
8
  6
CONTINUOUS
 62
     4
  5
42A
 10
2138.827757
 20
5094.956157
 30
0.0
 40
4.00008
 50
360.0
 51
75.529706
  0
LINE
  8
40
  6
DOT
 62
     3
  5
42B
 10
2580.088825
 20
5062.042787
 30
0.0
 11
2595.088845
 21
5062.042787
 31
0.0
  0
LINE
  8
40
  6
DOT
 62
     3
  5
42C
 10
2580.088825
 20
5062.042787
 30
0.0
 11
2580.088825
 21
5068.042907
 31
0.0
  0
LINE
  8
40
  6
DOT
 62
     3
  5
42D
 10
2595.088845
 20
5062.042787
 30
0.0
 11
2595.088845
 21
5068.042907
 31
0.0
  0
LINE
  8
40
  6
CONTINUOUS
 62
     4
  5
42E
 10
2601.588765
 20
5068.042767
 30
0.0
 11
2601.588765
 21
5090.6271
 31
0.0
  0
LINE
  8
40
  6
CONTINUOUS
 62
     4
  5
42F
 10
2573.588765
 20
5068.042767
 30
0.0
 11
2573.588765
 21
5090.6271
 31
0.0
  0
LINE
  8
40
  6
CONTINUOUS
 62
     4
  5
430
 10
2601.588765
 20
5068.042907
 30
0.0
 11
2573.588765
 21
5068.042907
 31
0.0
  0
LINE
  8
40
  6
DOT
 62
     3
  5
431
 10
2164.322177
 20
5062.042787
 30
0.0
 11
2149.322157
 21
5062.042787
 31
0.0
  0
LINE
  8
40
  6
DOT
 62
     3
  5
432
 10
2164.322177
 20
5062.042787
 30
0.0
 11
2164.322177
 21
5068.042907
 31
0.0
  0
LINE
  8
40
  6
DOT
 62
     3
  5
433
 10
2149.322157
 20
5062.042787
 30
0.0
 11
2149.322157
 21
5068.042907
 31
0.0
  0
LINE
  8
40
  6
CONTINUOUS
 62
     4
  5
434
 10
2170.822237
 20
5068.042767
 30
0.0
 11
2170.822237
 21
5090.6271
 31
0.0
  0
LINE
  8
7
  6
CONTINUOUS
 62
     4
  5
435
 10
2142.822237
 20
5098.092976
 30
0.0
 11
2142.822237
 21
5068.042767
 31
0.0
  0
LINE
  8
7
  6
CONTINUOUS
 62
     4
  5
436
 10
2142.822237
 20
5043.000926
 30
0.0
 11
2601.588765
 21
5043.000926
 31
0.0
  0
ARC
  8
7
  6
CONTINUOUS
 62
     4
  5
437
 10
2142.822237
 20
5053.017662
 30
0.0
 40
10.016736
 50
180.0
 51
270.0
  0
LINE
  8
7
  6
CONTINUOUS
 62
     4
  5
438
 10
2132.805501
 20
5053.017662
 30
0.0
 11
2132.805501
 21
5068.042767
 31
0.0
  0
LINE
  8
40
  6
CONTINUOUS
 62
     4
  5
439
 10
2142.822237
 20
5068.042767
 30
0.0
 11
2142.822237
 21
5090.6271
 31
0.0
  0
LINE
  8
40
  6
CONTINUOUS
 62
     4
  5
43A
 10
2142.822237
 20
5068.042907
 30
0.0
 11
2170.822237
 21
5068.042907
 31
0.0
  0
LINE
  8
7
  6
CONTINUOUS
 62
     4
  5
43B
 10
2611.605501
 20
5053.017662
 30
0.0
 11
2611.605501
 21
5068.042767
 31
0.0
  0
LINE
  8
7
  6
CONTINUOUS
 62
     4
  5
43C
 10
2132.805501
 20
5068.042767
 30
0.0
 11
2611.605501
 21
5068.042767
 31
0.0
  0
ARC
  8
7
  6
CONTINUOUS
 62
     4
  5
43D
 10
2601.588765
 20
5053.017662
 30
0.0
 40
10.016736
 50
270.0
 51
360.0
  0
LINE
  8
1
  6
CONTINUOUS
 62
     4
  5
43E
 10
3078.097815
 20
4673.514795
 30
0.0
 11
3078.097815
 21
4674.728175
 31
0.0
  0
LINE
  8
1
  6
CONTINUOUS
 62
     4
  5
43F
 10
3077.588845
 20
4673.514795
 30
0.0
 11
3078.097815
 21
4673.514795
 31
0.0
  0
LINE
  8
1
  6
CONTINUOUS
 62
     4
  5
440
 10
3077.588845
 20
4674.728175
 30
0.0
 11
3078.097815
 21
4674.728175
 31
0.0
  0
LINE
  8
1
  6
CONTINUOUS
 62
     4
  5
441
 10
3077.588845
 20
4673.514795
 30
0.0
 11
3077.588845
 21
4674.728175
 31
0.0
  0
LINE
  8
12
  6
CONTINUOUS
 62
     4
  5
442
 10
3081.588855
 20
4678.371535
 30
0.0
 11
3078.588865
 21
4678.371535
 31
0.0
  0
LINE
  8
12
  6
CONTINUOUS
 62
     4
  5
443
 10
3078.588865
 20
4678.371535
 30
0.0
 11
3081.588855
 21
4678.371535
 31
0.0
  0
LINE
  8
12
  6
CONTINUOUS
 62
     4
  5
444
 10
3078.588865
 20
4669.871435
 30
0.0
 11
3078.588865
 21
4678.371535
 31
0.0
  0
ARC
  8
12
  6
CONTINUOUS
 62
     4
  5
445
 10
3087.120115
 20
4674.121555
 30
0.0
 40
9.53134
 50
153.51896
 51
206.48104
  0
LINE
  8
12
  6
CENTER
 62
     4
  5
446
 10
3078.588865
 20
4674.121555
 30
0.0
 11
3119.588845
 21
4674.121555
 31
0.0
  0
LINE
  8
12
  6
CENTER
 62
     4
  5
447
 10
3119.588845
 20
4674.121555
 30
0.0
 11
3080.081825
 21
4674.121555
 31
0.0
  0
LINE
  8
2
  6
CONTINUOUS
 62
     2
  5
448
 10
3012.546764
 20
4613.043978
 30
0.0
 11
2887.588835
 21
4613.043978
 31
0.0
  0
LINE
  8
2
  6
CONTINUOUS
 62
     2
  5
449
 10
3087.588835
 20
4513.043978
 30
0.0
 11
3037.588605
 21
4513.043978
 31
0.0
  0
LINE
  8
2
  6
CONTINUOUS
 62
     2
  5
44A
 10
3012.546764
 20
4513.043978
 30
0.0
 11
2802.852126
 21
4513.043978
 31
0.0
  0
LINE
  8
2
  6
CONTINUOUS
 62
     2
  5
44B
 10
3087.588835
 20
4413.043978
 30
0.0
 11
3037.588605
 21
4413.043978
 31
0.0
  0
LINE
  8
2
  6
CONTINUOUS
 62
     2
  5
44C
 10
3012.546764
 20
4413.043978
 30
0.0
 11
1287.588835
 21
4413.043978
 31
0.0
  0
LINE
  8
2
  6
CONTINUOUS
 62
     2
  5
44D
 10
3012.546764
 20
4213.043978
 30
0.0
 11
1286.088835
 21
4213.043978
 31
0.0
  0
LINE
  8
2
  6
CONTINUOUS
 62
     2
  5
44E
 10
3087.588835
 20
4313.043978
 30
0.0
 11
3037.588605
 21
4313.043978
 31
0.0
  0
LINE
  8
2
  6
CONTINUOUS
 62
     2
  5
44F
 10
3012.546764
 20
4313.043978
 30
0.0
 11
1286.088835
 21
4313.043978
 31
0.0
  0
LINE
  8
7
  6
CENTER
 62
     3
  5
450
 10
2059.717169
 20
1515.138652
 30
0.0
 11
2119.793602
 21
1515.138652
 31
0.0
  0
LINE
  8
7
  6
CONTINUOUS
 62
     3
  5
451
 10
2119.793602
 20
1860.387059
 30
0.0
 11
2104.774494
 21
1860.387059
 31
0.0
  0
LINE
  8
7
  6
CONTINUOUS
 62
     3
  5
452
 10
2104.774494
 20
1770.27241
 30
0.0
 11
2119.793602
 21
1770.27241
 31
0.0
  0
LINE
  8
7
  6
CONTINUOUS
 62
     3
  5
453
 10
2104.774494
 20
1860.387059
 30
0.0
 11
2104.774494
 21
1825.342473
 31
0.0
  0
LINE
  8
7
  6
CONTINUOUS
 62
     3
  5
454
 10
2104.774494
 20
1805.316995
 30
0.0
 11
2104.774494
 21
1770.27241
 31
0.0
  0
LINE
  8
7
  6
CONTINUOUS
 62
     3
  5
455
 10
2104.774494
 20
1825.342473
 30
0.0
 11
2074.736277
 21
1825.342473
 31
0.0
  0
LINE
  8
7
  6
CONTINUOUS
 62
     3
  5
456
 10
2104.774494
 20
1805.316995
 30
0.0
 11
2074.736277
 21
1805.316995
 31
0.0
  0
LINE
  8
7
  6
CONTINUOUS
 62
     3
  5
457
 10
2119.793602
 20
1560.004894
 30
0.0
 11
2104.774494
 21
1560.004894
 31
0.0
  0
LINE
  8
7
  6
CONTINUOUS
 62
     3
  5
458
 10
2104.774494
 20
1469.890244
 30
0.0
 11
2119.793602
 21
1469.890244
 31
0.0
  0
LINE
  8
7
  6
CONTINUOUS
 62
     3
  5
459
 10
2104.774494
 20
1560.004894
 30
0.0
 11
2104.774494
 21
1524.960308
 31
0.0
  0
LINE
  8
7
  6
CONTINUOUS
 62
     3
  5
45A
 10
2104.774494
 20
1504.93483
 30
0.0
 11
2104.774494
 21
1469.890244
 31
0.0
  0
LINE
  8
7
  6
CONTINUOUS
 62
     3
  5
45B
 10
2104.774494
 20
1524.960308
 30
0.0
 11
2074.736277
 21
1524.960308
 31
0.0
  0
LINE
  8
7
  6
CONTINUOUS
 62
     3
  5
45C
 10
2104.774494
 20
1504.93483
 30
0.0
 11
2074.736277
 21
1504.93483
 31
0.0
  0
LINE
  8
7
  6
CONTINUOUS
 62
     1
  5
45D
 10
2059.717169
 20
1979.538652
 30
0.0
 11
2074.736277
 21
1979.538652
 31
0.0
  0
ARC
  8
7
  6
CONTINUOUS
 62
     1
  5
45E
 10
2059.717169
 20
1969.525913
 30
0.0
 40
10.012739
 50
90.0
 51
180.0
  0
ARC
  8
7
  6
CONTINUOUS
 62
     1
  5
45F
 10
2059.717169
 20
1360.75139
 30
0.0
 40
10.012739
 50
180.0
 51
270.0
  0
LINE
  8
7
  6
CONTINUOUS
 62
     1
  5
460
 10
2059.717169
 20
1350.738652
 30
0.0
 11
2074.736277
 21
1350.738652
 31
0.0
  0
LINE
  8
7
  6
CONTINUOUS
 62
     1
  5
461
 10
2049.70443
 20
1969.525913
 30
0.0
 11
2049.70443
 21
1360.75139
 31
0.0
  0
LINE
  8
7
  6
CONTINUOUS
 62
     1
  5
462
 10
2074.736277
 20
1979.538652
 30
0.0
 11
2074.736277
 21
1350.738652
 31
0.0
  0
LINE
  8
2
  6
CONTINUOUS
 62
     3
  5
463
 10
2019.793602
 20
3165.138752
 30
0.0
 11
2019.793602
 21
815.138652
 31
0.0
  0
LINE
  8
2
  6
CONTINUOUS
 62
     3
  5
464
 10
1919.793602
 20
3165.138752
 30
0.0
 11
1919.793602
 21
815.138652
 31
0.0
  0
LINE
  8
2
  6
CONTINUOUS
 62
     3
  5
465
 10
1819.793602
 20
3165.138752
 30
0.0
 11
1819.793602
 21
815.138652
 31
0.0
  0
LINE
  8
2
  6
CONTINUOUS
 62
     3
  5
466
 10
1719.793602
 20
3165.138752
 30
0.0
 11
1719.793602
 21
815.138652
 31
0.0
  0
LINE
  8
2
  6
CONTINUOUS
 62
     3
  5
467
 10
519.793602
 20
3165.138752
 30
0.0
 11
519.793602
 21
515.138652
 31
0.0
  0
LINE
  8
2
  6
CONTINUOUS
 62
     3
  5
468
 10
419.793602
 20
3165.138752
 30
0.0
 11
419.793602
 21
515.138652
 31
0.0
  0
LINE
  8
2
  6
CONTINUOUS
 62
     3
  5
469
 10
619.793602
 20
515.138652
 30
0.0
 11
619.793602
 21
1415.138752
 31
0.0
  0
LINE
  8
2
  6
CONTINUOUS
 62
     3
  5
46A
 10
719.793602
 20
515.138652
 30
0.0
 11
719.793602
 21
1415.138752
 31
0.0
  0
LINE
  8
2
  6
CONTINUOUS
 62
     3
  5
46B
 10
819.793602
 20
515.138652
 30
0.0
 11
819.793602
 21
1415.138752
 31
0.0
  0
LINE
  8
2
  6
CONTINUOUS
 62
     3
  5
46C
 10
919.793602
 20
515.138652
 30
0.0
 11
919.793602
 21
1415.138752
 31
0.0
  0
LINE
  8
2
  6
CONTINUOUS
 62
     3
  5
46D
 10
1019.793602
 20
515.138652
 30
0.0
 11
1019.793602
 21
1415.138752
 31
0.0
  0
LINE
  8
2
  6
CONTINUOUS
 62
     3
  5
46E
 10
1119.793602
 20
515.138652
 30
0.0
 11
1119.793602
 21
1415.138752
 31
0.0
  0
LINE
  8
1
  6
CONTINUOUS
 62
     6
  5
46F
 10
229.793902
 20
3135.139152
 30
0.0
 11
199.793902
 21
3135.139152
 31
0.0
  0
LINE
  8
1
  6
CONTINUOUS
 62
     6
  5
470
 10
229.793902
 20
2570.138752
 30
0.0
 11
199.793902
 21
2570.138752
 31
0.0
  0
LINE
  8
1
  6
CONTINUOUS
 62
     6
  5
471
 10
199.793902
 20
3135.139152
 30
0.0
 11
199.793902
 21
525.138752
 31
0.0
  0
LINE
  8
1
  6
CONTINUOUS
 62
     6
  5
472
 10
229.793902
 20
3135.139152
 30
0.0
 11
229.793902
 21
525.138752
 31
0.0
  0
LINE
  8
1
  6
CONTINUOUS
 62
     6
  5
473
 10
229.793902
 20
525.138752
 30
0.0
 11
199.793902
 21
525.138752
 31
0.0
  0
LINE
  8
5
  6
CONTINUOUS
 62
     4
  5
474
 10
194.793902
 20
520.138652
 30
0.0
 11
194.793902
 21
515.138752
 31
0.0
  0
LINE
  8
5
  6
CONTINUOUS
 62
     4
  5
475
 10
194.793902
 20
520.138652
 30
0.0
 11
234.793902
 21
520.138652
 31
0.0
  0
LINE
  8
5
  6
CONTINUOUS
 62
     4
  5
476
 10
234.793902
 20
520.138652
 30
0.0
 11
234.793902
 21
515.138652
 31
0.0
  0
LINE
  8
5
  6
CONTINUOUS
 62
     4
  5
477
 10
194.793902
 20
515.138752
 30
0.0
 11
93.410602
 21
515.138752
 31
0.0
  0
LINE
  8
1
  6
CONTINUOUS
 62
     1
  5
478
 10
314.793902
 20
3140.139152
 30
0.0
 11
314.793902
 21
515.138652
 31
0.0
  0
LINE
  8
1
  6
CONTINUOUS
 62
     1
  5
479
 10
254.793902
 20
3140.139152
 30
0.0
 11
254.793902
 21
515.138652
 31
0.0
  0
LINE
  8
5
  6
CONTINUOUS
 62
     4
  5
47A
 10
234.793902
 20
515.138652
 30
0.0
 11
1419.794002
 21
515.138652
 31
0.0
  0
LINE
  8
2
  6
CONTINUOUS
 62
     2
  5
47B
 10
2119.793602
 20
1799.138952
 30
0.0
 11
2119.793602
 21
1327.638752
 31
0.0
  0
LINE
  8
2
  6
CONTINUOUS
 62
     2
  5
47C
 10
1246.793702
 20
817.138652
 30
0.0
 11
1246.793702
 21
755.138752
 31
0.0
  0
LINE
  8
2
  6
CONTINUOUS
 62
     2
  5
47D
 10
1655.353602
 20
827.138452
 30
0.0
 11
1256.793602
 21
827.138452
 31
0.0
  0
LINE
  8
2
  6
CONTINUOUS
 62
     2
  5
47E
 10
1886.943502
 20
925.138652
 30
0.0
 11
1806.633802
 21
925.138652
 31
0.0
  0
LINE
  8
2
  6
CONTINUOUS
 62
     2
  5
47F
 10
1860.733502
 20
831.138852
 30
0.0
 11
1725.353802
 21
831.138852
 31
0.0
  0
LINE
  8
2
  6
CONTINUOUS
 62
     2
  5
480
 10
1655.353602
 20
827.138452
 30
0.0
 11
1725.353802
 21
831.128752
 31
0.0
  0
LINE
  8
2
  6
CONTINUOUS
 62
     2
  5
481
 10
1833.793902
 20
938.328752
 30
0.0
 11
1833.653402
 21
938.328752
 31
0.0
  0
LINE
  8
2
  6
CONTINUOUS
 62
     2
  5
482
 10
1875.943702
 20
938.328752
 30
0.0
 11
1875.793602
 21
938.328752
 31
0.0
  0
LINE
  8
2
  6
CONTINUOUS
 62
     2
  5
483
 10
1833.643802
 20
938.328752
 30
0.0
 11
1832.293902
 21
936.978752
 31
0.0
  0
LINE
  8
2
  6
CONTINUOUS
 62
     2
  5
484
 10
1877.293602
 20
936.978752
 30
0.0
 11
1875.943702
 21
938.328752
 31
0.0
  0
LINE
  8
2
  6
CONTINUOUS
 62
     2
  5
485
 10
1877.293602
 20
936.978752
 30
0.0
 11
1877.293602
 21
934.138452
 31
0.0
  0
LINE
  8
2
  6
CONTINUOUS
 62
     2
  5
486
 10
1832.293902
 20
936.978752
 30
0.0
 11
1832.293902
 21
934.138452
 31
0.0
  0
LINE
  8
2
  6
CONTINUOUS
 62
     2
  5
487
 10
1873.793702
 20
949.838552
 30
0.0
 11
1873.793702
 21
940.328652
 31
0.0
  0
LINE
  8
2
  6
CONTINUOUS
 62
     2
  5
488
 10
1835.793802
 20
949.838552
 30
0.0
 11
1835.793802
 21
940.328652
 31
0.0
  0
LINE
  8
2
  6
CONTINUOUS
 62
     2
  5
489
 10
1874.543902
 20
949.838552
 30
0.0
 11
1835.043602
 21
949.838552
 31
0.0
  0
LINE
  8
2
  6
CONTINUOUS
 62
     2
  5
48A
 10
1874.543902
 20
961.838852
 30
0.0
 11
1835.043602
 21
961.838852
 31
0.0
  0
LINE
  8
2
  6
CONTINUOUS
 62
     2
  5
48B
 10
1881.293502
 20
932.688852
 30
0.0
 11
1881.293502
 21
928.138552
 31
0.0
  0
LINE
  8
2
  6
CONTINUOUS
 62
     2
  5
48C
 10
1881.293502
 20
932.688852
 30
0.0
 11
1878.793602
 21
934.138452
 31
0.0
  0
LINE
  8
2
  6
CONTINUOUS
 62
     2
  5
48D
 10
1886.293902
 20
926.138652
 30
0.0
 11
1886.293902
 21
925.138652
 31
0.0
  0
LINE
  8
2
  6
CONTINUOUS
 62
     2
  5
48E
 10
1828.293502
 20
928.138552
 30
0.0
 11
1828.293502
 21
932.688852
 31
0.0
  0
LINE
  8
2
  6
CONTINUOUS
 62
     2
  5
48F
 10
1830.793502
 20
934.128852
 30
0.0
 11
1828.293502
 21
932.688852
 31
0.0
  0
LINE
  8
2
  6
CONTINUOUS
 62
     2
  5
490
 10
1823.293602
 20
925.138652
 30
0.0
 11
1823.293602
 21
926.138652
 31
0.0
  0
LINE
  8
2
  6
CONTINUOUS
 62
     2
  5
491
 10
1885.793502
 20
926.638652
 30
0.0
 11
1823.793602
 21
926.638652
 31
0.0
  0
LINE
  8
2
  6
CONTINUOUS
 62
     2
  5
492
 10
1878.793602
 20
934.138452
 30
0.0
 11
1830.793502
 21
934.138452
 31
0.0
  0
LINE
  8
2
  6
CONTINUOUS
 62
     2
  5
493
 10
1970.923802
 20
1284.778552
 30
0.0
 11
1970.923802
 21
1047.258752
 31
0.0
  0
LINE
  8
2
  6
CONTINUOUS
 62
     2
  5
494
 10
1838.923702
 20
1011.008652
 30
0.0
 11
1838.923702
 21
961.838852
 31
0.0
  0
LINE
  8
2
  6
CONTINUOUS
 62
     2
  5
495
 10
1870.673802
 20
1008.258452
 30
0.0
 11
1870.673802
 21
961.838852
 31
0.0
  0
LINE
  8
2
  6
CONTINUOUS
 62
     2
  5
496
 10
1877.733702
 20
1041.008552
 30
0.0
 11
1868.923702
 21
1041.008552
 31
0.0
  0
LINE
  8
2
  6
CONTINUOUS
 62
     2
  5
497
 10
1888.313502
 20
1041.938552
 30
0.0
 11
1878.563502
 21
1041.938552
 31
0.0
  0
LINE
  8
2
  6
CONTINUOUS
 62
     2
  5
498
 10
1888.313502
 20
1008.338552
 30
0.0
 11
1878.563502
 21
1008.338552
 31
0.0
  0
LINE
  8
2
  6
CONTINUOUS
 62
     2
  5
499
 10
1909.853902
 20
1035.908552
 30
0.0
 11
1911.183702
 21
1031.808852
 31
0.0
  0
LINE
  8
2
  6
CONTINUOUS
 62
     2
  5
49A
 10
1911.183702
 20
1018.458652
 30
0.0
 11
1909.853902
 21
1014.358552
 31
0.0
  0
LINE
  8
2
  6
CONTINUOUS
 62
     2
  5
49B
 10
1877.733702
 20
1009.258452
 30
0.0
 11
1871.673802
 21
1009.258452
 31
0.0
  0
LINE
  8
2
  6
CONTINUOUS
 62
     2
  5
49C
 10
1940.381402
 20
1029.638752
 30
0.0
 11
1925.453802
 21
1029.638752
 31
0.0
  0
LINE
  8
2
  6
CONTINUOUS
 62
     2
  5
49D
 10
1940.381402
 20
1020.638852
 30
0.0
 11
1925.453802
 21
1020.638852
 31
0.0
  0
LINE
  8
2
  6
CONTINUOUS
 62
     2
  5
49E
 10
1940.381402
 20
1029.638752
 30
0.0
 11
1940.381402
 21
1020.638852
 31
0.0
  0
LINE
  8
2
  6
CONTINUOUS
 62
     2
  5
49F
 10
1908.473802
 20
1045.888652
 30
0.0
 11
1903.283602
 21
1045.888652
 31
0.0
  0
LINE
  8
2
  6
CONTINUOUS
 62
     2
  5
4A0
 10
1932.543802
 20
1029.638752
 30
0.0
 11
1932.543802
 21
1020.638852
 31
0.0
  0
LINE
  8
2
  6
CONTINUOUS
 62
     2
  5
4A1
 10
1898.533902
 20
843.288652
 30
0.0
 11
1898.533902
 21
996.978652
 31
0.0
  0
LINE
  8
2
  6
CONTINUOUS
 62
     2
  5
4A2
 10
1908.033702
 20
843.288652
 30
0.0
 11
1908.033702
 21
996.978652
 31
0.0
  0
LINE
  8
2
  6
CONTINUOUS
 62
     2
  5
4A3
 10
1897.233802
 20
997.138752
 30
0.0
 11
1909.333802
 21
997.138752
 31
0.0
  0
LINE
  8
2
  6
CONTINUOUS
 62
     2
  5
4A4
 10
1898.523802
 20
838.138752
 30
0.0
 11
1898.523802
 21
843.138652
 31
0.0
  0
LINE
  8
2
  6
CONTINUOUS
 62
     2
  5
4A5
 10
1908.043802
 20
838.138752
 30
0.0
 11
1908.043802
 21
843.138652
 31
0.0
  0
LINE
  8
2
  6
CONTINUOUS
 62
     2
  5
4A6
 10
1911.943502
 20
837.468552
 30
0.0
 11
1911.943502
 21
831.638852
 31
0.0
  0
LINE
  8
2
  6
CONTINUOUS
 62
     2
  5
4A7
 10
1896.683502
 20
838.138752
 30
0.0
 11
1910.783902
 21
838.138752
 31
0.0
  0
LINE
  8
2
  6
CONTINUOUS
 62
     2
  5
4A8
 10
1896.733802
 20
831.638852
 30
0.0
 11
1911.943502
 21
831.638852
 31
0.0
  0
LINE
  8
2
  6
CONTINUOUS
 62
     2
  5
4A9
 10
1910.783902
 20
838.138752
 30
0.0
 11
1911.943502
 21
837.468552
 31
0.0
  0
LINE
  8
2
  6
CONTINUOUS
 62
     2
  5
4AA
 10
1929.783602
 20
816.638652
 30
0.0
 11
1929.783602
 21
815.138652
 31
0.0
  0
LINE
  8
2
  6
CONTINUOUS
 62
     2
  5
4AB
 10
1910.783902
 20
830.638852
 30
0.0
 11
1910.783902
 21
821.638552
 31
0.0
  0
LINE
  8
2
  6
CONTINUOUS
 62
     2
  5
4AC
 10
1927.783602
 20
818.638652
 30
0.0
 11
1896.793702
 21
818.638652
 31
0.0
  0
LINE
  8
2
  6
CONTINUOUS
 62
     2
  5
4AD
 10
1896.233802
 20
998.078852
 30
0.0
 11
1896.023802
 21
1002.018852
 31
0.0
  0
LINE
  8
2
  6
CONTINUOUS
 62
     2
  5
4AE
 10
1910.333702
 20
998.078852
 30
0.0
 11
1910.743602
 21
1005.828552
 31
0.0
  0
LINE
  8
2
  6
CONTINUOUS
 62
     2
  5
4AF
 10
1785.793802
 20
1799.138952
 30
0.0
 11
1785.793802
 21
1733.138252
 31
0.0
  0
LINE
  8
2
  6
CONTINUOUS
 62
     2
  5
4B0
 10
2108.043602
 20
1315.138452
 30
0.0
 11
1825.313702
 21
1315.138452
 31
0.0
  0
LINE
  8
2
  6
CONTINUOUS
 62
     2
  5
4B1
 10
1796.793602
 20
1730.138352
 30
0.0
 11
1813.613502
 21
1342.318652
 31
0.0
  0
LINE
  8
2
  6
CONTINUOUS
 62
     2
  5
4B2
 10
2004.793702
 20
1795.139052
 30
0.0
 11
2004.793702
 21
1740.128552
 31
0.0
  0
LINE
  8
2
  6
CONTINUOUS
 62
     2
  5
4B3
 10
2011.793602
 20
1730.138352
 30
0.0
 11
2027.533502
 21
1367.388752
 31
0.0
  0
LINE
  8
2
  6
CONTINUOUS
 62
     2
  5
4B4
 10
1903.303702
 20
1725.128752
 30
0.0
 11
1884.923802
 21
1724.628352
 31
0.0
  0
LINE
  8
2
  6
CONTINUOUS
 62
     2
  5
4B5
 10
1901.953702
 20
1685.178452
 30
0.0
 11
1889.393602
 21
1685.518752
 31
0.0
  0
LINE
  8
2
  6
CONTINUOUS
 62
     2
  5
4B6
 10
1902.153702
 20
1683.148752
 30
0.0
 11
1902.153702
 21
1662.038852
 31
0.0
  0
LINE
  8
2
  6
CONTINUOUS
 62
     2
  5
4B7
 10
1877.053402
 20
1685.638652
 30
0.0
 11
1877.053402
 21
1662.138552
 31
0.0
  0
LINE
  8
2
  6
CONTINUOUS
 62
     2
  5
4B8
 10
1887.663502
 20
1685.638652
 30
0.0
 11
1887.663502
 21
1662.138552
 31
0.0
  0
LINE
  8
2
  6
CONTINUOUS
 62
     2
  5
4B9
 10
1896.363702
 20
1654.138652
 30
0.0
 11
1882.233602
 21
1654.639152
 31
0.0
  0
LINE
  8
2
  6
CONTINUOUS
 62
     2
  5
4BA
 10
1957.293602
 20
1304.138652
 30
0.0
 11
2016.293502
 21
1304.138652
 31
0.0
  0
LINE
  8
2
  6
CONTINUOUS
 62
     2
  5
4BB
 10
1954.293702
 20
1312.138552
 30
0.0
 11
1954.293702
 21
1315.138452
 31
0.0
  0
LINE
  8
2
  6
CONTINUOUS
 62
     2
  5
4BC
 10
2019.293502
 20
1312.138552
 30
0.0
 11
2019.293502
 21
1315.138452
 31
0.0
  0
LINE
  8
2
  6
CONTINUOUS
 62
     2
  5
4BD
 10
2016.793502
 20
1304.638652
 30
0.0
 11
2016.793502
 21
1309.638552
 31
0.0
  0
LINE
  8
2
  6
CONTINUOUS
 62
     2
  5
4BE
 10
1956.793602
 20
1304.638652
 30
0.0
 11
1956.793602
 21
1309.638552
 31
0.0
  0
LINE
  8
2
  6
CONTINUOUS
 62
     2
  5
4BF
 10
1954.793702
 20
1311.638552
 30
0.0
 11
2018.793502
 21
1311.638552
 31
0.0
  0
LINE
  8
2
  6
CONTINUOUS
 62
     2
  5
4C0
 10
2008.543402
 20
1284.778552
 30
0.0
 11
1965.043702
 21
1284.778552
 31
0.0
  0
LINE
  8
2
  6
CONTINUOUS
 62
     2
  5
4C1
 10
2008.543402
 20
1299.778652
 30
0.0
 11
1965.043702
 21
1299.778652
 31
0.0
  0
LINE
  8
2
  6
CONTINUOUS
 62
     2
  5
4C2
 10
1965.843802
 20
1299.778652
 30
0.0
 11
1965.843802
 21
1304.138652
 31
0.0
  0
LINE
  8
2
  6
CONTINUOUS
 62
     2
  5
4C3
 10
2007.753402
 20
1299.778652
 30
0.0
 11
2007.753402
 21
1304.138652
 31
0.0
  0
LINE
  8
2
  6
CONTINUOUS
 62
     2
  5
4C4
 10
1964.673602
 20
1041.008552
 30
0.0
 11
1921.583802
 21
1041.008552
 31
0.0
  0
LINE
  8
2
  6
CONTINUOUS
 62
     2
  5
4C5
 10
1964.673602
 20
1009.258452
 30
0.0
 11
1921.583802
 21
1009.258452
 31
0.0
  0
LINE
  8
2
  6
CONTINUOUS
 62
     2
  5
4C6
 10
2119.793602
 20
1247.738452
 30
0.0
 11
2034.661102
 21
1246.869652
 31
0.0
  0
LINE
  8
2
  6
CONTINUOUS
 62
     2
  5
4C7
 10
2021.793502
 20
1233.870352
 30
0.0
 11
2021.793502
 21
1186.243752
 31
0.0
  0
LINE
  8
2
  6
CONTINUOUS
 62
     2
  5
4C8
 10
2033.213202
 20
1173.340252
 30
0.0
 11
2119.793602
 21
1162.738452
 31
0.0
  0
LINE
  8
2
  6
CONTINUOUS
 62
     2
  5
4C9
 10
2119.793602
 20
1162.738452
 30
0.0
 11
2119.793602
 21
1247.738452
 31
0.0
  0
LINE
  8
2
  6
CONTINUOUS
 62
     2
  5
4CA
 10
2015.005302
 20
1221.944452
 30
0.0
 11
2015.531102
 21
1221.576552
 31
0.0
  0
LINE
  8
2
  6
CONTINUOUS
 62
     2
  5
4CB
 10
2015.252902
 20
1222.900252
 30
0.0
 11
2014.920402
 21
1222.344252
 31
0.0
  0
LINE
  8
2
  6
CONTINUOUS
 62
     2
  5
4CC
 10
2016.644802
 20
1222.506152
 30
0.0
 11
2015.936202
 21
1221.633452
 31
0.0
  0
LINE
  8
2
  6
CONTINUOUS
 62
     2
  5
4CD
 10
2016.644802
 20
1222.506152
 30
0.0
 11
2016.807502
 21
1222.738352
 31
0.0
  0
LINE
  8
2
  6
CONTINUOUS
 62
     2
  5
4CE
 10
2099.793902
 20
1247.738452
 30
0.0
 11
2039.293602
 21
1247.738452
 31
0.0
  0
LINE
  8
2
  6
CONTINUOUS
 62
     2
  5
4CF
 10
2017.409402
 20
1222.738352
 30
0.0
 11
2015.798802
 21
1222.738352
 31
0.0
  0
LINE
  8
2
  6
CONTINUOUS
 62
     2
  5
4D0
 10
2014.798802
 20
1227.738752
 30
0.0
 11
2014.798802
 21
1223.738352
 31
0.0
  0
LINE
  8
2
  6
CONTINUOUS
 62
     2
  5
4D1
 10
2002.673502
 20
1284.778552
 30
0.0
 11
2002.673502
 21
1207.809952
 31
0.0
  0
LINE
  8
2
  6
CONTINUOUS
 62
     2
  5
4D2
 10
2002.673502
 20
1147.914152
 30
0.0
 11
2002.673502
 21
1047.258752
 31
0.0
  0
ARC
  8
2
  6
CONTINUOUS
 62
     2
  5
4D3
 10
1256.793602
 20
817.138652
 30
0.0
 40
10.0
 50
90.0
 51
180.0
  0
ARC
  8
2
  6
CONTINUOUS
 62
     2
  5
4D4
 10
1886.943502
 20
917.138752
 30
0.0
 40
7.999999
 50
2.019012
 51
90.001708
  0
ARC
  8
2
  6
CONTINUOUS
 62
     2
  5
4D5
 10
1743.793602
 20
979.138652
 30
0.0
 40
5.99988
 50
51.470001
 51
146.17961
  0
ARC
  8
2
  6
CONTINUOUS
 62
     2
  5
4D6
 10
-1103.200698
 20
811.698652
 30
0.0
 40
2999.9996
 50
0.066009
 51
2.020004
  0
ARC
  8
2
  6
CONTINUOUS
 62
     2
  5
4D7
 10
663.223502
 20
1412.668852
 30
0.0
 40
1150.0
 50
331.16801
 51
333.96101
  0
ARC
  8
2
  6
CONTINUOUS
 62
     2
  5
4D8
 10
1618.163502
 20
887.138852
 30
0.0
 40
60.000001
 50
270.0
 51
331.3
  0
ARC
  8
2
  6
CONTINUOUS
 62
     2
  5
4D9
 10
2325.433802
 20
600.538452
 30
0.0
 40
700.00006
 50
146.93661
 51
153.9606
  0
ARC
  8
2
  6
CONTINUOUS
 62
     2
  5
4DA
 10
1177.473802
 20
426.168552
 30
0.0
 40
799.99998
 50
38.861007
 51
42.009002
  0
ARC
  8
2
  6
CONTINUOUS
 62
     2
  5
4DB
 10
1806.633802
 20
933.138552
 30
0.0
 40
7.999999
 50
218.86
 51
270.0
  0
ARC
  8
2
  6
CONTINUOUS
 62
     2
  5
4DC
 10
1645.583902
 20
847.788652
 30
0.0
 40
170.0
 50
42.009002
 51
53.234008
  0
ARC
  8
2
  6
CONTINUOUS
 62
     2
  5
4DD
 10
1256.793602
 20
755.138752
 30
0.0
 40
10.0
 50
180.0
 51
270.0
  0
ARC
  8
2
  6
CONTINUOUS
 62
     2
  5
4DE
 10
1356.793702
 20
793.138552
 30
0.0
 40
99.999998
 50
211.82101
 51
235.097
  0
ARC
  8
2
  6
CONTINUOUS
 62
     2
  5
4DF
 10
1263.333702
 20
735.138652
 30
0.0
 40
10.0
 50
31.821014
 51
90.0
  0
ARC
  8
2
  6
CONTINUOUS
 62
     2
  5
4E0
 10
1875.793602
 20
940.328652
 30
0.0
 40
2.0
 50
180.0
 51
270.0
  0
ARC
  8
2
  6
CONTINUOUS
 62
     2
  5
4E1
 10
1833.793902
 20
940.328652
 30
0.0
 40
2.0
 50
270.0
 51
360.0
  0
ARC
  8
2
  6
CONTINUOUS
 62
     2
  5
4E2
 10
1869.373802
 20
955.838452
 30
0.0
 40
7.92043
 50
310.753
 51
49.247009
  0
ARC
  8
2
  6
CONTINUOUS
 62
     2
  5
4E3
 10
1840.213702
 20
955.838452
 30
0.0
 40
7.92043
 50
130.7526
 51
229.247
  0
ARC
  8
2
  6
CONTINUOUS
 62
     2
  5
4E4
 10
1885.793502
 20
926.138652
 30
0.0
 40
0.5
 50
360.0
 51
90.0
  0
ARC
  8
2
  6
CONTINUOUS
 62
     2
  5
4E5
 10
1882.793502
 20
928.138552
 30
0.0
 40
1.5
 50
180.0
 51
270.0
  0
ARC
  8
2
  6
CONTINUOUS
 62
     2
  5
4E6
 10
1823.793602
 20
926.138652
 30
0.0
 40
0.5
 50
90.0
 51
180.0
  0
ARC
  8
2
  6
CONTINUOUS
 62
     2
  5
4E7
 10
1826.793502
 20
928.138552
 30
0.0
 40
1.5
 50
270.0
 51
360.0
  0
ARC
  8
2
  6
CONTINUOUS
 62
     2
  5
4E8
 10
1868.923702
 20
1011.008652
 30
0.0
 40
30.0
 50
90.0
 51
180.0
  0
ARC
  8
2
  6
CONTINUOUS
 62
     2
  5
4E9
 10
1892.293802
 20
1030.168452
 30
0.0
 40
18.466399
 50
18.102005
 51
134.93971
  0
ARC
  8
2
  6
CONTINUOUS
 62
     2
  5
4EA
 10
1892.293802
 20
1020.098652
 30
0.0
 40
18.466199
 50
225.06401
 51
341.89601
  0
ARC
  8
2
  6
CONTINUOUS
 62
     2
  5
4EB
 10
1964.673602
 20
1047.258752
 30
0.0
 40
37.999998
 50
270.0
 51
360.0
  0
ARC
  8
2
  6
CONTINUOUS
 62
     2
  5
4EC
 10
1964.673602
 20
1047.258752
 30
0.0
 40
6.25
 50
270.0
 51
360.0
  0
ARC
  8
2
  6
CONTINUOUS
 62
     2
  5
4ED
 10
1871.673802
 20
1008.258452
 30
0.0
 40
1.0
 50
90.0
 51
180.0
  0
ARC
  8
2
  6
CONTINUOUS
 62
     2
  5
4EE
 10
1925.453802
 20
1032.638652
 30
0.0
 40
3.0
 50
198.12901
 51
270.0
  0
ARC
  8
2
  6
CONTINUOUS
 62
     2
  5
4EF
 10
1925.453802
 20
1017.638452
 30
0.0
 40
3.0
 50
90.0
 51
161.871
  0
ARC
  8
2
  6
CONTINUOUS
 62
     2
  5
4F0
 10
1930.643602
 20
1032.638652
 30
0.0
 40
3.0
 50
198.12901
 51
270.0
  0
ARC
  8
2
  6
CONTINUOUS
 62
     2
  5
4F1
 10
1930.643602
 20
1017.638452
 30
0.0
 40
3.0
 50
90.0
 51
161.871
  0
ARC
  8
2
  6
CONTINUOUS
 62
     2
  5
4F2
 10
1897.533902
 20
843.288652
 30
0.0
 40
1.0
 50
350.93301
 51
360.0
  0
ARC
  8
2
  6
CONTINUOUS
 62
     2
  5
4F3
 10
1909.033702
 20
843.288652
 30
0.0
 40
1.00004
 50
180.0
 51
189.067
  0
ARC
  8
2
  6
CONTINUOUS
 62
     2
  5
4F4
 10
1927.783602
 20
816.638652
 30
0.0
 40
2.0
 50
360.0
 51
90.0
  0
ARC
  8
2
  6
CONTINUOUS
 62
     2
  5
4F5
 10
1909.783902
 20
830.638852
 30
0.0
 40
1.0
 50
360.0
 51
90.0
  0
ARC
  8
2
  6
CONTINUOUS
 62
     2
  5
4F6
 10
1896.783702
 20
830.638852
 30
0.0
 40
1.00001
 50
90.0
 51
92.980804
  0
ARC
  8
2
  6
CONTINUOUS
 62
     2
  5
4F7
 10
1913.783802
 20
821.638552
 30
0.0
 40
3.0
 50
180.0
 51
270.0
  0
ARC
  8
2
  6
CONTINUOUS
 62
     2
  5
4F8
 10
1909.333802
 20
998.138752
 30
0.0
 40
0.999927
 50
270.0
 51
356.977
  0
ARC
  8
2
  6
CONTINUOUS
 62
     2
  5
4F9
 10
1897.233802
 20
998.138752
 30
0.0
 40
1.0
 50
183.02301
 51
270.0
  0
ARC
  8
2
  6
CONTINUOUS
 62
     2
  5
4FA
 10
2054.793802
 20
1345.128752
 30
0.0
 40
64.999996
 50
336.638
 51
344.388
  0
ARC
  8
2
  6
CONTINUOUS
 62
     2
  5
4FB
 10
1878.553402
 20
1345.128752
 30
0.0
 40
64.999996
 50
180.0
 51
203.363
  0
ARC
  8
2
  6
CONTINUOUS
 62
     2
  5
4FC
 10
2108.043602
 20
1322.138752
 30
0.0
 40
6.999949
 50
270.0
 51
336.637
  0
ARC
  8
2
  6
CONTINUOUS
 62
     2
  5
4FD
 10
1825.313702
 20
1322.138752
 30
0.0
 40
7.0
 50
203.363
 51
269.998
  0
ARC
  8
2
  6
CONTINUOUS
 62
     2
  5
4FE
 10
1788.793702
 20
1733.138252
 30
0.0
 40
3.0
 50
180.0
 51
270.0
  0
ARC
  8
2
  6
CONTINUOUS
 62
     2
  5
4FF
 10
2116.793702
 20
1733.138252
 30
0.0
 40
3.0
 50
270.0
 51
360.0
  0
ARC
  8
2
  6
CONTINUOUS
 62
     2
  5
500
 10
1791.793702
 20
1799.138952
 30
0.0
 40
6.0
 50
90.0
 51
180.0
  0
ARC
  8
2
  6
CONTINUOUS
 62
     2
  5
501
 10
1889.663502
 20
1684.508252
 30
0.0
 40
2.0
 50
111.7079
 51
180.0
  0
ARC
  8
2
  6
CONTINUOUS
 62
     2
  5
502
 10
1875.333402
 20
1688.288652
 30
0.0
 40
1.99994
 50
347.608
 51
42.754013
  0
ARC
  8
2
  6
CONTINUOUS
 62
     2
  5
503
 10
1904.153602
 20
1683.148752
 30
0.0
 40
2.0
 50
92.798812
 51
180.0
  0
ARC
  8
2
  6
CONTINUOUS
 62
     2
  5
504
 10
1890.973602
 20
1691.188852
 30
0.0
 40
1.00015
 50
207.447
 51
311.90301
  0
ARC
  8
2
  6
CONTINUOUS
 62
     2
  5
505
 10
1957.293602
 20
1304.638652
 30
0.0
 40
0.5
 50
180.0
 51
270.0
  0
ARC
  8
2
  6
CONTINUOUS
 62
     2
  5
506
 10
2016.293502
 20
1304.638652
 30
0.0
 40
0.5
 50
270.0
 51
360.0
  0
ARC
  8
2
  6
CONTINUOUS
 62
     2
  5
507
 10
2018.793502
 20
1309.638552
 30
0.0
 40
2.0
 50
90.0
 51
180.0
  0
ARC
  8
2
  6
CONTINUOUS
 62
     2
  5
508
 10
2018.793502
 20
1312.138552
 30
0.0
 40
0.5
 50
270.0
 51
360.0
  0
ARC
  8
2
  6
CONTINUOUS
 62
     2
  5
509
 10
1954.793702
 20
1312.138552
 30
0.0
 40
0.5
 50
180.0
 51
270.0
  0
ARC
  8
2
  6
CONTINUOUS
 62
     2
  5
50A
 10
1954.793702
 20
1309.638552
 30
0.0
 40
2.0
 50
360.0
 51
90.0
  0
ARC
  8
2
  6
CONTINUOUS
 62
     2
  5
50B
 10
1957.373702
 20
1304.638652
 30
0.0
 40
0.5
 50
180.0
 51
270.0
  0
ARC
  8
2
  6
CONTINUOUS
 62
     2
  5
50C
 10
2016.223602
 20
1304.638652
 30
0.0
 40
0.5
 50
270.0
 51
360.0
  0
ARC
  8
2
  6
CONTINUOUS
 62
     2
  5
50D
 10
2000.673502
 20
1292.278852
 30
0.0
 40
10.874999
 50
316.397
 51
43.603012
  0
ARC
  8
2
  6
CONTINUOUS
 62
     2
  5
50E
 10
1972.923702
 20
1292.278852
 30
0.0
 40
10.874999
 50
136.3972
 51
223.60301
  0
ARC
  8
2
  6
CONTINUOUS
 62
     2
  5
50F
 10
1890.013402
 20
1705.138752
 30
0.0
 40
27.696599
 50
343.38101
 51
16.619003
  0
ARC
  8
2
  6
CONTINUOUS
 62
     2
  5
510
 10
1896.423602
 20
1707.188552
 30
0.0
 40
20.968302
 50
16.262008
 51
33.81401
  0
ARC
  8
2
  6
CONTINUOUS
 62
     2
  5
511
 10
1901.333502
 20
1710.858652
 30
0.0
 40
14.862699
 50
32.573013
 51
61.574005
  0
ARC
  8
2
  6
CONTINUOUS
 62
     2
  5
512
 10
1903.573602
 20
1714.828852
 30
0.0
 40
10.303299
 50
61.999008
 51
91.948608
  0
ARC
  8
2
  6
CONTINUOUS
 62
     2
  5
513
 10
1896.423602
 20
1703.088852
 30
0.0
 40
20.968302
 50
326.186
 51
343.738
  0
ARC
  8
2
  6
CONTINUOUS
 62
     2
  5
514
 10
1901.333502
 20
1699.408252
 30
0.0
 40
14.862699
 50
298.42601
 51
327.427
  0
ARC
  8
2
  6
CONTINUOUS
 62
     2
  5
515
 10
1903.573602
 20
1695.438952
 30
0.0
 40
10.303198
 50
272.568
 51
298.001
  0
ARC
  8
2
  6
CONTINUOUS
 62
     2
  5
516
 10
1871.783602
 20
1705.138752
 30
0.0
 40
27.193097
 50
346.3
 51
13.700012
  0
ARC
  8
2
  6
CONTINUOUS
 62
     2
  5
517
 10
1876.953702
 20
1706.528952
 30
0.0
 40
21.8367
 50
13.347
 51
34.566009
  0
ARC
  8
2
  6
CONTINUOUS
 62
     2
  5
518
 10
1883.203802
 20
1710.948752
 30
0.0
 40
14.189899
 50
34.201004
 51
62.556015
  0
ARC
  8
2
  6
CONTINUOUS
 62
     2
  5
519
 10
1885.183702
 20
1714.608352
 30
0.0
 40
10.024799
 50
62.979003
 51
117.0193
  0
ARC
  8
2
  6
CONTINUOUS
 62
     2
  5
51A
 10
1876.953702
 20
1703.738952
 30
0.0
 40
21.8367
 50
325.434
 51
346.65301
  0
ARC
  8
2
  6
CONTINUOUS
 62
     2
  5
51B
 10
1883.203802
 20
1699.319052
 30
0.0
 40
14.189899
 50
299.386
 51
325.79901
  0
ARC
  8
2
  6
CONTINUOUS
 62
     2
  5
51C
 10
1885.183702
 20
1695.658552
 30
0.0
 40
10.024899
 50
291.007
 51
299.77
  0
ARC
  8
2
  6
CONTINUOUS
 62
     2
  5
51D
 10
1898.593802
 20
1705.138752
 30
0.0
 40
27.193097
 50
166.29991
 51
193.70001
  0
ARC
  8
2
  6
CONTINUOUS
 62
     2
  5
51E
 10
1893.413602
 20
1706.528952
 30
0.0
 40
21.8367
 50
145.434
 51
166.6528
  0
ARC
  8
2
  6
CONTINUOUS
 62
     2
  5
51F
 10
1887.173602
 20
1710.948752
 30
0.0
 40
14.189899
 50
117.44371
 51
145.7992
  0
ARC
  8
2
  6
CONTINUOUS
 62
     2
  5
520
 10
1893.413602
 20
1703.738952
 30
0.0
 40
21.8367
 50
193.347
 51
214.566
  0
ARC
  8
2
  6
CONTINUOUS
 62
     2
  5
521
 10
1887.173602
 20
1699.319052
 30
0.0
 40
14.189998
 50
214.201
 51
223.818
  0
ARC
  8
2
  6
CONTINUOUS
 62
     2
  5
522
 10
1885.043702
 20
1713.688852
 30
0.0
 40
8.84595
 50
68.901
 51
111.0987
  0
ARC
  8
2
  6
CONTINUOUS
 62
     2
  5
523
 10
1883.893702
 20
1711.129052
 30
0.0
 40
11.652699
 50
42.091003
 51
68.125
  0
ARC
  8
2
  6
CONTINUOUS
 62
     2
  5
524
 10
1879.073502
 20
1707.008352
 30
0.0
 40
17.9883
 50
15.425003
 51
41.545013
  0
ARC
  8
2
  6
CONTINUOUS
 62
     2
  5
525
 10
1873.213602
 20
1705.138752
 30
0.0
 40
24.1399
 50
343.988
 51
16.012008
  0
ARC
  8
2
  6
CONTINUOUS
 62
     2
  5
526
 10
1883.893702
 20
1699.138852
 30
0.0
 40
11.652798
 50
311.71
 51
317.90901
  0
ARC
  8
2
  6
CONTINUOUS
 62
     2
  5
527
 10
1879.073502
 20
1703.258652
 30
0.0
 40
17.9883
 50
318.455
 51
344.57501
  0
ARC
  8
2
  6
CONTINUOUS
 62
     2
  5
528
 10
1886.203802
 20
1711.129052
 30
0.0
 40
11.652798
 50
111.87471
 51
137.9085
  0
ARC
  8
2
  6
CONTINUOUS
 62
     2
  5
529
 10
1891.023502
 20
1707.008352
 30
0.0
 40
17.9883
 50
138.4553
 51
164.5751
  0
ARC
  8
2
  6
CONTINUOUS
 62
     2
  5
52A
 10
1896.883802
 20
1705.138752
 30
0.0
 40
24.1399
 50
163.98811
 51
196.012
  0
ARC
  8
2
  6
CONTINUOUS
 62
     2
  5
52B
 10
1886.203802
 20
1699.138852
 30
0.0
 40
11.652699
 50
222.09201
 51
227.58
  0
ARC
  8
2
  6
CONTINUOUS
 62
     2
  5
52C
 10
1891.023502
 20
1703.258652
 30
0.0
 40
17.9883
 50
195.425
 51
221.54501
  0
ARC
  8
2
  6
CONTINUOUS
 62
     2
  5
52D
 10
1887.473702
 20
1685.638652
 30
0.0
 40
10.416
 50
164.4783
 51
180.0
  0
ARC
  8
2
  6
CONTINUOUS
 62
     2
  5
52E
 10
1885.063802
 20
1686.388352
 30
0.0
 40
7.896659
 50
141.49101
 51
165.0576
  0
ARC
  8
2
  6
CONTINUOUS
 62
     2
  5
52F
 10
1882.993402
 20
1688.038352
 30
0.0
 40
5.24586
 50
116.8775
 51
141.58171
  0
ARC
  8
2
  6
CONTINUOUS
 62
     2
  5
530
 10
1882.353402
 20
1689.278952
 30
0.0
 40
3.852
 50
63.237014
 51
116.7599
  0
ARC
  8
2
  6
CONTINUOUS
 62
     2
  5
531
 10
1877.243702
 20
1685.638652
 30
0.0
 40
10.416
 50
360.0
 51
15.522003
  0
ARC
  8
2
  6
CONTINUOUS
 62
     2
  5
532
 10
1879.653602
 20
1686.388352
 30
0.0
 40
7.89664
 50
14.942001
 51
38.509002
  0
ARC
  8
2
  6
CONTINUOUS
 62
     2
  5
533
 10
1881.723502
 20
1688.038352
 30
0.0
 40
5.24588
 50
38.418014
 51
63.122009
  0
ARC
  8
2
  6
CONTINUOUS
 62
     2
  5
534
 10
1885.183702
 20
1689.848552
 30
0.0
 40
4.38105
 50
68.003005
 51
111.9923
  0
ARC
  8
2
  6
CONTINUOUS
 62
     2
  5
535
 10
1884.393702
 20
1688.248352
 30
0.0
 40
6.16846
 50
31.861007
 51
66.749008
  0
ARC
  8
2
  6
CONTINUOUS
 62
     2
  5
536
 10
1881.033702
 20
1686.018352
 30
0.0
 40
10.1973
 50
27.489013
 51
32.546005
  0
ARC
  8
2
  6
CONTINUOUS
 62
     2
  5
537
 10
1885.983702
 20
1688.248352
 30
0.0
 40
6.1684
 50
113.251
 51
127.65501
  0
ARC
  8
2
  6
CONTINUOUS
 62
     2
  5
538
 10
1887.473702
 20
1662.138552
 30
0.0
 40
10.416
 50
180.0
 51
195.522
  0
ARC
  8
2
  6
CONTINUOUS
 62
     2
  5
539
 10
1885.063802
 20
1661.378252
 30
0.0
 40
7.89664
 50
194.942
 51
218.509
  0
ARC
  8
2
  6
CONTINUOUS
 62
     2
  5
53A
 10
1882.993402
 20
1659.728252
 30
0.0
 40
5.24588
 50
218.41801
 51
243.123
  0
ARC
  8
2
  6
CONTINUOUS
 62
     2
  5
53B
 10
1882.353402
 20
1658.488552
 30
0.0
 40
3.85211
 50
243.24
 51
296.763
  0
ARC
  8
2
  6
CONTINUOUS
 62
     2
  5
53C
 10
1877.243702
 20
1662.138552
 30
0.0
 40
10.416
 50
344.47801
 51
360.0
  0
ARC
  8
2
  6
CONTINUOUS
 62
     2
  5
53D
 10
1879.653602
 20
1661.378252
 30
0.0
 40
7.896659
 50
321.49101
 51
345.05801
  0
ARC
  8
2
  6
CONTINUOUS
 62
     2
  5
53E
 10
1881.723502
 20
1659.728252
 30
0.0
 40
5.24586
 50
296.878
 51
321.582
  0
ARC
  8
2
  6
CONTINUOUS
 62
     2
  5
53F
 10
1896.503702
 20
1658.198952
 30
0.0
 40
4.05937
 50
267.304
 51
289.484
  0
ARC
  8
2
  6
CONTINUOUS
 62
     2
  5
540
 10
1895.973502
 20
1659.408952
 30
0.0
 40
5.38038
 50
290.475
 51
322.693
  0
ARC
  8
2
  6
CONTINUOUS
 62
     2
  5
541
 10
1891.023502
 20
1662.138552
 30
0.0
 40
11.127401
 50
345.231
 51
0.372009
  0
ARC
  8
2
  6
CONTINUOUS
 62
     2
  5
542
 10
1893.423702
 20
1661.429052
 30
0.0
 40
8.63498
 50
322.272
 51
345.70001
  0
ARC
  8
2
  6
CONTINUOUS
 62
     2
  5
543
 10
1908.473802
 20
1025.878452
 30
0.0
 40
20.000399
 50
76.906005
 51
90.002105
  0
ARC
  8
2
  6
CONTINUOUS
 62
     2
  5
544
 10
1908.413802
 20
1025.688652
 30
0.0
 40
20.208
 50
50.857009
 51
76.87001
  0
ARC
  8
2
  6
CONTINUOUS
 62
     2
  5
545
 10
1908.103702
 20
1025.308552
 30
0.0
 40
20.690202
 50
25.248001
 51
50.850006
  0
ARC
  8
2
  6
CONTINUOUS
 62
     2
  5
546
 10
1907.733602
 20
1025.128752
 30
0.0
 40
21.1041
 50
18.129013
 51
25.253005
  0
ARC
  8
2
  6
CONTINUOUS
 62
     2
  5
547
 10
1908.473802
 20
1024.388552
 30
0.0
 40
20.000498
 50
276.322
 51
283.094
  0
ARC
  8
2
  6
CONTINUOUS
 62
     2
  5
548
 10
1908.413802
 20
1024.588452
 30
0.0
 40
20.208
 50
283.13
 51
309.143
  0
ARC
  8
2
  6
CONTINUOUS
 62
     2
  5
549
 10
1908.103702
 20
1024.958552
 30
0.0
 40
20.690202
 50
309.15
 51
334.75201
  0
ARC
  8
2
  6
CONTINUOUS
 62
     2
  5
54A
 10
1907.733602
 20
1025.138752
 30
0.0
 40
21.103998
 50
334.747
 51
341.871
  0
ARC
  8
2
  6
CONTINUOUS
 62
     2
  5
54B
 10
1903.283602
 20
1025.868852
 30
0.0
 40
20.010799
 50
70.358001
 51
93.526809
  0
ARC
  8
2
  6
CONTINUOUS
 62
     2
  5
54C
 10
1903.173802
 20
1025.588452
 30
0.0
 40
20.319099
 50
44.414001
 51
70.32901
  0
ARC
  8
2
  6
CONTINUOUS
 62
     2
  5
54D
 10
1902.813702
 20
1025.238552
 30
0.0
 40
20.812401
 50
18.085006
 51
44.412002
  0
ARC
  8
2
  6
CONTINUOUS
 62
     2
  5
54E
 10
1903.283602
 20
1024.398652
 30
0.0
 40
20.010799
 50
282.11401
 51
289.64201
  0
ARC
  8
2
  6
CONTINUOUS
 62
     2
  5
54F
 10
1903.173802
 20
1024.678552
 30
0.0
 40
20.319201
 50
289.671
 51
315.58601
  0
ARC
  8
2
  6
CONTINUOUS
 62
     2
  5
550
 10
1902.813702
 20
1025.028552
 30
0.0
 40
20.812401
 50
315.58801
 51
341.915
  0
ARC
  8
2
  6
CONTINUOUS
 62
     2
  5
551
 10
1890.713802
 20
1025.138752
 30
0.0
 40
21.5344
 50
341.93301
 51
18.069
  0
ARC
  8
2
  6
CONTINUOUS
 62
     2
  5
552
 10
1889.003802
 20
1026.658852
 30
0.0
 40
19.228999
 50
69.959014
 51
110.0402
  0
ARC
  8
2
  6
CONTINUOUS
 62
     2
  5
553
 10
1888.763702
 20
1026.068752
 30
0.0
 40
19.860899
 50
43.768005
 51
69.904006
  0
ARC
  8
2
  6
CONTINUOUS
 62
     2
  5
554
 10
1888.033602
 20
1025.358852
 30
0.0
 40
20.8831
 50
18.505004
 51
43.774002
  0
ARC
  8
2
  6
CONTINUOUS
 62
     2
  5
555
 10
1887.413702
 20
1025.138752
 30
0.0
 40
21.5344
 50
341.443
 51
18.557006
  0
ARC
  8
2
  6
CONTINUOUS
 62
     2
  5
556
 10
1889.003802
 20
1023.608652
 30
0.0
 40
19.2289
 50
249.96
 51
290.041
  0
ARC
  8
2
  6
CONTINUOUS
 62
     2
  5
557
 10
1888.763702
 20
1024.198752
 30
0.0
 40
19.860998
 50
290.096
 51
316.232
  0
ARC
  8
2
  6
CONTINUOUS
 62
     2
  5
558
 10
1888.033602
 20
1024.908652
 30
0.0
 40
20.882998
 50
316.22601
 51
341.49501
  0
ARC
  8
2
  6
CONTINUOUS
 62
     2
  5
559
 10
1889.233502
 20
1026.068752
 30
0.0
 40
19.860998
 50
110.0964
 51
126.97711
  0
ARC
  8
2
  6
CONTINUOUS
 62
     2
  5
55A
 10
1889.233502
 20
1024.198752
 30
0.0
 40
19.860899
 50
233.025
 51
249.904
  0
ARC
  8
2
  6
CONTINUOUS
 62
     2
  5
55B
 10
1878.563502
 20
1026.378452
 30
0.0
 40
15.555099
 50
75.609008
 51
104.3898
  0
ARC
  8
2
  6
CONTINUOUS
 62
     2
  5
55C
 10
1878.433602
 20
1025.998752
 30
0.0
 40
15.958
 50
47.228012
 51
75.517013
  0
ARC
  8
2
  6
CONTINUOUS
 62
     2
  5
55D
 10
1877.843502
 20
1025.358852
 30
0.0
 40
16.832398
 50
19.925003
 51
47.219009
  0
ARC
  8
2
  6
CONTINUOUS
 62
     2
  5
55E
 10
1877.283502
 20
1025.138752
 30
0.0
 40
17.4314
 50
340.016
 51
19.984008
  0
ARC
  8
2
  6
CONTINUOUS
 62
     2
  5
55F
 10
1878.563502
 20
1023.888552
 30
0.0
 40
15.555099
 50
255.61
 51
284.391
  0
ARC
  8
2
  6
CONTINUOUS
 62
     2
  5
560
 10
1878.433602
 20
1024.268752
 30
0.0
 40
15.958
 50
284.483
 51
312.772
  0
ARC
  8
2
  6
CONTINUOUS
 62
     2
  5
561
 10
1877.843502
 20
1024.908652
 30
0.0
 40
16.832299
 50
312.781
 51
340.07501
  0
ARC
  8
2
  6
CONTINUOUS
 62
     2
  5
562
 10
1878.683802
 20
1025.998752
 30
0.0
 40
15.958099
 50
104.48291
 51
109.8052
  0
ARC
  8
2
  6
CONTINUOUS
 62
     2
  5
563
 10
1878.683802
 20
1024.268752
 30
0.0
 40
15.958
 50
250.20001
 51
255.51701
  0
ARC
  8
2
  6
CONTINUOUS
 62
     2
  5
564
 10
1888.313502
 20
1026.378452
 30
0.0
 40
15.555099
 50
75.609008
 51
90.366012
  0
ARC
  8
2
  6
CONTINUOUS
 62
     2
  5
565
 10
1888.193702
 20
1025.998752
 30
0.0
 40
15.958
 50
47.228012
 51
75.517013
  0
ARC
  8
2
  6
CONTINUOUS
 62
     2
  5
566
 10
1887.593502
 20
1025.358852
 30
0.0
 40
16.832398
 50
19.925003
 51
47.219009
  0
ARC
  8
2
  6
CONTINUOUS
 62
     2
  5
567
 10
1887.033602
 20
1025.138752
 30
0.0
 40
17.4314
 50
340.016
 51
19.984008
  0
ARC
  8
2
  6
CONTINUOUS
 62
     2
  5
568
 10
1888.313502
 20
1023.888552
 30
0.0
 40
15.555099
 50
269.417
 51
284.391
  0
ARC
  8
2
  6
CONTINUOUS
 62
     2
  5
569
 10
1888.193702
 20
1024.268752
 30
0.0
 40
15.958
 50
284.483
 51
312.772
  0
ARC
  8
2
  6
CONTINUOUS
 62
     2
  5
56A
 10
1887.593502
 20
1024.908652
 30
0.0
 40
16.832299
 50
312.781
 51
340.07501
  0
ARC
  8
2
  6
CONTINUOUS
 62
     2
  5
56B
 10
2034.793202
 20
1233.870352
 30
0.0
 40
12.999999
 50
90.584625
 51
180.0
  0
ARC
  8
2
  6
CONTINUOUS
 62
     2
  5
56C
 10
2034.793202
 20
1186.243752
 30
0.0
 40
12.999999
 50
180.0
 51
263.01893
  0
ARC
  8
2
  6
CONTINUOUS
 62
     2
  5
56D
 10
2045.793902
 20
1177.862052
 30
0.0
 40
19.999999
 50
182.93519
 51
335.50939
  0
ARC
  8
2
  6
CONTINUOUS
 62
     2
  5
56E
 10
2045.793902
 20
1177.862052
 30
0.0
 40
52.499999
 50
117.11988
 51
346.43751
  0
ARC
  8
2
  6
CONTINUOUS
 62
     2
  5
56F
 10
2015.177602
 20
1222.190252
 30
0.0
 40
0.3
 50
149.0856
 51
235.0
  0
ARC
  8
2
  6
CONTINUOUS
 62
     2
  5
570
 10
2015.703402
 20
1221.822352
 30
0.0
 40
0.3
 50
235.0
 51
320.91438
  0
ARC
  8
2
  6
CONTINUOUS
 62
     2
  5
571
 10
2039.293602
 20
1222.738352
 30
0.0
 40
24.999999
 50
90.0
 51
168.46302
  0
ARC
  8
2
  6
CONTINUOUS
 62
     2
  5
572
 10
2017.409402
 20
1224.738352
 30
0.0
 40
2.0
 50
270.0
 51
283.54113
  0
ARC
  8
2
  6
CONTINUOUS
 62
     2
  5
573
 10
2015.798802
 20
1223.738352
 30
0.0
 40
1.0
 50
180.0
 51
270.0
  0
ARC
  8
2
  6
CONTINUOUS
 62
     2
  5
574
 10
2015.068302
 20
1234.460452
 30
0.0
 40
11.999999
 50
283.54113
 51
304.17491
  0
TEXT
  8
2
  6
CONTINUOUS
 62
     2
  5
575
 10
1174.793602
 20
292.698552
 30
0.0
 40
105.0
  1
Ａ
 41
0.837
  7

 72
     5
 11
1279.793602
 21
292.698552
 31
0.0
  0
LINE
  8
2
  6
CONTINUOUS
 62
     2
  5
576
 10
1019.794102
 20
3070.138752
 30
0.0
 11
1019.794102
 21
1540.138752
 31
0.0
  0
LINE
  8
2
  6
CONTINUOUS
 62
     2
  5
577
 10
1984.97875
 20
1015.138652
 30
0.0
 11
2119.793602
 21
1015.138652
 31
0.0
  0
LINE
  8
2
  6
CONTINUOUS
 62
     2
  5
578
 10
2002.673502
 20
1115.138652
 30
0.0
 11
2119.793602
 21
1115.138652
 31
0.0
  0
LINE
  8
2
  6
CONTINUOUS
 62
     2
  5
579
 10
1919.793602
 20
1007.889247
 30
0.0
 11
1919.793602
 21
818.638652
 31
0.0
  0
LINE
  8
2
  6
CONTINUOUS
 62
     2
  5
57A
 10
2019.793602
 20
1315.138652
 30
0.0
 11
2019.793602
 21
1238.382838
 31
0.0
  0
LINE
  8
3
  6
CONTINUOUS
 62
     2
  5
57B
 10
1526.109524
 20
815.138652
 30
0.0
 11
1426.109524
 21
815.138652
 31
0.0
  0
LINE
  8
2
  6
CONTINUOUS
 62
     2
  5
57C
 10
1744.704908
 20
1378.638752
 30
0.0
 11
1744.704908
 21
1372.048752
 31
0.0
  0
LINE
  8
2
  6
CONTINUOUS
 62
     2
  5
57D
 10
1765.659908
 20
1378.638752
 30
0.0
 11
1765.659908
 21
1372.048752
 31
0.0
  0
LINE
  8
2
  6
CONTINUOUS
 62
     2
  5
57E
 10
1766.433308
 20
1378.638752
 30
0.0
 11
1743.933208
 21
1378.638752
 31
0.0
  0
LINE
  8
2
  6
CONTINUOUS
 62
     2
  5
57F
 10
1743.683008
 20
1392.628452
 30
0.0
 11
1746.169408
 21
1396.938552
 31
0.0
  0
LINE
  8
2
  6
CONTINUOUS
 62
     2
  5
580
 10
1743.933208
 20
1378.638752
 30
0.0
 11
1743.683008
 21
1379.068752
 31
0.0
  0
LINE
  8
2
  6
CONTINUOUS
 62
     2
  5
581
 10
1763.329208
 20
1397.438552
 30
0.0
 11
1747.035508
 21
1397.438552
 31
0.0
  0
LINE
  8
2
  6
CONTINUOUS
 62
     2
  5
582
 10
1743.683008
 20
1379.068752
 30
0.0
 11
1743.683008
 21
1392.628452
 31
0.0
  0
LINE
  8
2
  6
CONTINUOUS
 62
     2
  5
583
 10
1766.681808
 20
1392.628452
 30
0.0
 11
1764.195408
 21
1396.938552
 31
0.0
  0
LINE
  8
2
  6
CONTINUOUS
 62
     2
  5
584
 10
1766.433308
 20
1378.638752
 30
0.0
 11
1766.682608
 21
1379.068752
 31
0.0
  0
LINE
  8
2
  6
CONTINUOUS
 62
     2
  5
585
 10
1766.682608
 20
1379.068752
 30
0.0
 11
1766.682608
 21
1392.628452
 31
0.0
  0
LINE
  8
2
  6
CONTINUOUS
 62
     2
  5
586
 10
1748.832508
 20
1667.248752
 30
0.0
 11
1748.832508
 21
1397.438552
 31
0.0
  0
LINE
  8
2
  6
CONTINUOUS
 62
     2
  5
587
 10
1761.532208
 20
1667.239052
 30
0.0
 11
1761.532208
 21
1397.438552
 31
0.0
  0
LINE
  8
2
  6
CONTINUOUS
 62
     2
  5
588
 10
1757.182308
 20
1368.988452
 30
0.0
 11
1766.183108
 21
1363.798652
 31
0.0
  0
LINE
  8
2
  6
CONTINUOUS
 62
     2
  5
589
 10
1744.183408
 20
1363.798652
 30
0.0
 11
1753.182408
 21
1368.988452
 31
0.0
  0
LINE
  8
2
  6
CONTINUOUS
 62
     2
  5
58A
 10
1742.183508
 20
1349.938852
 30
0.0
 11
1742.183508
 21
1360.328952
 31
0.0
  0
LINE
  8
2
  6
CONTINUOUS
 62
     2
  5
58B
 10
1753.182408
 20
1341.278452
 30
0.0
 11
1744.183408
 21
1346.478752
 31
0.0
  0
LINE
  8
2
  6
CONTINUOUS
 62
     2
  5
58C
 10
1766.183108
 20
1346.468652
 30
0.0
 11
1757.182308
 21
1341.278452
 31
0.0
  0
LINE
  8
2
  6
CONTINUOUS
 62
     2
  5
58D
 10
1768.183008
 20
1360.328952
 30
0.0
 11
1768.183008
 21
1349.938852
 31
0.0
  0
LINE
  8
2
  6
CONTINUOUS
 62
     2
  5
58E
 10
1750.416908
 20
1354.238452
 30
0.0
 11
1759.947808
 21
1354.238452
 31
0.0
  0
LINE
  8
2
  6
CONTINUOUS
 62
     2
  5
58F
 10
1750.416908
 20
1356.038552
 30
0.0
 11
1759.947808
 21
1356.038552
 31
0.0
  0
LINE
  8
2
  6
CONTINUOUS
 62
     2
  5
590
 10
1745.182508
 20
1355.138652
 30
0.0
 11
1765.182208
 21
1355.138652
 31
0.0
  0
LINE
  8
2
  6
CONTINUOUS
 62
     2
  5
591
 10
1755.182408
 20
1365.138552
 30
0.0
 11
1755.182408
 21
1345.138452
 31
0.0
  0
ARC
  8
2
  6
CONTINUOUS
 62
     2
  5
592
 10
1755.182408
 20
1355.138652
 30
0.0
 40
27.5
 50
114.719986
 51
65.28
  0
ARC
  8
2
  6
CONTINUOUS
 62
     2
  5
593
 10
1810.660108
 20
1372.048752
 30
0.0
 40
44.999898
 50
180.0
 51
191.12999
  0
ARC
  8
2
  6
CONTINUOUS
 62
     2
  5
594
 10
1699.705208
 20
1372.048752
 30
0.0
 40
44.999997
 50
348.87
 51
0.0
  0
ARC
  8
2
  6
CONTINUOUS
 62
     2
  5
595
 10
1763.329208
 20
1396.438552
 30
0.0
 40
1.0
 50
29.9999
 51
90.0
  0
ARC
  8
2
  6
CONTINUOUS
 62
     2
  5
596
 10
1747.035508
 20
1396.438552
 30
0.0
 40
1.0
 50
90.0
 51
150.0
  0
ARC
  8
2
  6
CONTINUOUS
 62
     2
  5
597
 10
1793.182608
 20
1667.138452
 30
0.0
 40
44.349899
 50
90.0
 51
180.0
  0
ARC
  8
2
  6
CONTINUOUS
 62
     2
  5
598
 10
1793.182608
 20
1667.138452
 30
0.0
 40
31.649898
 50
90.0
 51
180.0
  0
ARC
  8
2
  6
CONTINUOUS
 62
     2
  5
599
 10
1755.182408
 20
1355.138652
 30
0.0
 40
13.999999
 50
81.786789
 51
98.213196
  0
ARC
  8
2
  6
CONTINUOUS
 62
     2
  5
59A
 10
1755.182408
 20
1355.138652
 30
0.0
 40
13.999898
 50
141.786988
 51
158.212998
  0
ARC
  8
2
  6
CONTINUOUS
 62
     2
  5
59B
 10
1755.182408
 20
1355.138652
 30
0.0
 40
13.999999
 50
201.786
 51
218.213
  0
ARC
  8
2
  6
CONTINUOUS
 62
     2
  5
59C
 10
1755.182408
 20
1355.138652
 30
0.0
 40
13.999999
 50
261.78699
 51
278.213
  0
ARC
  8
2
  6
CONTINUOUS
 62
     2
  5
59D
 10
1755.182408
 20
1355.138652
 30
0.0
 40
13.999898
 50
321.78699
 51
338.213
  0
ARC
  8
2
  6
CONTINUOUS
 62
     2
  5
59E
 10
1755.182408
 20
1355.138652
 30
0.0
 40
13.999999
 50
21.7864
 51
38.2129
  0
CIRCLE
  8
2
  6
CONTINUOUS
 62
     2
  5
59F
 10
1755.182408
 20
1355.138652
 30
0.0
 40
4.85
  0
LINE
  8
2
  6
CONTINUOUS
 62
     2
  5
5A0
 10
1793.182608
 20
1711.488552
 30
0.0
 11
1797.602452
 21
1711.488552
 31
0.0
  0
LINE
  8
2
  6
CONTINUOUS
 62
     2
  5
5A1
 10
1793.182608
 20
1698.788852
 30
0.0
 11
1798.153243
 21
1698.788852
 31
0.0
  0
LINE
  8
2
  6
CONTINUOUS
 62
     2
  5
5A2
 10
1801.781187
 20
1615.138652
 30
0.0
 11
1761.532208
 21
1615.138652
 31
0.0
  0
LINE
  8
2
  6
CONTINUOUS
 62
     2
  5
5A3
 10
1806.118228
 20
1515.138652
 30
0.0
 11
1761.532208
 21
1515.138652
 31
0.0
  0
LINE
  8
3
  6
CONTINUOUS
 62
     2
  5
5A4
 10
1768.755524
 20
1415.138652
 30
0.0
 11
1761.532208
 21
1415.138652
 31
0.0
  0
LINE
  8
2
  6
CONTINUOUS
 62
     2
  5
5A5
 10
2074.736277
 20
1915.138652
 30
0.0
 11
2119.793602
 21
1915.138652
 31
0.0
  0
LINE
  8
2
  6
CONTINUOUS
 62
     2
  5
5A6
 10
2049.70443
 20
1805.138852
 30
0.0
 11
1791.793702
 21
1805.138852
 31
0.0
  0
LINE
  8
2
  6
CONTINUOUS
 62
     2
  5
5A7
 10
2116.793702
 20
1730.138352
 30
0.0
 11
2074.736277
 21
1730.138352
 31
0.0
  0
LINE
  8
2
  6
CONTINUOUS
 62
     2
  5
5A8
 10
2049.70443
 20
1730.138352
 30
0.0
 11
1788.793702
 21
1730.138352
 31
0.0
  0
LINE
  8
2
  6
CONTINUOUS
 62
     2
  5
5A9
 10
1908.033702
 20
915.138652
 30
0.0
 11
2119.793602
 21
915.138652
 31
0.0
  0
LINE
  8
2
  6
CONTINUOUS
 62
     2
  5
5AA
 10
714.794102
 20
3070.138752
 30
0.0
 11
1019.794102
 21
3070.138752
 31
0.0
  0
LINE
  8
2
  6
CONTINUOUS
 62
     2
  5
5AB
 10
714.794102
 20
3070.138752
 30
0.0
 11
714.794102
 21
1540.138752
 31
0.0
  0
LINE
  8
2
  6
CONTINUOUS
 62
     2
  5
5AC
 10
714.794102
 20
1540.138752
 30
0.0
 11
1019.794102
 21
1540.138752
 31
0.0
  0
LINE
  8
2
  6
CONTINUOUS
 62
     2
  5
5AD
 10
644.793602
 20
3140.138752
 30
0.0
 11
1089.794102
 21
3140.138752
 31
0.0
  0
LINE
  8
2
  6
CONTINUOUS
 62
     2
  5
5AE
 10
1089.794102
 20
3140.138752
 30
0.0
 11
1089.794102
 21
1440.138752
 31
0.0
  0
LINE
  8
2
  6
CONTINUOUS
 62
     2
  5
5AF
 10
1119.794102
 20
1415.138752
 30
0.0
 11
1119.794102
 21
3165.138752
 31
0.0
  0
LINE
  8
2
  6
CONTINUOUS
 62
     2
  5
5B0
 10
644.794102
 20
1440.138752
 30
0.0
 11
1089.794102
 21
1440.138752
 31
0.0
  0
LINE
  8
2
  6
CONTINUOUS
 62
     2
  5
5B1
 10
644.794102
 20
3140.138752
 30
0.0
 11
644.794102
 21
1440.138752
 31
0.0
  0
LINE
  8
2
  6
CONTINUOUS
 62
     2
  5
5B2
 10
619.794102
 20
1415.138752
 30
0.0
 11
619.794102
 21
3165.138752
 31
0.0
  0
LINE
  8
2
  6
CONTINUOUS
 62
     2
  5
5B3
 10
644.793602
 20
3140.138752
 30
0.0
 11
644.793602
 21
1440.138752
 31
0.0
  0
LINE
  8
2
  6
CONTINUOUS
 62
     2
  5
5B4
 10
619.794102
 20
1415.138752
 30
0.0
 11
1119.793602
 21
1415.138752
 31
0.0
  0
LINE
  8
2
  6
CONTINUOUS
 62
     2
  5
5B5
 10
1119.793602
 20
2033.138652
 30
0.0
 11
2119.793602
 21
2033.138652
 31
0.0
  0
LINE
  8
2
  6
CONTINUOUS
 62
     2
  5
5B6
 10
1119.793602
 20
2136.138652
 30
0.0
 11
2119.793602
 21
2136.138652
 31
0.0
  0
LINE
  8
2
  6
CONTINUOUS
 62
     2
  5
5B7
 10
1119.793602
 20
2239.138652
 30
0.0
 11
2119.793602
 21
2239.138652
 31
0.0
  0
LINE
  8
2
  6
CONTINUOUS
 62
     2
  5
5B8
 10
1119.793602
 20
2342.138652
 30
0.0
 11
2119.793602
 21
2342.138652
 31
0.0
  0
LINE
  8
2
  6
CONTINUOUS
 62
     2
  5
5B9
 10
1119.793602
 20
2445.138652
 30
0.0
 11
2119.793602
 21
2445.138652
 31
0.0
  0
LINE
  8
2
  6
CONTINUOUS
 62
     2
  5
5BA
 10
1119.793602
 20
2548.138652
 30
0.0
 11
2119.793602
 21
2548.138652
 31
0.0
  0
LINE
  8
2
  6
CONTINUOUS
 62
     2
  5
5BB
 10
1119.793602
 20
2651.138652
 30
0.0
 11
2119.793602
 21
2651.138652
 31
0.0
  0
LINE
  8
2
  6
CONTINUOUS
 62
     2
  5
5BC
 10
1119.793602
 20
2754.138652
 30
0.0
 11
2119.793602
 21
2754.138652
 31
0.0
  0
LINE
  8
2
  6
CONTINUOUS
 62
     2
  5
5BD
 10
1119.793602
 20
2857.138652
 30
0.0
 11
2119.793602
 21
2857.138652
 31
0.0
  0
LINE
  8
2
  6
CONTINUOUS
 62
     2
  5
5BE
 10
1119.793602
 20
2960.138652
 30
0.0
 11
2119.793602
 21
2960.138652
 31
0.0
  0
LINE
  8
2
  6
CONTINUOUS
 62
     2
  5
5BF
 10
1119.793602
 20
3063.138652
 30
0.0
 11
2119.793602
 21
3063.138652
 31
0.0
  0
LINE
  8
2
  6
CONTINUOUS
 62
     2
  5
5C0
 10
1256.793602
 20
745.138452
 30
0.0
 11
1419.794002
 21
745.138452
 31
0.0
  0
LINE
  8
2
  6
CONTINUOUS
 62
     2
  5
5C1
 10
1299.573702
 20
711.118452
 30
0.0
 11
1419.794002
 21
627.252308
 31
0.0
  0
LINE
  8
2
  6
CONTINUOUS
 62
     2
  5
5C2
 10
1839.209344
 20
1015.138652
 30
0.0
 11
314.793902
 21
1015.138652
 31
0.0
  0
LINE
  8
2
  6
CONTINUOUS
 62
     2
  5
5C3
 10
1970.923802
 20
1115.138652
 30
0.0
 11
314.793902
 21
1115.138652
 31
0.0
  0
LINE
  8
2
  6
CONTINUOUS
 62
     2
  5
5C4
 10
1700.112446
 20
915.138652
 30
0.0
 11
314.793902
 21
915.138652
 31
0.0
  0
LINE
  8
2
  6
CONTINUOUS
 62
     2
  5
5C5
 10
1246.793702
 20
815.138652
 30
0.0
 11
314.793902
 21
815.138652
 31
0.0
  0
LINE
  8
2
  6
CONTINUOUS
 62
     2
  5
5C6
 10
1293.810833
 20
715.138652
 30
0.0
 11
314.793902
 21
715.138652
 31
0.0
  0
LINE
  8
2
  6
CONTINUOUS
 62
     2
  5
5C7
 10
1970.923802
 20
1215.138652
 30
0.0
 11
314.793902
 21
1215.138652
 31
0.0
  0
LINE
  8
2
  6
CONTINUOUS
 62
     2
  5
5C8
 10
1814.79231
 20
1315.138652
 30
0.0
 11
314.793902
 21
1315.138652
 31
0.0
  0
LINE
  8
2
  6
CONTINUOUS
 62
     2
  5
5C9
 10
619.794102
 20
1518.138652
 30
0.0
 11
314.793902
 21
1518.138652
 31
0.0
  0
LINE
  8
2
  6
CONTINUOUS
 62
     2
  5
5CA
 10
619.794102
 20
1621.138652
 30
0.0
 11
314.793902
 21
1621.138652
 31
0.0
  0
LINE
  8
2
  6
CONTINUOUS
 62
     2
  5
5CB
 10
619.794102
 20
1724.138652
 30
0.0
 11
314.793902
 21
1724.138652
 31
0.0
  0
LINE
  8
2
  6
CONTINUOUS
 62
     2
  5
5CC
 10
619.794102
 20
1827.138652
 30
0.0
 11
314.793902
 21
1827.138652
 31
0.0
  0
LINE
  8
2
  6
CONTINUOUS
 62
     2
  5
5CD
 10
619.794102
 20
1930.138652
 30
0.0
 11
314.793902
 21
1930.138652
 31
0.0
  0
LINE
  8
2
  6
CONTINUOUS
 62
     2
  5
5CE
 10
619.794102
 20
2033.138652
 30
0.0
 11
314.793902
 21
2033.138652
 31
0.0
  0
LINE
  8
2
  6
CONTINUOUS
 62
     2
  5
5CF
 10
619.794102
 20
2136.138652
 30
0.0
 11
314.793902
 21
2136.138652
 31
0.0
  0
LINE
  8
2
  6
CONTINUOUS
 62
     2
  5
5D0
 10
619.794102
 20
2239.138652
 30
0.0
 11
314.793902
 21
2239.138652
 31
0.0
  0
LINE
  8
2
  6
CONTINUOUS
 62
     2
  5
5D1
 10
619.794102
 20
2342.138652
 30
0.0
 11
314.793902
 21
2342.138652
 31
0.0
  0
LINE
  8
2
  6
CONTINUOUS
 62
     2
  5
5D2
 10
619.794102
 20
2445.138652
 30
0.0
 11
314.793902
 21
2445.138652
 31
0.0
  0
LINE
  8
2
  6
CONTINUOUS
 62
     2
  5
5D3
 10
619.794102
 20
2548.138652
 30
0.0
 11
314.793902
 21
2548.138652
 31
0.0
  0
LINE
  8
2
  6
CONTINUOUS
 62
     2
  5
5D4
 10
619.794102
 20
2651.138652
 30
0.0
 11
314.793902
 21
2651.138652
 31
0.0
  0
LINE
  8
2
  6
CONTINUOUS
 62
     2
  5
5D5
 10
619.794102
 20
2754.138652
 30
0.0
 11
314.793902
 21
2754.138652
 31
0.0
  0
LINE
  8
2
  6
CONTINUOUS
 62
     2
  5
5D6
 10
619.794102
 20
2857.138652
 30
0.0
 11
314.793902
 21
2857.138652
 31
0.0
  0
LINE
  8
2
  6
CONTINUOUS
 62
     2
  5
5D7
 10
619.794102
 20
2960.138652
 30
0.0
 11
314.793902
 21
2960.138652
 31
0.0
  0
LINE
  8
2
  6
CONTINUOUS
 62
     2
  5
5D8
 10
619.794102
 20
3063.138652
 30
0.0
 11
314.793902
 21
3063.138652
 31
0.0
  0
LINE
  8
2
  6
CONTINUOUS
 62
     2
  5
5D9
 10
314.793902
 20
615.138652
 30
0.0
 11
1419.794002
 21
615.138652
 31
0.0
  0
LINE
  8
7
  6
CENTER
 62
     3
  5
5DA
 10
1644.793602
 20
1365.138652
 30
0.0
 11
1644.793602
 21
1965.138652
 31
0.0
  0
LINE
  8
5
  6
CONTINUOUS
 62
     5
  5
5DB
 10
2119.793602
 20
3165.138752
 30
0.0
 11
2119.793602
 21
815.138652
 31
0.0
  0
LINE
  8
5
  6
CONTINUOUS
 62
     5
  5
5DC
 10
1419.794002
 20
815.138652
 30
0.0
 11
2119.793602
 21
815.138652
 31
0.0
  0
LINE
  8
5
  6
CONTINUOUS
 62
     5
  5
5DD
 10
1419.794002
 20
815.138652
 30
0.0
 11
1419.794002
 21
515.138652
 31
0.0
  0
LINE
  8
5
  6
CONTINUOUS
 62
     5
  5
5DE
 10
194.793902
 20
3165.138752
 30
0.0
 11
194.793902
 21
3140.139152
 31
0.0
  0
LINE
  8
5
  6
CONTINUOUS
 62
     5
  5
5DF
 10
234.793902
 20
3140.139152
 30
0.0
 11
194.793902
 21
3140.139152
 31
0.0
  0
LINE
  8
5
  6
CONTINUOUS
 62
     5
  5
5E0
 10
234.793902
 20
3140.139152
 30
0.0
 11
234.793902
 21
3125.137652
 31
0.0
  0
LINE
  8
5
  6
CONTINUOUS
 62
     5
  5
5E1
 10
234.793902
 20
3125.137652
 30
0.0
 11
254.793902
 21
3125.137652
 31
0.0
  0
LINE
  8
5
  6
CONTINUOUS
 62
     5
  5
5E2
 10
254.793902
 20
3140.139152
 30
0.0
 11
254.793902
 21
3125.137652
 31
0.0
  0
LINE
  8
5
  6
CONTINUOUS
 62
     5
  5
5E3
 10
314.794102
 20
3165.138752
 30
0.0
 11
314.794102
 21
3140.139152
 31
0.0
  0
LINE
  8
5
  6
CONTINUOUS
 62
     5
  5
5E4
 10
314.794102
 20
3165.138752
 30
0.0
 11
2119.793602
 21
3165.138752
 31
0.0
  0
LINE
  8
5
  6
CONTINUOUS
 62
     5
  5
5E5
 10
314.794102
 20
3140.139152
 30
0.0
 11
254.793902
 21
3140.139152
 31
0.0
  0
ARC
  8
7
  6
CONTINUOUS
 62
     4
  5
5E6
 10
1462.393602
 20
1932.738652
 30
0.0
 40
18.0
 50
360.0
 51
90.0
  0
ARC
  8
7
  6
CONTINUOUS
 62
     4
  5
5E7
 10
1377.193602
 20
1932.738652
 30
0.0
 40
18.0
 50
90.0
 51
180.0
  0
ARC
  8
7
  6
CONTINUOUS
 62
     4
  5
5E8
 10
1312.393602
 20
1932.738652
 30
0.0
 40
18.0
 50
360.0
 51
90.0
  0
ARC
  8
7
  6
CONTINUOUS
 62
     4
  5
5E9
 10
1527.193602
 20
1932.738652
 30
0.0
 40
18.0
 50
90.0
 51
180.0
  0
LINE
  8
7
  6
CONTINUOUS
 62
     4
  5
5EA
 10
1509.193602
 20
1847.538652
 30
0.0
 11
1509.193602
 21
1932.738652
 31
0.0
  0
LINE
  8
7
  6
CONTINUOUS
 62
     4
  5
5EB
 10
1480.393602
 20
1847.538652
 30
0.0
 11
1480.393602
 21
1932.738652
 31
0.0
  0
LINE
  8
7
  6
CONTINUOUS
 62
     4
  5
5EC
 10
1359.193602
 20
1847.538652
 30
0.0
 11
1359.193602
 21
1932.738652
 31
0.0
  0
LINE
  8
7
  6
CONTINUOUS
 62
     4
  5
5ED
 10
1480.393602
 20
1547.538652
 30
0.0
 11
1480.393602
 21
1632.738652
 31
0.0
  0
LINE
  8
7
  6
CONTINUOUS
 62
     4
  5
5EE
 10
1377.193602
 20
1500.738652
 30
0.0
 11
1462.393602
 21
1500.738652
 31
0.0
  0
LINE
  8
7
  6
CONTINUOUS
 62
     4
  5
5EF
 10
1377.193602
 20
1529.538652
 30
0.0
 11
1462.393602
 21
1529.538652
 31
0.0
  0
LINE
  8
7
  6
CONTINUOUS
 62
     4
  5
5F0
 10
1377.193602
 20
1650.738652
 30
0.0
 11
1462.393602
 21
1650.738652
 31
0.0
  0
LINE
  8
7
  6
CONTINUOUS
 62
     4
  5
5F1
 10
1377.193602
 20
1679.538652
 30
0.0
 11
1462.693602
 21
1679.538652
 31
0.0
  0
LINE
  8
7
  6
CONTINUOUS
 62
     4
  5
5F2
 10
1377.193602
 20
1800.738652
 30
0.0
 11
1462.393602
 21
1800.738652
 31
0.0
  0
LINE
  8
7
  6
CONTINUOUS
 62
     4
  5
5F3
 10
1377.193602
 20
1829.538652
 30
0.0
 11
1462.393602
 21
1829.538652
 31
0.0
  0
LINE
  8
7
  6
CONTINUOUS
 62
     4
  5
5F4
 10
1480.393602
 20
1697.538652
 30
0.0
 11
1480.393602
 21
1782.738652
 31
0.0
  0
LINE
  8
7
  6
CONTINUOUS
 62
     4
  5
5F5
 10
1359.193602
 20
1697.538652
 30
0.0
 11
1359.193602
 21
1782.738652
 31
0.0
  0
LINE
  8
7
  6
CONTINUOUS
 62
     4
  5
5F6
 10
1359.193602
 20
1547.538652
 30
0.0
 11
1359.193602
 21
1632.738652
 31
0.0
  0
ARC
  8
7
  6
CONTINUOUS
 62
     4
  5
5F7
 10
1462.393602
 20
1482.738652
 30
0.0
 40
18.0
 50
360.0
 51
90.0
  0
ARC
  8
7
  6
CONTINUOUS
 62
     4
  5
5F8
 10
1462.393602
 20
1547.538652
 30
0.0
 40
18.0
 50
270.0
 51
360.0
  0
ARC
  8
7
  6
CONTINUOUS
 62
     4
  5
5F9
 10
1377.193602
 20
1482.738652
 30
0.0
 40
18.0
 50
90.0
 51
180.0
  0
ARC
  8
7
  6
CONTINUOUS
 62
     4
  5
5FA
 10
1377.193602
 20
1547.538652
 30
0.0
 40
18.0
 50
180.0
 51
270.0
  0
ARC
  8
7
  6
CONTINUOUS
 62
     4
  5
5FB
 10
1462.393602
 20
1632.738652
 30
0.0
 40
18.0
 50
360.0
 51
90.0
  0
ARC
  8
7
  6
CONTINUOUS
 62
     4
  5
5FC
 10
1462.393602
 20
1697.538652
 30
0.0
 40
18.0
 50
270.0
 51
360.0
  0
ARC
  8
7
  6
CONTINUOUS
 62
     4
  5
5FD
 10
1377.193602
 20
1632.738652
 30
0.0
 40
18.0
 50
90.0
 51
180.0
  0
ARC
  8
7
  6
CONTINUOUS
 62
     4
  5
5FE
 10
1377.193602
 20
1697.538652
 30
0.0
 40
18.0
 50
180.0
 51
270.0
  0
ARC
  8
7
  6
CONTINUOUS
 62
     4
  5
5FF
 10
1462.393602
 20
1782.738652
 30
0.0
 40
18.0
 50
360.0
 51
90.0
  0
ARC
  8
7
  6
CONTINUOUS
 62
     4
  5
600
 10
1377.193602
 20
1847.538652
 30
0.0
 40
18.0
 50
180.0
 51
270.0
  0
ARC
  8
7
  6
CONTINUOUS
 62
     4
  5
601
 10
1377.193602
 20
1782.738652
 30
0.0
 40
18.0
 50
90.0
 51
180.0
  0
ARC
  8
7
  6
CONTINUOUS
 62
     4
  5
602
 10
1462.393602
 20
1847.538652
 30
0.0
 40
18.0
 50
270.0
 51
360.0
  0
LINE
  8
7
  6
CONTINUOUS
 62
     4
  5
603
 10
1330.393602
 20
1697.538652
 30
0.0
 11
1330.393602
 21
1782.738652
 31
0.0
  0
LINE
  8
7
  6
CONTINUOUS
 62
     4
  5
604
 10
1330.393602
 20
1547.538652
 30
0.0
 11
1330.393602
 21
1632.738652
 31
0.0
  0
ARC
  8
7
  6
CONTINUOUS
 62
     4
  5
605
 10
1312.393602
 20
1782.738652
 30
0.0
 40
18.0
 50
360.0
 51
90.0
  0
LINE
  8
7
  6
CONTINUOUS
 62
     4
  5
606
 10
1509.193602
 20
1697.538652
 30
0.0
 11
1509.193602
 21
1782.738652
 31
0.0
  0
LINE
  8
7
  6
CONTINUOUS
 62
     4
  5
607
 10
1509.193602
 20
1547.538652
 30
0.0
 11
1509.193602
 21
1632.738652
 31
0.0
  0
ARC
  8
7
  6
CONTINUOUS
 62
     4
  5
608
 10
1527.193602
 20
1547.538652
 30
0.0
 40
18.0
 50
180.0
 51
270.0
  0
ARC
  8
7
  6
CONTINUOUS
 62
     4
  5
609
 10
1527.193602
 20
1632.738652
 30
0.0
 40
18.0
 50
90.0
 51
180.0
  0
ARC
  8
7
  6
CONTINUOUS
 62
     4
  5
60A
 10
1527.193602
 20
1697.538652
 30
0.0
 40
18.0
 50
180.0
 51
270.0
  0
ARC
  8
7
  6
CONTINUOUS
 62
     4
  5
60B
 10
1527.193602
 20
1847.538652
 30
0.0
 40
18.0
 50
180.0
 51
270.0
  0
ARC
  8
7
  6
CONTINUOUS
 62
     4
  5
60C
 10
1527.193602
 20
1782.738652
 30
0.0
 40
18.0
 50
90.0
 51
180.0
  0
ARC
  8
7
  6
CONTINUOUS
 62
     4
  5
60D
 10
1312.393602
 20
1632.738652
 30
0.0
 40
18.0
 50
360.0
 51
90.0
  0
ARC
  8
7
  6
CONTINUOUS
 62
     4
  5
60E
 10
1312.393602
 20
1697.538652
 30
0.0
 40
18.0
 50
270.0
 51
360.0
  0
LINE
  8
7
  6
CONTINUOUS
 62
     4
  5
60F
 10
1480.393602
 20
1397.538652
 30
0.0
 11
1480.393602
 21
1482.738652
 31
0.0
  0
LINE
  8
7
  6
CONTINUOUS
 62
     4
  5
610
 10
1509.193602
 20
1397.538652
 30
0.0
 11
1509.193602
 21
1482.738652
 31
0.0
  0
ARC
  8
7
  6
CONTINUOUS
 62
     4
  5
611
 10
1462.393602
 20
1397.538652
 30
0.0
 40
18.0
 50
270.0
 51
360.0
  0
ARC
  8
7
  6
CONTINUOUS
 62
     4
  5
612
 10
1377.193602
 20
1397.538652
 30
0.0
 40
18.0
 50
180.0
 51
270.0
  0
ARC
  8
7
  6
CONTINUOUS
 62
     4
  5
613
 10
1312.393602
 20
1397.538652
 30
0.0
 40
18.0
 50
270.0
 51
360.0
  0
ARC
  8
7
  6
CONTINUOUS
 62
     4
  5
614
 10
1527.193602
 20
1397.538652
 30
0.0
 40
18.0
 50
180.0
 51
270.0
  0
LINE
  8
7
  6
CONTINUOUS
 62
     4
  5
615
 10
1359.193602
 20
1397.538652
 30
0.0
 11
1359.193602
 21
1482.738652
 31
0.0
  0
LINE
  8
7
  6
CONTINUOUS
 62
     4
  5
616
 10
1330.393602
 20
1397.538652
 30
0.0
 11
1330.393602
 21
1482.738652
 31
0.0
  0
LINE
  8
7
  6
CONTINUOUS
 62
     4
  5
617
 10
1225.393602
 20
1979.538652
 30
0.0
 11
1614.193602
 21
1979.538652
 31
0.0
  0
LINE
  8
7
  6
CONTINUOUS
 62
     4
  5
618
 10
1312.393602
 20
1950.738652
 30
0.0
 11
1227.193602
 21
1950.738652
 31
0.0
  0
LINE
  8
7
  6
CONTINUOUS
 62
     4
  5
619
 10
1527.193602
 20
1950.738652
 30
0.0
 11
1612.393602
 21
1950.738652
 31
0.0
  0
LINE
  8
7
  6
CONTINUOUS
 62
     4
  5
61A
 10
1377.193602
 20
1950.738652
 30
0.0
 11
1462.393602
 21
1950.738652
 31
0.0
  0
ARC
  8
7
  6
CONTINUOUS
 62
     4
  5
61B
 10
1614.193602
 20
1934.538652
 30
0.0
 40
45.0
 50
360.0
 51
90.0
  0
ARC
  8
7
  6
CONTINUOUS
 62
     4
  5
61C
 10
1612.393602
 20
1932.738652
 30
0.0
 40
18.0
 50
360.0
 51
90.0
  0
ARC
  8
7
  6
CONTINUOUS
 62
     4
  5
61D
 10
1619.293602
 20
1845.438652
 30
0.0
 40
7.7
 50
210.0
 51
30.0
  0
ARC
  8
7
  6
CONTINUOUS
 62
     4
  5
61E
 10
1619.293602
 20
1845.438652
 30
0.0
 40
6.8
 50
210.0
 51
30.0
  0
LINE
  8
7
  6
CONTINUOUS
 62
     4
  5
61F
 10
1609.193602
 20
1847.738652
 30
0.0
 11
1612.693602
 21
1841.638652
 31
0.0
  0
LINE
  8
7
  6
CONTINUOUS
 62
     4
  5
620
 10
1613.493602
 20
1842.138652
 30
0.0
 11
1610.293602
 21
1847.538652
 31
0.0
  0
ARC
  8
7
  6
CONTINUOUS
 62
     4
  5
621
 10
1636.793602
 20
1815.138652
 30
0.0
 40
41.8
 50
110.63
 51
129.02
  0
LINE
  8
7
  6
CONTINUOUS
 62
     4
  5
622
 10
1625.193602
 20
1848.838652
 30
0.0
 11
1622.093602
 21
1854.238652
 31
0.0
  0
LINE
  8
7
  6
CONTINUOUS
 62
     4
  5
623
 10
1622.493602
 20
1855.338652
 30
0.0
 11
1625.993602
 21
1849.338652
 31
0.0
  0
ARC
  8
7
  6
CONTINUOUS
 62
     4
  5
624
 10
1619.293602
 20
1784.838652
 30
0.0
 40
7.7
 50
330.0
 51
150.0
  0
ARC
  8
7
  6
CONTINUOUS
 62
     4
  5
625
 10
1619.293602
 20
1784.838652
 30
0.0
 40
6.8
 50
330.0
 51
150.0
  0
LINE
  8
7
  6
CONTINUOUS
 62
     4
  5
626
 10
1622.393602
 20
1774.938652
 30
0.0
 11
1625.893602
 21
1781.038652
 31
0.0
  0
LINE
  8
7
  6
CONTINUOUS
 62
     4
  5
627
 10
1625.093602
 20
1781.438652
 30
0.0
 11
1621.993602
 21
1776.038652
 31
0.0
  0
ARC
  8
7
  6
CONTINUOUS
 62
     4
  5
628
 10
1636.793602
 20
1815.138652
 30
0.0
 40
41.8
 50
230.63
 51
249.02
  0
ARC
  8
7
  6
CONTINUOUS
 62
     4
  5
629
 10
1619.293602
 20
1545.438652
 30
0.0
 40
7.7
 50
210.0
 51
30.0
  0
ARC
  8
7
  6
CONTINUOUS
 62
     4
  5
62A
 10
1619.293602
 20
1545.438652
 30
0.0
 40
6.8
 50
210.0
 51
30.0
  0
LINE
  8
7
  6
CONTINUOUS
 62
     4
  5
62B
 10
1609.193602
 20
1547.738652
 30
0.0
 11
1612.693602
 21
1541.638652
 31
0.0
  0
LINE
  8
7
  6
CONTINUOUS
 62
     4
  5
62C
 10
1613.493602
 20
1542.138652
 30
0.0
 11
1610.293602
 21
1547.538652
 31
0.0
  0
ARC
  8
7
  6
CONTINUOUS
 62
     4
  5
62D
 10
1636.793602
 20
1515.138652
 30
0.0
 40
41.8
 50
110.63
 51
129.02
  0
LINE
  8
7
  6
CONTINUOUS
 62
     4
  5
62E
 10
1625.193602
 20
1548.838652
 30
0.0
 11
1622.093602
 21
1554.238652
 31
0.0
  0
LINE
  8
7
  6
CONTINUOUS
 62
     4
  5
62F
 10
1622.493602
 20
1555.338652
 30
0.0
 11
1625.993602
 21
1549.338652
 31
0.0
  0
LINE
  8
7
  6
CONTINUOUS
 62
     4
  5
630
 10
1622.393602
 20
1474.938652
 30
0.0
 11
1625.893602
 21
1481.038652
 31
0.0
  0
LINE
  8
7
  6
CONTINUOUS
 62
     4
  5
631
 10
1625.093602
 20
1481.438652
 30
0.0
 11
1621.993602
 21
1476.038652
 31
0.0
  0
ARC
  8
7
  6
CONTINUOUS
 62
     4
  5
632
 10
1636.793602
 20
1515.138652
 30
0.0
 40
41.8
 50
230.63
 51
249.02
  0
ARC
  8
7
  6
CONTINUOUS
 62
     4
  5
633
 10
1636.793602
 20
1815.138652
 30
0.0
 40
42.7
 50
199.71
 51
261.38
  0
ARC
  8
7
  6
CONTINUOUS
 62
     4
  5
634
 10
1636.793602
 20
1815.138652
 30
0.0
 40
45.0
 50
198.68
 51
261.82
  0
ARC
  8
7
  6
CONTINUOUS
 62
     4
  5
635
 10
1636.793602
 20
1815.138652
 30
0.0
 40
45.0
 50
299.87
 51
60.13
  0
ARC
  8
7
  6
CONTINUOUS
 62
     4
  5
636
 10
1636.793602
 20
1815.138652
 30
0.0
 40
45.0
 50
98.18
 51
161.32
  0
ARC
  8
7
  6
CONTINUOUS
 62
     4
  5
637
 10
1636.793602
 20
1815.138652
 30
0.0
 40
42.7
 50
98.62
 51
160.29
  0
ARC
  8
7
  6
CONTINUOUS
 62
     4
  5
638
 10
1636.793602
 20
1515.138652
 30
0.0
 40
45.0
 50
198.68
 51
261.82
  0
ARC
  8
7
  6
CONTINUOUS
 62
     4
  5
639
 10
1636.793602
 20
1515.138652
 30
0.0
 40
42.7
 50
199.71
 51
261.38
  0
ARC
  8
7
  6
CONTINUOUS
 62
     4
  5
63A
 10
1636.793602
 20
1515.138652
 30
0.0
 40
42.7
 50
98.62
 51
160.29
  0
ARC
  8
7
  6
CONTINUOUS
 62
     4
  5
63B
 10
1636.793602
 20
1515.138652
 30
0.0
 40
45.0
 50
299.87
 51
60.13
  0
ARC
  8
7
  6
CONTINUOUS
 62
     4
  5
63C
 10
1636.793602
 20
1515.138652
 30
0.0
 40
45.0
 50
98.18
 51
161.32
  0
CIRCLE
  8
7
  6
CONTINUOUS
 62
     4
  5
63D
 10
1619.293602
 20
1545.438652
 30
0.0
 40
4.0
  0
CIRCLE
  8
7
  6
CONTINUOUS
 62
     4
  5
63E
 10
1619.293602
 20
1545.438652
 30
0.0
 40
4.4
  0
CIRCLE
  8
7
  6
CONTINUOUS
 62
     4
  5
63F
 10
1619.293602
 20
1784.838652
 30
0.0
 40
4.4
  0
CIRCLE
  8
7
  6
CONTINUOUS
 62
     4
  5
640
 10
1619.293602
 20
1784.838652
 30
0.0
 40
4.0
  0
CIRCLE
  8
7
  6
CONTINUOUS
 62
     4
  5
641
 10
1619.293602
 20
1845.438652
 30
0.0
 40
4.0
  0
CIRCLE
  8
7
  6
CONTINUOUS
 62
     4
  5
642
 10
1619.293602
 20
1845.438652
 30
0.0
 40
4.4
  0
LINE
  8
7
  6
CONTINUOUS
 62
     4
  5
643
 10
1630.393602
 20
1847.538652
 30
0.0
 11
1630.393602
 21
1932.738652
 31
0.0
  0
LINE
  8
7
  6
CONTINUOUS
 62
     4
  5
644
 10
1630.393602
 20
1697.538652
 30
0.0
 11
1630.393602
 21
1782.738652
 31
0.0
  0
ARC
  8
7
  6
CONTINUOUS
 62
     4
  5
645
 10
1612.393602
 20
1632.738652
 30
0.0
 40
18.0
 50
360.0
 51
90.0
  0
ARC
  8
7
  6
CONTINUOUS
 62
     4
  5
646
 10
1612.393602
 20
1697.538652
 30
0.0
 40
18.0
 50
270.0
 51
360.0
  0
LINE
  8
7
  6
CONTINUOUS
 62
     4
  5
647
 10
1630.393602
 20
1547.538652
 30
0.0
 11
1630.393602
 21
1632.738652
 31
0.0
  0
ARC
  8
7
  6
CONTINUOUS
 62
     4
  5
648
 10
1612.393602
 20
1847.538652
 30
0.0
 40
18.0
 50
270.0
 51
360.0
  0
ARC
  8
7
  6
CONTINUOUS
 62
     4
  5
649
 10
1612.393602
 20
1782.738652
 30
0.0
 40
18.0
 50
360.0
 51
90.0
  0
ARC
  8
7
  6
CONTINUOUS
 62
     4
  5
64A
 10
1612.393602
 20
1547.538652
 30
0.0
 40
18.0
 50
270.0
 51
360.0
  0
LINE
  8
7
  6
CONTINUOUS
 62
     4
  5
64B
 10
1527.193602
 20
1500.738652
 30
0.0
 11
1612.393602
 21
1500.738652
 31
0.0
  0
LINE
  8
7
  6
CONTINUOUS
 62
     4
  5
64C
 10
1527.193602
 20
1529.538652
 30
0.0
 11
1612.393602
 21
1529.538652
 31
0.0
  0
ARC
  8
7
  6
CONTINUOUS
 62
     4
  5
64D
 10
1527.193602
 20
1482.738652
 30
0.0
 40
18.0
 50
90.0
 51
180.0
  0
ARC
  8
7
  6
CONTINUOUS
 62
     4
  5
64E
 10
1619.293602
 20
1484.838652
 30
0.0
 40
7.7
 50
330.0
 51
150.0
  0
ARC
  8
7
  6
CONTINUOUS
 62
     4
  5
64F
 10
1619.293602
 20
1484.838652
 30
0.0
 40
6.8
 50
330.0
 51
150.0
  0
LINE
  8
7
  6
CONTINUOUS
 62
     4
  5
650
 10
1613.393602
 20
1488.238652
 30
0.0
 11
1610.293602
 21
1482.838652
 31
0.0
  0
LINE
  8
7
  6
CONTINUOUS
 62
     4
  5
651
 10
1609.093602
 20
1482.638652
 30
0.0
 11
1612.593602
 21
1488.638652
 31
0.0
  0
CIRCLE
  8
7
  6
CONTINUOUS
 62
     4
  5
652
 10
1619.293602
 20
1484.838652
 30
0.0
 40
4.4
  0
CIRCLE
  8
7
  6
CONTINUOUS
 62
     4
  5
653
 10
1619.293602
 20
1484.838652
 30
0.0
 40
4.0
  0
ARC
  8
7
  6
CONTINUOUS
 62
     4
  5
654
 10
1612.393602
 20
1482.738652
 30
0.0
 40
18.0
 50
360.0
 51
90.0
  0
LINE
  8
7
  6
CONTINUOUS
 62
     4
  5
655
 10
1630.393602
 20
1397.538652
 30
0.0
 11
1630.393602
 21
1482.738652
 31
0.0
  0
ARC
  8
7
  6
CONTINUOUS
 62
     4
  5
656
 10
1614.193602
 20
1395.738652
 30
0.0
 40
45.0
 50
270.0
 51
360.0
  0
ARC
  8
7
  6
CONTINUOUS
 62
     4
  5
657
 10
1612.393602
 20
1397.538652
 30
0.0
 40
18.0
 50
270.0
 51
360.0
  0
ARC
  8
7
  6
CONTINUOUS
 62
     4
  5
658
 10
1202.793602
 20
1515.138652
 30
0.0
 40
42.7
 50
19.71
 51
81.38
  0
ARC
  8
7
  6
CONTINUOUS
 62
     4
  5
659
 10
1202.793602
 20
1515.138652
 30
0.0
 40
45.0
 50
18.68
 51
81.82
  0
LINE
  8
7
  6
CONTINUOUS
 62
     4
  5
65A
 10
1312.393602
 20
1529.538652
 30
0.0
 11
1227.193602
 21
1529.538652
 31
0.0
  0
ARC
  8
7
  6
CONTINUOUS
 62
     4
  5
65B
 10
1227.193602
 20
1547.538652
 30
0.0
 40
18.0
 50
180.0
 51
270.0
  0
ARC
  8
7
  6
CONTINUOUS
 62
     4
  5
65C
 10
1312.393602
 20
1482.738652
 30
0.0
 40
18.0
 50
360.0
 51
90.0
  0
ARC
  8
7
  6
CONTINUOUS
 62
     4
  5
65D
 10
1312.393602
 20
1547.538652
 30
0.0
 40
18.0
 50
270.0
 51
360.0
  0
ARC
  8
7
  6
CONTINUOUS
 62
     4
  5
65E
 10
1225.393602
 20
1395.738652
 30
0.0
 40
45.0
 50
180.0
 51
270.0
  0
ARC
  8
7
  6
CONTINUOUS
 62
     4
  5
65F
 10
1227.193602
 20
1397.538652
 30
0.0
 40
18.0
 50
180.0
 51
270.0
  0
LINE
  8
7
  6
CONTINUOUS
 62
     4
  5
660
 10
1209.193602
 20
1397.538652
 30
0.0
 11
1209.193602
 21
1482.738652
 31
0.0
  0
ARC
  8
7
  6
CONTINUOUS
 62
     4
  5
661
 10
1220.293602
 20
1484.838652
 30
0.0
 40
7.7
 50
30.0
 51
210.0
  0
ARC
  8
7
  6
CONTINUOUS
 62
     4
  5
662
 10
1220.293602
 20
1484.838652
 30
0.0
 40
6.8
 50
30.0
 51
210.0
  0
LINE
  8
7
  6
CONTINUOUS
 62
     4
  5
663
 10
1230.393602
 20
1482.538652
 30
0.0
 11
1226.893602
 21
1488.638652
 31
0.0
  0
LINE
  8
7
  6
CONTINUOUS
 62
     4
  5
664
 10
1226.093602
 20
1488.138652
 30
0.0
 11
1229.293602
 21
1482.738652
 31
0.0
  0
ARC
  8
7
  6
CONTINUOUS
 62
     4
  5
665
 10
1202.793602
 20
1515.138652
 30
0.0
 40
41.8
 50
290.63
 51
309.02
  0
LINE
  8
7
  6
CONTINUOUS
 62
     4
  5
666
 10
1214.393602
 20
1481.438652
 30
0.0
 11
1217.493602
 21
1476.038652
 31
0.0
  0
LINE
  8
7
  6
CONTINUOUS
 62
     4
  5
667
 10
1217.093602
 20
1474.938652
 30
0.0
 11
1213.593602
 21
1480.938652
 31
0.0
  0
ARC
  8
7
  6
CONTINUOUS
 62
     4
  5
668
 10
1202.793602
 20
1515.138652
 30
0.0
 40
42.7
 50
278.62
 51
340.29
  0
ARC
  8
7
  6
CONTINUOUS
 62
     4
  5
669
 10
1202.793602
 20
1515.138652
 30
0.0
 40
45.0
 50
278.18
 51
341.32
  0
CIRCLE
  8
7
  6
CONTINUOUS
 62
     4
  5
66A
 10
1220.293602
 20
1484.838652
 30
0.0
 40
4.0
  0
CIRCLE
  8
7
  6
CONTINUOUS
 62
     4
  5
66B
 10
1220.293602
 20
1484.838652
 30
0.0
 40
4.4
  0
LINE
  8
7
  6
CONTINUOUS
 62
     4
  5
66C
 10
1312.393602
 20
1500.738652
 30
0.0
 11
1227.193602
 21
1500.738652
 31
0.0
  0
ARC
  8
7
  6
CONTINUOUS
 62
     4
  5
66D
 10
1227.193602
 20
1482.738652
 30
0.0
 40
18.0
 50
90.0
 51
180.0
  0
LINE
  8
7
  6
CONTINUOUS
 62
     4
  5
66E
 10
1225.393602
 20
1350.738652
 30
0.0
 11
1614.193602
 21
1350.738652
 31
0.0
  0
LINE
  8
7
  6
CONTINUOUS
 62
     4
  5
66F
 10
1462.393602
 20
1379.538652
 30
0.0
 11
1377.193602
 21
1379.538652
 31
0.0
  0
LINE
  8
7
  6
CONTINUOUS
 62
     4
  5
670
 10
1612.393602
 20
1379.538652
 30
0.0
 11
1527.193602
 21
1379.538652
 31
0.0
  0
LINE
  8
7
  6
CONTINUOUS
 62
     4
  5
671
 10
1227.193602
 20
1379.538652
 30
0.0
 11
1312.393602
 21
1379.538652
 31
0.0
  0
LINE
  8
7
  6
CONTINUOUS
 62
     4
  5
672
 10
1180.393602
 20
1395.738652
 30
0.0
 11
1180.393602
 21
1934.538652
 31
0.0
  0
LINE
  8
7
  6
CONTINUOUS
 62
     4
  5
673
 10
1160.793602
 20
1507.538652
 30
0.0
 11
1167.793602
 21
1507.538652
 31
0.0
  0
LINE
  8
7
  6
CONTINUOUS
 62
     4
  5
674
 10
1167.793602
 20
1508.438652
 30
0.0
 11
1161.493602
 21
1508.438652
 31
0.0
  0
ARC
  8
7
  6
CONTINUOUS
 62
     4
  5
675
 10
1202.793602
 20
1515.138652
 30
0.0
 40
41.8
 50
170.63
 51
189.02
  0
LINE
  8
7
  6
CONTINUOUS
 62
     4
  5
676
 10
1167.793602
 20
1521.938652
 30
0.0
 11
1161.593602
 21
1521.938652
 31
0.0
  0
LINE
  8
7
  6
CONTINUOUS
 62
     4
  5
677
 10
1160.793602
 20
1522.838652
 30
0.0
 11
1167.793602
 21
1522.838652
 31
0.0
  0
ARC
  8
7
  6
CONTINUOUS
 62
     4
  5
678
 10
1202.793602
 20
1515.138652
 30
0.0
 40
45.0
 50
119.87
 51
240.13
  0
ARC
  8
7
  6
CONTINUOUS
 62
     4
  5
679
 10
1202.793602
 20
1515.138652
 30
0.0
 40
42.7
 50
121.61
 51
238.39
  0
CIRCLE
  8
7
  6
CONTINUOUS
 62
     4
  5
67A
 10
1167.793602
 20
1515.138652
 30
0.0
 40
4.0
  0
CIRCLE
  8
7
  6
CONTINUOUS
 62
     4
  5
67B
 10
1167.793602
 20
1515.138652
 30
0.0
 40
4.4
  0
ARC
  8
7
  6
CONTINUOUS
 62
     4
  5
67C
 10
1167.793602
 20
1515.138652
 30
0.0
 40
7.7
 50
270.0
 51
90.0
  0
ARC
  8
7
  6
CONTINUOUS
 62
     4
  5
67D
 10
1167.793602
 20
1515.138652
 30
0.0
 40
6.8
 50
270.0
 51
90.0
  0
ARC
  8
7
  6
CONTINUOUS
 62
     4
  5
67E
 10
1225.393602
 20
1934.538652
 30
0.0
 40
45.0
 50
90.0
 51
180.0
  0
ARC
  8
7
  6
CONTINUOUS
 62
     4
  5
67F
 10
1227.193602
 20
1932.738652
 30
0.0
 40
18.0
 50
90.0
 51
180.0
  0
ARC
  8
7
  6
CONTINUOUS
 62
     4
  5
680
 10
1220.293602
 20
1784.838652
 30
0.0
 40
7.7
 50
30.0
 51
210.0
  0
ARC
  8
7
  6
CONTINUOUS
 62
     4
  5
681
 10
1220.293602
 20
1784.838652
 30
0.0
 40
6.8
 50
30.0
 51
210.0
  0
ARC
  8
7
  6
CONTINUOUS
 62
     4
  5
682
 10
1202.793602
 20
1815.138652
 30
0.0
 40
42.7
 50
278.62
 51
340.29
  0
ARC
  8
7
  6
CONTINUOUS
 62
     4
  5
683
 10
1202.793602
 20
1815.138652
 30
0.0
 40
45.0
 50
278.18
 51
341.32
  0
ARC
  8
7
  6
CONTINUOUS
 62
     4
  5
684
 10
1227.193602
 20
1782.738652
 30
0.0
 40
18.0
 50
90.0
 51
180.0
  0
ARC
  8
7
  6
CONTINUOUS
 62
     4
  5
685
 10
1167.793602
 20
1815.138652
 30
0.0
 40
7.7
 50
270.0
 51
90.0
  0
ARC
  8
7
  6
CONTINUOUS
 62
     4
  5
686
 10
1167.793602
 20
1815.138652
 30
0.0
 40
6.8
 50
270.0
 51
90.0
  0
LINE
  8
7
  6
CONTINUOUS
 62
     4
  5
687
 10
1160.793602
 20
1807.538652
 30
0.0
 11
1167.793602
 21
1807.538652
 31
0.0
  0
LINE
  8
7
  6
CONTINUOUS
 62
     4
  5
688
 10
1167.793602
 20
1808.438652
 30
0.0
 11
1161.493602
 21
1808.438652
 31
0.0
  0
ARC
  8
7
  6
CONTINUOUS
 62
     4
  5
689
 10
1202.793602
 20
1815.138652
 30
0.0
 40
41.8
 50
170.63
 51
189.02
  0
LINE
  8
7
  6
CONTINUOUS
 62
     4
  5
68A
 10
1167.793602
 20
1821.938652
 30
0.0
 11
1161.593602
 21
1821.938652
 31
0.0
  0
LINE
  8
7
  6
CONTINUOUS
 62
     4
  5
68B
 10
1160.793602
 20
1822.838652
 30
0.0
 11
1167.793602
 21
1822.838652
 31
0.0
  0
ARC
  8
7
  6
CONTINUOUS
 62
     4
  5
68C
 10
1202.793602
 20
1815.138652
 30
0.0
 40
42.7
 50
121.61
 51
238.39
  0
ARC
  8
7
  6
CONTINUOUS
 62
     4
  5
68D
 10
1202.793602
 20
1815.138652
 30
0.0
 40
45.0
 50
119.87
 51
240.13
  0
CIRCLE
  8
7
  6
CONTINUOUS
 62
     4
  5
68E
 10
1167.793602
 20
1815.138652
 30
0.0
 40
4.0
  0
CIRCLE
  8
7
  6
CONTINUOUS
 62
     4
  5
68F
 10
1167.793602
 20
1815.138652
 30
0.0
 40
4.4
  0
LINE
  8
7
  6
CONTINUOUS
 62
     4
  5
690
 10
1209.193602
 20
1847.538652
 30
0.0
 11
1209.193602
 21
1932.738652
 31
0.0
  0
LINE
  8
7
  6
CONTINUOUS
 62
     4
  5
691
 10
1312.393602
 20
1829.538652
 30
0.0
 11
1227.193602
 21
1829.538652
 31
0.0
  0
LINE
  8
7
  6
CONTINUOUS
 62
     4
  5
692
 10
1312.393602
 20
1800.738652
 30
0.0
 11
1227.193602
 21
1800.738652
 31
0.0
  0
LINE
  8
7
  6
CONTINUOUS
 62
     4
  5
693
 10
1330.393602
 20
1847.538652
 30
0.0
 11
1330.393602
 21
1932.738652
 31
0.0
  0
ARC
  8
7
  6
CONTINUOUS
 62
     4
  5
694
 10
1312.393602
 20
1847.538652
 30
0.0
 40
18.0
 50
270.0
 51
360.0
  0
ARC
  8
7
  6
CONTINUOUS
 62
     4
  5
695
 10
1220.293602
 20
1845.438652
 30
0.0
 40
7.7
 50
150.0
 51
330.0
  0
ARC
  8
7
  6
CONTINUOUS
 62
     4
  5
696
 10
1220.293602
 20
1845.438652
 30
0.0
 40
6.8
 50
150.0
 51
330.0
  0
LINE
  8
7
  6
CONTINUOUS
 62
     4
  5
697
 10
1217.193602
 20
1855.338652
 30
0.0
 11
1213.693602
 21
1849.238652
 31
0.0
  0
LINE
  8
7
  6
CONTINUOUS
 62
     4
  5
698
 10
1214.493602
 20
1848.838652
 30
0.0
 11
1217.593602
 21
1854.238652
 31
0.0
  0
ARC
  8
7
  6
CONTINUOUS
 62
     4
  5
699
 10
1202.793602
 20
1815.138652
 30
0.0
 40
41.8
 50
50.63
 51
69.02
  0
LINE
  8
7
  6
CONTINUOUS
 62
     4
  5
69A
 10
1226.193602
 20
1842.038652
 30
0.0
 11
1229.293602
 21
1847.438652
 31
0.0
  0
LINE
  8
7
  6
CONTINUOUS
 62
     4
  5
69B
 10
1230.493602
 20
1847.638652
 30
0.0
 11
1226.993602
 21
1841.638652
 31
0.0
  0
ARC
  8
7
  6
CONTINUOUS
 62
     4
  5
69C
 10
1202.793602
 20
1815.138652
 30
0.0
 40
42.7
 50
19.71
 51
81.38
  0
ARC
  8
7
  6
CONTINUOUS
 62
     4
  5
69D
 10
1202.793602
 20
1815.138652
 30
0.0
 40
45.0
 50
18.68
 51
81.82
  0
CIRCLE
  8
7
  6
CONTINUOUS
 62
     4
  5
69E
 10
1220.293602
 20
1845.438652
 30
0.0
 40
4.0
  0
CIRCLE
  8
7
  6
CONTINUOUS
 62
     4
  5
69F
 10
1220.293602
 20
1845.438652
 30
0.0
 40
4.4
  0
ARC
  8
7
  6
CONTINUOUS
 62
     4
  5
6A0
 10
1227.193602
 20
1847.538652
 30
0.0
 40
18.0
 50
180.0
 51
270.0
  0
ARC
  8
7
  6
CONTINUOUS
 62
     4
  5
6A1
 10
1227.193602
 20
1632.738652
 30
0.0
 40
18.0
 50
90.0
 51
180.0
  0
ARC
  8
7
  6
CONTINUOUS
 62
     4
  5
6A2
 10
1227.193602
 20
1697.538652
 30
0.0
 40
18.0
 50
180.0
 51
270.0
  0
LINE
  8
7
  6
CONTINUOUS
 62
     4
  5
6A3
 10
1209.193602
 20
1697.538652
 30
0.0
 11
1209.193602
 21
1782.738652
 31
0.0
  0
LINE
  8
7
  6
CONTINUOUS
 62
     4
  5
6A4
 10
1209.193602
 20
1547.538652
 30
0.0
 11
1209.193602
 21
1632.738652
 31
0.0
  0
LINE
  8
7
  6
CONTINUOUS
 62
     4
  5
6A5
 10
1312.393602
 20
1650.738652
 30
0.0
 11
1227.193602
 21
1650.738652
 31
0.0
  0
LINE
  8
7
  6
CONTINUOUS
 62
     4
  5
6A6
 10
1312.393602
 20
1679.538652
 30
0.0
 11
1226.793602
 21
1679.538652
 31
0.0
  0
ARC
  8
7
  6
CONTINUOUS
 62
     4
  5
6A7
 10
1220.293602
 20
1545.438652
 30
0.0
 40
7.7
 50
150.0
 51
330.0
  0
ARC
  8
7
  6
CONTINUOUS
 62
     4
  5
6A8
 10
1220.293602
 20
1545.438652
 30
0.0
 40
6.8
 50
150.0
 51
330.0
  0
LINE
  8
7
  6
CONTINUOUS
 62
     4
  5
6A9
 10
1217.193602
 20
1555.338652
 30
0.0
 11
1213.693602
 21
1549.238652
 31
0.0
  0
LINE
  8
7
  6
CONTINUOUS
 62
     4
  5
6AA
 10
1214.493602
 20
1548.838652
 30
0.0
 11
1217.593602
 21
1554.238652
 31
0.0
  0
ARC
  8
7
  6
CONTINUOUS
 62
     4
  5
6AB
 10
1202.793602
 20
1515.138652
 30
0.0
 40
41.8
 50
50.63
 51
69.02
  0
LINE
  8
7
  6
CONTINUOUS
 62
     4
  5
6AC
 10
1226.193602
 20
1542.038652
 30
0.0
 11
1229.293602
 21
1547.438652
 31
0.0
  0
LINE
  8
7
  6
CONTINUOUS
 62
     4
  5
6AD
 10
1230.493602
 20
1547.638652
 30
0.0
 11
1226.993602
 21
1541.638652
 31
0.0
  0
CIRCLE
  8
7
  6
CONTINUOUS
 62
     4
  5
6AE
 10
1220.293602
 20
1545.438652
 30
0.0
 40
4.0
  0
CIRCLE
  8
7
  6
CONTINUOUS
 62
     4
  5
6AF
 10
1220.293602
 20
1545.438652
 30
0.0
 40
4.4
  0
LINE
  8
7
  6
CONTINUOUS
 62
     4
  5
6B0
 10
1230.393602
 20
1782.538652
 30
0.0
 11
1226.893602
 21
1788.638652
 31
0.0
  0
LINE
  8
7
  6
CONTINUOUS
 62
     4
  5
6B1
 10
1226.093602
 20
1788.138652
 30
0.0
 11
1229.293602
 21
1782.738652
 31
0.0
  0
ARC
  8
7
  6
CONTINUOUS
 62
     4
  5
6B2
 10
1202.793602
 20
1815.138652
 30
0.0
 40
41.8
 50
290.63
 51
309.02
  0
LINE
  8
7
  6
CONTINUOUS
 62
     4
  5
6B3
 10
1214.393602
 20
1781.438652
 30
0.0
 11
1217.493602
 21
1776.038652
 31
0.0
  0
LINE
  8
7
  6
CONTINUOUS
 62
     4
  5
6B4
 10
1217.093602
 20
1774.938652
 30
0.0
 11
1213.593602
 21
1780.938652
 31
0.0
  0
CIRCLE
  8
7
  6
CONTINUOUS
 62
     4
  5
6B5
 10
1220.293602
 20
1784.838652
 30
0.0
 40
4.0
  0
CIRCLE
  8
7
  6
CONTINUOUS
 62
     4
  5
6B6
 10
1220.293602
 20
1784.838652
 30
0.0
 40
4.4
  0
LINE
  8
7
  6
CONTINUOUS
 62
     4
  5
6B7
 10
1527.193602
 20
1650.738652
 30
0.0
 11
1612.393602
 21
1650.738652
 31
0.0
  0
LINE
  8
7
  6
CONTINUOUS
 62
     4
  5
6B8
 10
1527.193602
 20
1679.538652
 30
0.0
 11
1612.793602
 21
1679.538652
 31
0.0
  0
LINE
  8
7
  6
CONTINUOUS
 62
     4
  5
6B9
 10
1527.193602
 20
1829.538652
 30
0.0
 11
1612.393602
 21
1829.538652
 31
0.0
  0
LINE
  8
7
  6
CONTINUOUS
 62
     4
  5
6BA
 10
1527.193602
 20
1800.738652
 30
0.0
 11
1612.393602
 21
1800.738652
 31
0.0
  0
LINE
  8
7
  6
CONTINUOUS
 62
     4
  5
6BB
 10
1613.393602
 20
1788.238652
 30
0.0
 11
1610.293602
 21
1782.838652
 31
0.0
  0
LINE
  8
7
  6
CONTINUOUS
 62
     4
  5
6BC
 10
1609.093602
 20
1782.638652
 30
0.0
 11
1612.593602
 21
1788.638652
 31
0.0
  0
LINE
  8
7
  6
CONTINUOUS
 62
     4
  5
6BD
 10
1659.193602
 20
1395.738652
 30
0.0
 11
1659.193602
 21
1934.538652
 31
0.0
  0
ARC
  8
7
  6
CONTINUOUS
 62
     4
  5
6BE
 10
1671.793602
 20
1815.138652
 30
0.0
 40
7.7
 50
90.0
 51
270.0
  0
ARC
  8
7
  6
CONTINUOUS
 62
     4
  5
6BF
 10
1671.793602
 20
1815.138652
 30
0.0
 40
6.8
 50
90.0
 51
270.0
  0
LINE
  8
7
  6
CONTINUOUS
 62
     4
  5
6C0
 10
1678.793602
 20
1822.738652
 30
0.0
 11
1671.793602
 21
1822.738652
 31
0.0
  0
LINE
  8
7
  6
CONTINUOUS
 62
     4
  5
6C1
 10
1671.793602
 20
1821.838652
 30
0.0
 11
1678.093602
 21
1821.838652
 31
0.0
  0
ARC
  8
7
  6
CONTINUOUS
 62
     4
  5
6C2
 10
1636.793602
 20
1815.138652
 30
0.0
 40
41.8
 50
350.63
 51
9.02
  0
LINE
  8
7
  6
CONTINUOUS
 62
     4
  5
6C3
 10
1671.793602
 20
1808.338652
 30
0.0
 11
1677.993602
 21
1808.338652
 31
0.0
  0
LINE
  8
7
  6
CONTINUOUS
 62
     4
  5
6C4
 10
1678.793602
 20
1807.438652
 30
0.0
 11
1671.793602
 21
1807.438652
 31
0.0
  0
ARC
  8
7
  6
CONTINUOUS
 62
     4
  5
6C5
 10
1636.793602
 20
1815.138652
 30
0.0
 40
42.7
 50
301.61
 51
58.39
  0
ARC
  8
7
  6
CONTINUOUS
 62
     4
  5
6C6
 10
1636.793602
 20
1515.138652
 30
0.0
 40
42.7
 50
301.61
 51
58.39
  0
CIRCLE
  8
7
  6
CONTINUOUS
 62
     4
  5
6C7
 10
1671.793602
 20
1815.138652
 30
0.0
 40
4.0
  0
CIRCLE
  8
7
  6
CONTINUOUS
 62
     4
  5
6C8
 10
1671.793602
 20
1815.138652
 30
0.0
 40
4.4
  0
ARC
  8
7
  6
CONTINUOUS
 62
     4
  5
6C9
 10
1671.793602
 20
1515.138652
 30
0.0
 40
7.7
 50
90.0
 51
270.0
  0
ARC
  8
7
  6
CONTINUOUS
 62
     4
  5
6CA
 10
1671.793602
 20
1515.138652
 30
0.0
 40
6.8
 50
90.0
 51
270.0
  0
LINE
  8
7
  6
CONTINUOUS
 62
     4
  5
6CB
 10
1678.793602
 20
1522.738652
 30
0.0
 11
1671.793602
 21
1522.738652
 31
0.0
  0
LINE
  8
7
  6
CONTINUOUS
 62
     4
  5
6CC
 10
1671.793602
 20
1521.838652
 30
0.0
 11
1678.093602
 21
1521.838652
 31
0.0
  0
ARC
  8
7
  6
CONTINUOUS
 62
     4
  5
6CD
 10
1636.793602
 20
1515.138652
 30
0.0
 40
41.8
 50
350.63
 51
9.02
  0
LINE
  8
7
  6
CONTINUOUS
 62
     4
  5
6CE
 10
1671.793602
 20
1508.338652
 30
0.0
 11
1677.993602
 21
1508.338652
 31
0.0
  0
LINE
  8
7
  6
CONTINUOUS
 62
     4
  5
6CF
 10
1678.793602
 20
1507.438652
 30
0.0
 11
1671.793602
 21
1507.438652
 31
0.0
  0
CIRCLE
  8
7
  6
CONTINUOUS
 62
     4
  5
6D0
 10
1671.793602
 20
1515.138652
 30
0.0
 40
4.0
  0
CIRCLE
  8
7
  6
CONTINUOUS
 62
     4
  5
6D1
 10
1671.793602
 20
1515.138652
 30
0.0
 40
4.4
  0
LINE
  8
7
  6
CENTER
 62
     3
  5
6D2
 10
1225.393602
 20
1815.138652
 30
0.0
 11
1644.793602
 21
1815.138652
 31
0.0
  0
LINE
  8
7
  6
CENTER
 62
     3
  5
6D3
 10
1225.393602
 20
1665.138652
 30
0.0
 11
1644.793602
 21
1665.138652
 31
0.0
  0
LINE
  8
7
  6
CENTER
 62
     3
  5
6D4
 10
1494.793602
 20
1365.138652
 30
0.0
 11
1494.793602
 21
1965.138652
 31
0.0
  0
LINE
  8
7
  6
CENTER
 62
     3
  5
6D5
 10
1344.793602
 20
1365.138652
 30
0.0
 11
1344.793602
 21
1965.138652
 31
0.0
  0
LINE
  8
7
  6
CENTER
 62
     3
  5
6D6
 10
3574.369676
 20
1365.138652
 30
0.0
 11
3574.369676
 21
1965.138652
 31
0.0
  0
LINE
  8
2
  6
CONTINUOUS
 62
     3
  5
6D7
 10
4049.369676
 20
2033.138652
 30
0.0
 11
2744.370176
 21
2033.138652
 31
0.0
  0
LINE
  8
2
  6
CONTINUOUS
 62
     3
  5
6D8
 10
4049.369676
 20
2136.138652
 30
0.0
 11
2744.370176
 21
2136.138652
 31
0.0
  0
LINE
  8
2
  6
CONTINUOUS
 62
     3
  5
6D9
 10
4049.369676
 20
2239.138652
 30
0.0
 11
2744.370176
 21
2239.138652
 31
0.0
  0
LINE
  8
2
  6
CONTINUOUS
 62
     3
  5
6DA
 10
4049.369676
 20
2342.138652
 30
0.0
 11
2744.370176
 21
2342.138652
 31
0.0
  0
LINE
  8
2
  6
CONTINUOUS
 62
     3
  5
6DB
 10
4049.369676
 20
2445.138652
 30
0.0
 11
2744.370176
 21
2445.138652
 31
0.0
  0
LINE
  8
2
  6
CONTINUOUS
 62
     3
  5
6DC
 10
4049.369676
 20
2548.138652
 30
0.0
 11
2744.370176
 21
2548.138652
 31
0.0
  0
LINE
  8
2
  6
CONTINUOUS
 62
     3
  5
6DD
 10
4049.369676
 20
2651.138652
 30
0.0
 11
2744.370176
 21
2651.138652
 31
0.0
  0
LINE
  8
2
  6
CONTINUOUS
 62
     3
  5
6DE
 10
4049.369676
 20
2754.138652
 30
0.0
 11
2744.370176
 21
2754.138652
 31
0.0
  0
LINE
  8
2
  6
CONTINUOUS
 62
     3
  5
6DF
 10
4049.369676
 20
2857.138652
 30
0.0
 11
2744.370176
 21
2857.138652
 31
0.0
  0
LINE
  8
2
  6
CONTINUOUS
 62
     3
  5
6E0
 10
4049.369676
 20
2960.138652
 30
0.0
 11
2744.370176
 21
2960.138652
 31
0.0
  0
LINE
  8
2
  6
CONTINUOUS
 62
     3
  5
6E1
 10
4049.369676
 20
3063.138652
 30
0.0
 11
2744.370176
 21
3063.138652
 31
0.0
  0
LINE
  8
2
  6
CONTINUOUS
 62
     3
  5
6E2
 10
3109.969676
 20
1930.138652
 30
0.0
 11
2744.370176
 21
1930.138652
 31
0.0
  0
LINE
  8
2
  6
CONTINUOUS
 62
     3
  5
6E3
 10
3109.969676
 20
1827.138652
 30
0.0
 11
2744.370176
 21
1827.138652
 31
0.0
  0
LINE
  8
2
  6
CONTINUOUS
 62
     3
  5
6E4
 10
3109.969676
 20
1518.138652
 30
0.0
 11
3058.176344
 21
1518.138652
 31
0.0
  0
LINE
  8
2
  6
CONTINUOUS
 62
     3
  5
6E5
 10
3109.969676
 20
1621.138652
 30
0.0
 11
3062.643602
 21
1621.138652
 31
0.0
  0
LINE
  8
2
  6
CONTINUOUS
 62
     3
  5
6E6
 10
3109.969676
 20
1724.138652
 30
0.0
 11
3067.110861
 21
1724.138652
 31
0.0
  0
LINE
  8
2
  6
CONTINUOUS
 62
     3
  5
6E7
 10
3259.969676
 20
1621.138652
 30
0.0
 11
3138.769676
 21
1621.138652
 31
0.0
  0
LINE
  8
2
  6
CONTINUOUS
 62
     3
  5
6E8
 10
3259.969676
 20
1724.138652
 30
0.0
 11
3138.769676
 21
1724.138652
 31
0.0
  0
LINE
  8
2
  6
CONTINUOUS
 62
     3
  5
6E9
 10
3409.969676
 20
1621.138652
 30
0.0
 11
3288.769676
 21
1621.138652
 31
0.0
  0
LINE
  8
2
  6
CONTINUOUS
 62
     3
  5
6EA
 10
3409.969676
 20
1724.138652
 30
0.0
 11
3288.769676
 21
1724.138652
 31
0.0
  0
LINE
  8
2
  6
CONTINUOUS
 62
     3
  5
6EB
 10
4049.369676
 20
1930.138652
 30
0.0
 11
3588.769676
 21
1930.138652
 31
0.0
  0
LINE
  8
2
  6
CONTINUOUS
 62
     3
  5
6EC
 10
4049.369676
 20
1827.138652
 30
0.0
 11
3588.769676
 21
1827.138652
 31
0.0
  0
LINE
  8
2
  6
CONTINUOUS
 62
     3
  5
6ED
 10
4049.369676
 20
1518.138652
 30
0.0
 11
3588.769676
 21
1518.138652
 31
0.0
  0
LINE
  8
2
  6
CONTINUOUS
 62
     3
  5
6EE
 10
4049.369676
 20
1621.138652
 30
0.0
 11
3588.769676
 21
1621.138652
 31
0.0
  0
LINE
  8
2
  6
CONTINUOUS
 62
     3
  5
6EF
 10
3559.969676
 20
1621.138652
 30
0.0
 11
3438.769676
 21
1621.138652
 31
0.0
  0
LINE
  8
2
  6
CONTINUOUS
 62
     3
  5
6F0
 10
4049.369676
 20
1724.138652
 30
0.0
 11
3588.769676
 21
1724.138652
 31
0.0
  0
LINE
  8
2
  6
CONTINUOUS
 62
     3
  5
6F1
 10
3559.969676
 20
1724.138652
 30
0.0
 11
3438.769676
 21
1724.138652
 31
0.0
  0
TEXT
  8
2
  6
CONTINUOUS
 62
     2
  5
6F2
 10
3269.370176
 20
292.698552
 30
0.0
 40
105.0
  1
Ｂ
 41
0.837
  7

 72
     5
 11
3374.370176
 21
292.698552
 31
0.0
  0
LINE
  8
2
  6
CONTINUOUS
 62
     2
  5
6F3
 10
2967.174176
 20
1041.008552
 30
0.0
 11
3029.390976
 21
1041.008552
 31
0.0
  0
LINE
  8
2
  6
CONTINUOUS
 62
     2
  5
6F4
 10
2967.150476
 20
1009.258452
 30
0.0
 11
3029.390976
 21
1009.258452
 31
0.0
  0
LINE
  8
2
  6
CONTINUOUS
 62
     2
  5
6F5
 10
2893.245376
 20
1284.778552
 30
0.0
 11
2893.245376
 21
1115.138652
 31
0.0
  0
LINE
  8
2
  6
CONTINUOUS
 62
     2
  5
6F6
 10
2861.495176
 20
1284.778552
 30
0.0
 11
2861.495176
 21
1115.138652
 31
0.0
  0
LINE
  8
2
  6
CONTINUOUS
 62
     2
  5
6F7
 10
2744.370176
 20
1345.128752
 30
0.0
 11
2744.370176
 21
1799.138952
 31
0.0
  0
LINE
  8
2
  6
CONTINUOUS
 62
     2
  5
6F8
 10
3078.371776
 20
1733.138252
 30
0.0
 11
3078.371776
 21
1799.138952
 31
0.0
  0
LINE
  8
2
  6
CONTINUOUS
 62
     2
  5
6F9
 10
3050.550776
 20
1342.318652
 30
0.0
 11
3067.371076
 21
1730.138352
 31
0.0
  0
LINE
  8
2
  6
CONTINUOUS
 62
     2
  5
6FA
 10
2859.370076
 20
1740.128552
 30
0.0
 11
2859.370076
 21
1795.139052
 31
0.0
  0
LINE
  8
2
  6
CONTINUOUS
 62
     2
  5
6FB
 10
2835.238376
 20
1335.128552
 30
0.0
 11
2852.370176
 21
1730.138352
 31
0.0
  0
LINE
  8
2
  6
CONTINUOUS
 62
     2
  5
6FC
 10
2899.121876
 20
1284.778552
 30
0.0
 11
2855.621276
 21
1284.778552
 31
0.0
  0
LINE
  8
2
  6
CONTINUOUS
 62
     2
  5
6FD
 10
2899.121876
 20
1299.778652
 30
0.0
 11
2855.621276
 21
1299.778652
 31
0.0
  0
LINE
  8
2
  6
CONTINUOUS
 62
     2
  5
6FE
 10
2899.870776
 20
1298.898552
 30
0.0
 11
2899.870776
 21
1285.648552
 31
0.0
  0
LINE
  8
2
  6
CONTINUOUS
 62
     2
  5
6FF
 10
2854.870576
 20
1298.898552
 30
0.0
 11
2854.870576
 21
1285.648552
 31
0.0
  0
LINE
  8
2
  6
CONTINUOUS
 62
     2
  5
700
 10
2850.870676
 20
1304.138652
 30
0.0
 11
2903.870676
 21
1304.138652
 31
0.0
  0
LINE
  8
2
  6
CONTINUOUS
 62
     2
  5
701
 10
2844.870776
 20
1312.138552
 30
0.0
 11
2844.870776
 21
1315.138452
 31
0.0
  0
LINE
  8
2
  6
CONTINUOUS
 62
     2
  5
702
 10
2909.870576
 20
1312.138552
 30
0.0
 11
2909.870576
 21
1315.138452
 31
0.0
  0
LINE
  8
2
  6
CONTINUOUS
 62
     2
  5
703
 10
2904.371176
 20
1304.638652
 30
0.0
 11
2904.371176
 21
1309.638552
 31
0.0
  0
LINE
  8
2
  6
CONTINUOUS
 62
     2
  5
704
 10
2850.371176
 20
1304.638652
 30
0.0
 11
2850.371176
 21
1309.638552
 31
0.0
  0
LINE
  8
2
  6
CONTINUOUS
 62
     2
  5
705
 10
2845.371176
 20
1311.638552
 30
0.0
 11
2909.371076
 21
1311.638552
 31
0.0
  0
LINE
  8
2
  6
CONTINUOUS
 62
     2
  5
706
 10
2856.415676
 20
1299.778652
 30
0.0
 11
2856.415676
 21
1304.138652
 31
0.0
  0
LINE
  8
2
  6
CONTINUOUS
 62
     2
  5
707
 10
2898.325776
 20
1299.778652
 30
0.0
 11
2898.325776
 21
1304.138652
 31
0.0
  0
LINE
  8
2
  6
CONTINUOUS
 62
     2
  5
708
 10
2960.870676
 20
1725.128752
 30
0.0
 11
2979.250076
 21
1724.628352
 31
0.0
  0
LINE
  8
2
  6
CONTINUOUS
 62
     2
  5
709
 10
2962.226676
 20
1685.178452
 30
0.0
 11
2974.777676
 21
1685.518752
 31
0.0
  0
LINE
  8
2
  6
CONTINUOUS
 62
     2
  5
70A
 10
2962.012376
 20
1683.148752
 30
0.0
 11
2962.012376
 21
1662.038852
 31
0.0
  0
LINE
  8
2
  6
CONTINUOUS
 62
     2
  5
70B
 10
2987.115176
 20
1685.638652
 30
0.0
 11
2987.115176
 21
1662.138552
 31
0.0
  0
LINE
  8
2
  6
CONTINUOUS
 62
     2
  5
70C
 10
2976.508176
 20
1685.638652
 30
0.0
 11
2976.508176
 21
1662.138552
 31
0.0
  0
LINE
  8
2
  6
CONTINUOUS
 62
     2
  5
70D
 10
2967.811976
 20
1654.138652
 30
0.0
 11
2981.944676
 21
1654.639152
 31
0.0
  0
LINE
  8
2
  6
CONTINUOUS
 62
     2
  5
70E
 10
3275.572876
 20
1157.038652
 30
0.0
 11
3282.073276
 21
1157.038652
 31
0.0
  0
LINE
  8
2
  6
CONTINUOUS
 62
     2
  5
70F
 10
3275.572876
 20
1248.238452
 30
0.0
 11
3276.572876
 21
1248.238452
 31
0.0
  0
LINE
  8
2
  6
CONTINUOUS
 62
     2
  5
710
 10
3404.573476
 20
1156.138852
 30
0.0
 11
3407.337176
 21
1156.138852
 31
0.0
  0
LINE
  8
2
  6
CONTINUOUS
 62
     2
  5
711
 10
3404.573476
 20
1249.138252
 30
0.0
 11
3404.573476
 21
1156.138852
 31
0.0
  0
LINE
  8
2
  6
CONTINUOUS
 62
     2
  5
712
 10
3404.573476
 20
1249.138252
 30
0.0
 11
3407.538376
 21
1249.138252
 31
0.0
  0
LINE
  8
2
  6
CONTINUOUS
 62
     2
  5
713
 10
3275.572876
 20
1156.138852
 30
0.0
 11
3272.810076
 21
1156.138852
 31
0.0
  0
LINE
  8
2
  6
CONTINUOUS
 62
     2
  5
714
 10
3275.572876
 20
1249.138252
 30
0.0
 11
3275.572876
 21
1156.138852
 31
0.0
  0
LINE
  8
2
  6
CONTINUOUS
 62
     2
  5
715
 10
3275.572876
 20
1249.138252
 30
0.0
 11
3272.608876
 21
1249.138252
 31
0.0
  0
LINE
  8
2
  6
CONTINUOUS
 62
     2
  5
716
 10
3275.572876
 20
1187.138752
 30
0.0
 11
3282.073276
 21
1187.138752
 31
0.0
  0
LINE
  8
2
  6
CONTINUOUS
 62
     2
  5
717
 10
3275.572876
 20
1203.014252
 30
0.0
 11
3282.073276
 21
1202.904052
 31
0.0
  0
LINE
  8
2
  6
CONTINUOUS
 62
     2
  5
718
 10
3404.573476
 20
1187.138752
 30
0.0
 11
3398.073176
 21
1187.138752
 31
0.0
  0
LINE
  8
2
  6
CONTINUOUS
 62
     2
  5
719
 10
3404.573476
 20
1203.014252
 30
0.0
 11
3398.073176
 21
1202.904052
 31
0.0
  0
LINE
  8
2
  6
CONTINUOUS
 62
     2
  5
71A
 10
3403.573476
 20
1250.467152
 30
0.0
 11
3403.573476
 21
1237.706252
 31
0.0
  0
LINE
  8
2
  6
CONTINUOUS
 62
     2
  5
71B
 10
3276.572876
 20
1250.467152
 30
0.0
 11
3276.572876
 21
1237.706252
 31
0.0
  0
LINE
  8
2
  6
CONTINUOUS
 62
     2
  5
71C
 10
3403.573476
 20
1247.738452
 30
0.0
 11
3403.573476
 21
1240.738552
 31
0.0
  0
LINE
  8
2
  6
CONTINUOUS
 62
     2
  5
71D
 10
3276.572876
 20
1247.738452
 30
0.0
 11
3276.572876
 21
1240.738552
 31
0.0
  0
LINE
  8
2
  6
CONTINUOUS
 62
     2
  5
71E
 10
3276.572876
 20
1250.467152
 30
0.0
 11
3403.573476
 21
1250.467152
 31
0.0
  0
LINE
  8
2
  6
CONTINUOUS
 62
     2
  5
71F
 10
3280.572876
 20
1233.706252
 30
0.0
 11
3399.573576
 21
1233.706252
 31
0.0
  0
LINE
  8
2
  6
CONTINUOUS
 62
     2
  5
720
 10
3282.073276
 20
1233.706252
 30
0.0
 11
3282.073276
 21
1134.903852
 31
0.0
  0
LINE
  8
2
  6
CONTINUOUS
 62
     2
  5
721
 10
3398.073176
 20
1233.706252
 30
0.0
 11
3398.073176
 21
1134.903852
 31
0.0
  0
LINE
  8
2
  6
CONTINUOUS
 62
     2
  5
722
 10
3282.073276
 20
1134.903852
 30
0.0
 11
3398.073176
 21
1134.903852
 31
0.0
  0
LINE
  8
2
  6
CONTINUOUS
 62
     2
  5
723
 10
3403.573476
 20
1248.238452
 30
0.0
 11
3404.573476
 21
1248.238452
 31
0.0
  0
LINE
  8
2
  6
CONTINUOUS
 62
     2
  5
724
 10
3398.073176
 20
1157.038652
 30
0.0
 11
3404.573476
 21
1157.038652
 31
0.0
  0
ARC
  8
2
  6
CONTINUOUS
 62
     2
  5
725
 10
2967.370076
 20
1115.138652
 30
0.0
 40
74.124999
 50
180.0
 51
270.0
  0
ARC
  8
2
  6
CONTINUOUS
 62
     2
  5
726
 10
2967.370076
 20
1115.138652
 30
0.0
 40
105.87499
 50
180.0
 51
270.0
  0
ARC
  8
2
  6
CONTINUOUS
 62
     2
  5
727
 10
2985.611276
 20
1345.128752
 30
0.0
 40
64.999996
 50
336.637
 51
360.0
  0
ARC
  8
2
  6
CONTINUOUS
 62
     2
  5
728
 10
2756.126776
 20
1322.138752
 30
0.0
 40
7.0
 50
203.363
 51
270.001
  0
ARC
  8
2
  6
CONTINUOUS
 62
     2
  5
729
 10
3038.856276
 20
1322.138752
 30
0.0
 40
7.00006
 50
270.00201
 51
336.637
  0
ARC
  8
2
  6
CONTINUOUS
 62
     2
  5
72A
 10
3075.370976
 20
1733.138252
 30
0.0
 40
3.0
 50
270.0
 51
360.0
  0
ARC
  8
2
  6
CONTINUOUS
 62
     2
  5
72B
 10
2750.370076
 20
1799.138952
 30
0.0
 40
6.0
 50
90.0
 51
180.0
  0
ARC
  8
2
  6
CONTINUOUS
 62
     2
  5
72C
 10
3072.371076
 20
1799.138952
 30
0.0
 40
6.0
 50
360.0
 51
90.0
  0
ARC
  8
2
  6
CONTINUOUS
 62
     2
  5
72D
 10
2891.246276
 20
1292.278852
 30
0.0
 40
10.874999
 50
37.52301
 51
43.603012
  0
ARC
  8
2
  6
CONTINUOUS
 62
     2
  5
72E
 10
2863.496076
 20
1292.278852
 30
0.0
 40
10.874999
 50
217.52301
 51
223.60301
  0
ARC
  8
2
  6
CONTINUOUS
 62
     2
  5
72F
 10
2891.246276
 20
1292.278852
 30
0.0
 40
10.874999
 50
316.397
 51
322.477
  0
ARC
  8
2
  6
CONTINUOUS
 62
     2
  5
730
 10
2863.496076
 20
1292.278852
 30
0.0
 40
10.874999
 50
136.3972
 51
142.47671
  0
ARC
  8
2
  6
CONTINUOUS
 62
     2
  5
731
 10
2909.371076
 20
1312.138552
 30
0.0
 40
0.5
 50
270.0
 51
360.0
  0
ARC
  8
2
  6
CONTINUOUS
 62
     2
  5
732
 10
2845.371176
 20
1312.138552
 30
0.0
 40
0.5
 50
180.0
 51
270.0
  0
ARC
  8
2
  6
CONTINUOUS
 62
     2
  5
733
 10
2850.870676
 20
1304.638652
 30
0.0
 40
0.5
 50
180.0
 51
270.0
  0
ARC
  8
2
  6
CONTINUOUS
 62
     2
  5
734
 10
2903.870676
 20
1304.638652
 30
0.0
 40
0.5
 50
270.0
 51
360.0
  0
ARC
  8
2
  6
CONTINUOUS
 62
     2
  5
735
 10
2848.371176
 20
1309.638552
 30
0.0
 40
2.0
 50
360.0
 51
90.0
  0
ARC
  8
2
  6
CONTINUOUS
 62
     2
  5
736
 10
2906.371076
 20
1309.638552
 30
0.0
 40
2.0
 50
90.0
 51
180.0
  0
ARC
  8
2
  6
CONTINUOUS
 62
     2
  5
737
 10
2974.508276
 20
1684.508252
 30
0.0
 40
1.99999
 50
360.0
 51
68.292007
  0
ARC
  8
2
  6
CONTINUOUS
 62
     2
  5
738
 10
2988.829976
 20
1688.288652
 30
0.0
 40
2.00003
 50
137.24771
 51
192.39201
  0
ARC
  8
2
  6
CONTINUOUS
 62
     2
  5
739
 10
2960.012376
 20
1683.148752
 30
0.0
 40
1.99994
 50
360.0
 51
87.20111
  0
ARC
  8
2
  6
CONTINUOUS
 62
     2
  5
73A
 10
2973.195076
 20
1691.188852
 30
0.0
 40
0.999935
 50
228.10101
 51
332.55
  0
ARC
  8
2
  6
CONTINUOUS
 62
     2
  5
73B
 10
2974.404076
 20
1705.138752
 30
0.0
 40
27.9485
 50
167.22421
 51
192.775
  0
ARC
  8
2
  6
CONTINUOUS
 62
     2
  5
73C
 10
2968.922176
 20
1706.588452
 30
0.0
 40
22.282299
 50
143.90861
 51
167.75201
  0
ARC
  8
2
  6
CONTINUOUS
 62
     2
  5
73D
 10
2962.072776
 20
1711.728352
 30
0.0
 40
13.7213
 50
111.3345
 51
144.3948
  0
ARC
  8
2
  6
CONTINUOUS
 62
     2
  5
73E
 10
2960.597676
 20
1714.968852
 30
0.0
 40
10.160599
 50
87.850601
 51
110.25221
  0
ARC
  8
2
  6
CONTINUOUS
 62
     2
  5
73F
 10
2968.922176
 20
1703.678552
 30
0.0
 40
22.282299
 50
192.248
 51
216.091
  0
ARC
  8
2
  6
CONTINUOUS
 62
     2
  5
740
 10
2962.072776
 20
1698.538652
 30
0.0
 40
13.7213
 50
215.60501
 51
248.666
  0
ARC
  8
2
  6
CONTINUOUS
 62
     2
  5
741
 10
2960.597676
 20
1695.298952
 30
0.0
 40
10.1608
 50
249.748
 51
267.348
  0
ARC
  8
2
  6
CONTINUOUS
 62
     2
  5
742
 10
2992.435376
 20
1705.138752
 30
0.0
 40
27.241299
 50
167.22021
 51
192.779
  0
ARC
  8
2
  6
CONTINUOUS
 62
     2
  5
743
 10
2978.983176
 20
1714.738752
 30
0.0
 40
9.89655
 50
69.725006
 51
110.27371
  0
ARC
  8
2
  6
CONTINUOUS
 62
     2
  5
744
 10
2980.418876
 20
1711.558552
 30
0.0
 40
13.376299
 50
111.3311
 51
144.3963
  0
ARC
  8
2
  6
CONTINUOUS
 62
     2
  5
745
 10
2987.093376
 20
1706.549052
 30
0.0
 40
21.718999
 50
143.9051
 51
167.75561
  0
ARC
  8
2
  6
CONTINUOUS
 62
     2
  5
746
 10
2980.418876
 20
1698.708352
 30
0.0
 40
13.376299
 50
215.604
 51
247.26701
  0
ARC
  8
2
  6
CONTINUOUS
 62
     2
  5
747
 10
2987.093376
 20
1703.718852
 30
0.0
 40
21.718999
 50
192.244
 51
216.095
  0
ARC
  8
2
  6
CONTINUOUS
 62
     2
  5
748
 10
2965.531076
 20
1705.138752
 30
0.0
 40
27.241299
 50
347.221
 51
12.780014
  0
ARC
  8
2
  6
CONTINUOUS
 62
     2
  5
749
 10
2977.547576
 20
1711.558552
 30
0.0
 40
13.376299
 50
35.604003
 51
68.669006
  0
ARC
  8
2
  6
CONTINUOUS
 62
     2
  5
74A
 10
2970.873076
 20
1706.549052
 30
0.0
 40
21.718999
 50
12.244003
 51
36.095001
  0
ARC
  8
2
  6
CONTINUOUS
 62
     2
  5
74B
 10
2977.547576
 20
1698.708352
 30
0.0
 40
13.376299
 50
316.184
 51
324.39401
  0
ARC
  8
2
  6
CONTINUOUS
 62
     2
  5
74C
 10
2970.873076
 20
1703.718852
 30
0.0
 40
21.718999
 50
323.90501
 51
347.75601
  0
ARC
  8
2
  6
CONTINUOUS
 62
     2
  5
74D
 10
2990.815976
 20
1705.138752
 30
0.0
 40
23.999099
 50
161.666
 51
198.337
  0
ARC
  8
2
  6
CONTINUOUS
 62
     2
  5
74E
 10
2984.887776
 20
1707.168452
 30
0.0
 40
17.7303
 50
139.2777
 51
161.88531
  0
ARC
  8
2
  6
CONTINUOUS
 62
     2
  5
74F
 10
2980.059276
 20
1711.398452
 30
0.0
 40
11.314101
 50
108.96121
 51
139.55061
  0
ARC
  8
2
  6
CONTINUOUS
 62
     2
  5
750
 10
2979.120576
 20
1713.728252
 30
0.0
 40
8.80906
 50
71.891006
 51
108.1072
  0
ARC
  8
2
  6
CONTINUOUS
 62
     2
  5
751
 10
2967.426076
 20
1705.138752
 30
0.0
 40
23.999099
 50
341.664
 51
18.334014
  0
ARC
  8
2
  6
CONTINUOUS
 62
     2
  5
752
 10
2973.355176
 20
1707.168452
 30
0.0
 40
17.7303
 50
18.115005
 51
40.722
  0
ARC
  8
2
  6
CONTINUOUS
 62
     2
  5
753
 10
2978.182676
 20
1711.398452
 30
0.0
 40
11.314101
 50
40.449005
 51
71.039001
  0
ARC
  8
2
  6
CONTINUOUS
 62
     2
  5
754
 10
2984.887776
 20
1703.098552
 30
0.0
 40
17.7303
 50
198.115
 51
220.722
  0
ARC
  8
2
  6
CONTINUOUS
 62
     2
  5
755
 10
2980.059276
 20
1698.868452
 30
0.0
 40
11.314101
 50
220.449
 51
228.207
  0
ARC
  8
2
  6
CONTINUOUS
 62
     2
  5
756
 10
2973.355176
 20
1703.098552
 30
0.0
 40
17.7303
 50
319.27801
 51
341.885
  0
ARC
  8
2
  6
CONTINUOUS
 62
     2
  5
757
 10
2978.182676
 20
1698.868452
 30
0.0
 40
11.314101
 50
312.516
 51
319.55101
  0
ARC
  8
2
  6
CONTINUOUS
 62
     2
  5
758
 10
2980.126676
 20
1687.828452
 30
0.0
 40
6.70663
 50
116.8106
 51
154.6854
  0
ARC
  8
2
  6
CONTINUOUS
 62
     2
  5
759
 10
2978.980576
 20
1689.828352
 30
0.0
 40
4.40574
 50
64.75
 51
115.248
  0
ARC
  8
2
  6
CONTINUOUS
 62
     2
  5
75A
 10
2977.836276
 20
1687.828452
 30
0.0
 40
6.70653
 50
52.272003
 51
63.18901
  0
ARC
  8
2
  6
CONTINUOUS
 62
     2
  5
75B
 10
2981.811676
 20
1689.278952
 30
0.0
 40
3.85711
 50
62.991012
 51
117.00621
  0
ARC
  8
2
  6
CONTINUOUS
 62
     2
  5
75C
 10
2982.574576
 20
1687.868652
 30
0.0
 40
5.45671
 50
117.4447
 51
145.80601
  0
ARC
  8
2
  6
CONTINUOUS
 62
     2
  5
75D
 10
2984.974376
 20
1686.178452
 30
0.0
 40
8.395039
 50
145.43211
 51
166.6598
  0
ARC
  8
2
  6
CONTINUOUS
 62
     2
  5
75E
 10
2986.967376
 20
1685.638652
 30
0.0
 40
10.458299
 50
166.298
 51
180.227
  0
ARC
  8
2
  6
CONTINUOUS
 62
     2
  5
75F
 10
2981.048776
 20
1687.868652
 30
0.0
 40
5.45664
 50
34.194
 51
62.555007
  0
ARC
  8
2
  6
CONTINUOUS
 62
     2
  5
760
 10
2978.648976
 20
1686.178452
 30
0.0
 40
8.39501
 50
13.340011
 51
34.568008
  0
ARC
  8
2
  6
CONTINUOUS
 62
     2
  5
761
 10
2976.656976
 20
1685.638652
 30
0.0
 40
10.458299
 50
359.77301
 51
13.702011
  0
ARC
  8
2
  6
CONTINUOUS
 62
     2
  5
762
 10
2981.811676
 20
1658.488552
 30
0.0
 40
3.8572
 50
242.994
 51
297.009
  0
ARC
  8
2
  6
CONTINUOUS
 62
     2
  5
763
 10
2982.574576
 20
1659.898852
 30
0.0
 40
5.45664
 50
214.194
 51
242.555
  0
ARC
  8
2
  6
CONTINUOUS
 62
     2
  5
764
 10
2984.974376
 20
1661.598752
 30
0.0
 40
8.39501
 50
193.34001
 51
214.568
  0
ARC
  8
2
  6
CONTINUOUS
 62
     2
  5
765
 10
2986.967376
 20
1662.138552
 30
0.0
 40
10.458299
 50
179.77262
 51
193.70201
  0
ARC
  8
2
  6
CONTINUOUS
 62
     2
  5
766
 10
2981.048776
 20
1659.898852
 30
0.0
 40
5.45671
 50
297.445
 51
325.80601
  0
ARC
  8
2
  6
CONTINUOUS
 62
     2
  5
767
 10
2978.648976
 20
1661.598752
 30
0.0
 40
8.395039
 50
325.432
 51
346.66
  0
ARC
  8
2
  6
CONTINUOUS
 62
     2
  5
768
 10
2976.656976
 20
1662.138552
 30
0.0
 40
10.458299
 50
346.298
 51
0.227005
  0
ARC
  8
2
  6
CONTINUOUS
 62
     2
  5
769
 10
2973.222176
 20
1662.138552
 30
0.0
 40
11.209601
 50
179.73295
 51
191.81001
  0
ARC
  8
2
  6
CONTINUOUS
 62
     2
  5
76A
 10
2971.276476
 20
1661.659152
 30
0.0
 40
9.20904
 50
191.408
 51
213.011
  0
ARC
  8
2
  6
CONTINUOUS
 62
     2
  5
76B
 10
2968.562576
 20
1659.838452
 30
0.0
 40
5.94275
 50
212.568
 51
241.58
  0
ARC
  8
2
  6
CONTINUOUS
 62
     2
  5
76C
 10
2967.668476
 20
1658.258452
 30
0.0
 40
4.12056
 50
241.998
 51
272.401
  0
ARC
  8
2
  6
CONTINUOUS
 62
     2
  5
76D
 10
2623.070376
 20
1205.138452
 30
0.0
 40
799.99998
 50
357.51699
 51
2.121567
  0
ARC
  8
2
  6
CONTINUOUS
 62
     2
  5
76E
 10
3407.337176
 20
1171.138652
 30
0.0
 40
15.0
 50
270.0
 51
357.55299
  0
ARC
  8
2
  6
CONTINUOUS
 62
     2
  5
76F
 10
3407.538376
 20
1234.138452
 30
0.0
 40
15.0
 50
2.35347
 51
90.0
  0
ARC
  8
2
  6
CONTINUOUS
 62
     2
  5
770
 10
4057.072976
 20
1205.138452
 30
0.0
 40
799.99998
 50
177.87799
 51
182.48298
  0
ARC
  8
2
  6
CONTINUOUS
 62
     2
  5
771
 10
3272.810076
 20
1171.138652
 30
0.0
 40
15.0
 50
182.44699
 51
270.0
  0
ARC
  8
2
  6
CONTINUOUS
 62
     2
  5
772
 10
3272.608876
 20
1234.138452
 30
0.0
 40
15.0
 50
90.0
 51
177.64599
  0
ARC
  8
2
  6
CONTINUOUS
 62
     2
  5
773
 10
3399.573576
 20
1237.706252
 30
0.0
 40
3.999999
 50
270.0
 51
360.0
  0
ARC
  8
2
  6
CONTINUOUS
 62
     2
  5
774
 10
3280.572876
 20
1237.706252
 30
0.0
 40
3.999999
 50
180.0
 51
270.0
  0
LINE
  8
2
  6
CONTINUOUS
 62
     2
  5
775
 10
3386.868376
 20
821.128552
 30
0.0
 11
3386.868376
 21
815.138652
 31
0.0
  0
LINE
  8
2
  6
CONTINUOUS
 62
     2
  5
776
 10
3111.870676
 20
815.138652
 30
0.0
 11
3111.870676
 21
821.128552
 31
0.0
  0
LINE
  8
2
  6
CONTINUOUS
 62
     2
  5
777
 10
3376.868576
 20
827.138452
 30
0.0
 11
3121.869576
 21
827.138452
 31
0.0
  0
LINE
  8
2
  6
CONTINUOUS
 62
     2
  5
778
 10
3132.063676
 20
1041.938552
 30
0.0
 11
3166.198676
 21
1041.938552
 31
0.0
  0
LINE
  8
2
  6
CONTINUOUS
 62
     2
  5
779
 10
3132.063676
 20
1008.338552
 30
0.0
 11
3166.198676
 21
1008.338552
 31
0.0
  0
LINE
  8
2
  6
CONTINUOUS
 62
     2
  5
77A
 10
3169.082276
 20
1041.008552
 30
0.0
 11
3211.541776
 21
1041.008552
 31
0.0
  0
LINE
  8
2
  6
CONTINUOUS
 62
     2
  5
77B
 10
3169.082276
 20
1009.258452
 30
0.0
 11
3211.468376
 21
1009.258452
 31
0.0
  0
LINE
  8
2
  6
CONTINUOUS
 62
     2
  5
77C
 10
3133.553576
 20
1043.328752
 30
0.0
 11
3132.657676
 21
1044.298552
 31
0.0
  0
LINE
  8
2
  6
CONTINUOUS
 62
     2
  5
77D
 10
3133.555376
 20
1006.938752
 30
0.0
 11
3132.657676
 21
1005.968452
 31
0.0
  0
LINE
  8
2
  6
CONTINUOUS
 62
     2
  5
77E
 10
3265.244776
 20
987.138552
 30
0.0
 11
3265.244776
 21
984.828852
 31
0.0
  0
LINE
  8
2
  6
CONTINUOUS
 62
     2
  5
77F
 10
3233.493776
 20
987.138552
 30
0.0
 11
3233.493776
 21
984.828852
 31
0.0
  0
LINE
  8
2
  6
CONTINUOUS
 62
     2
  5
780
 10
3074.912376
 20
843.288652
 30
0.0
 11
3074.912376
 21
996.978652
 31
0.0
  0
LINE
  8
2
  6
CONTINUOUS
 62
     2
  5
781
 10
3084.412676
 20
843.288652
 30
0.0
 11
3084.412676
 21
996.978652
 31
0.0
  0
LINE
  8
2
  6
CONTINUOUS
 62
     2
  5
782
 10
3071.652576
 20
997.138752
 30
0.0
 11
3087.774776
 21
997.138752
 31
0.0
  0
LINE
  8
2
  6
CONTINUOUS
 62
     2
  5
783
 10
3074.900076
 20
838.138752
 30
0.0
 11
3074.900076
 21
843.138652
 31
0.0
  0
LINE
  8
2
  6
CONTINUOUS
 62
     2
  5
784
 10
3084.425776
 20
838.138752
 30
0.0
 11
3084.425776
 21
843.138652
 31
0.0
  0
LINE
  8
2
  6
CONTINUOUS
 62
     2
  5
785
 10
3072.162576
 20
838.138752
 30
0.0
 11
3072.162576
 21
831.638852
 31
0.0
  0
LINE
  8
2
  6
CONTINUOUS
 62
     2
  5
786
 10
3087.162376
 20
838.138752
 30
0.0
 11
3087.162376
 21
831.638852
 31
0.0
  0
LINE
  8
2
  6
CONTINUOUS
 62
     2
  5
787
 10
3072.162576
 20
838.138752
 30
0.0
 11
3087.162376
 21
838.138752
 31
0.0
  0
LINE
  8
2
  6
CONTINUOUS
 62
     2
  5
788
 10
3072.162576
 20
831.638852
 30
0.0
 11
3087.162376
 21
831.638852
 31
0.0
  0
LINE
  8
2
  6
CONTINUOUS
 62
     2
  5
789
 10
3079.662976
 20
837.468552
 30
0.0
 11
3079.662976
 21
831.638852
 31
0.0
  0
LINE
  8
2
  6
CONTINUOUS
 62
     2
  5
78A
 10
3106.162976
 20
816.638652
 30
0.0
 11
3106.162976
 21
815.138652
 31
0.0
  0
LINE
  8
2
  6
CONTINUOUS
 62
     2
  5
78B
 10
3087.162376
 20
830.638852
 30
0.0
 11
3087.162376
 21
821.638552
 31
0.0
  0
LINE
  8
2
  6
CONTINUOUS
 62
     2
  5
78C
 10
3072.162576
 20
830.638852
 30
0.0
 11
3072.162576
 21
821.638552
 31
0.0
  0
LINE
  8
2
  6
CONTINUOUS
 62
     2
  5
78D
 10
3104.162976
 20
818.638652
 30
0.0
 11
3055.162876
 21
818.638652
 31
0.0
  0
LINE
  8
2
  6
CONTINUOUS
 62
     2
  5
78E
 10
3088.772176
 20
998.078852
 30
0.0
 11
3089.141376
 21
1005.298752
 31
0.0
  0
LINE
  8
2
  6
CONTINUOUS
 62
     2
  5
78F
 10
3066.743676
 20
1025.638752
 30
0.0
 11
3082.702276
 21
1025.638752
 31
0.0
  0
LINE
  8
2
  6
CONTINUOUS
 62
     2
  5
790
 10
3066.868776
 20
1029.638752
 30
0.0
 11
3082.702276
 21
1029.638752
 31
0.0
  0
LINE
  8
2
  6
CONTINUOUS
 62
     2
  5
791
 10
3082.702276
 20
1024.638752
 30
0.0
 11
3066.743676
 21
1024.638752
 31
0.0
  0
LINE
  8
2
  6
CONTINUOUS
 62
     2
  5
792
 10
3081.701376
 20
1020.638852
 30
0.0
 11
3067.701576
 21
1020.638852
 31
0.0
  0
LINE
  8
2
  6
CONTINUOUS
 62
     2
  5
793
 10
3070.653476
 20
998.078852
 30
0.0
 11
3070.292976
 21
1005.158752
 31
0.0
  0
LINE
  8
2
  6
CONTINUOUS
 62
     2
  5
794
 10
3087.662776
 20
1045.138852
 30
0.0
 11
3071.701576
 21
1045.138852
 31
0.0
  0
LINE
  8
2
  6
CONTINUOUS
 62
     2
  5
795
 10
3087.172876
 20
998.078852
 30
0.0
 11
3087.533276
 21
1005.138652
 31
0.0
  0
LINE
  8
2
  6
CONTINUOUS
 62
     2
  5
796
 10
3084.646276
 20
1041.008552
 30
0.0
 11
3114.451476
 21
1041.008552
 31
0.0
  0
LINE
  8
2
  6
CONTINUOUS
 62
     2
  5
797
 10
3084.646276
 20
1009.258452
 30
0.0
 11
3114.451476
 21
1009.258452
 31
0.0
  0
LINE
  8
2
  6
CONTINUOUS
 62
     2
  5
798
 10
3133.870276
 20
745.138452
 30
0.0
 11
3135.483576
 21
745.138452
 31
0.0
  0
LINE
  8
2
  6
CONTINUOUS
 62
     2
  5
799
 10
3123.870476
 20
815.138652
 30
0.0
 11
3123.870476
 21
755.128752
 31
0.0
  0
LINE
  8
2
  6
CONTINUOUS
 62
     2
  5
79A
 10
3133.870276
 20
745.128852
 30
0.0
 11
3363.255476
 21
745.128852
 31
0.0
  0
LINE
  8
2
  6
CONTINUOUS
 62
     2
  5
79B
 10
3363.255476
 20
745.138452
 30
0.0
 11
3364.868776
 21
745.138452
 31
0.0
  0
LINE
  8
2
  6
CONTINUOUS
 62
     2
  5
79C
 10
3374.868576
 20
755.128752
 30
0.0
 11
3374.868576
 21
815.138652
 31
0.0
  0
ARC
  8
2
  6
CONTINUOUS
 62
     2
  5
79D
 10
3249.369276
 20
565.138752
 30
0.0
 40
419.99999
 50
80.678512
 51
89.999908
  0
ARC
  8
2
  6
CONTINUOUS
 62
     2
  5
79E
 10
3376.868576
 20
821.128552
 30
0.0
 40
10.0
 50
360.0
 51
48.336013
  0
ARC
  8
2
  6
CONTINUOUS
 62
     2
  5
79F
 10
2799.564176
 20
775.278852
 30
0.0
 40
579.99998
 50
6.815002
 51
17.390014
  0
ARC
  8
2
  6
CONTINUOUS
 62
     2
  5
7A0
 10
3310.108476
 20
935.178752
 30
0.0
 40
44.999997
 50
17.390014
 51
80.67871
  0
ARC
  8
2
  6
CONTINUOUS
 62
     2
  5
7A1
 10
3400.280276
 20
847.148652
 30
0.0
 40
24.999999
 50
186.64601
 51
228.14601
  0
ARC
  8
2
  6
CONTINUOUS
 62
     2
  5
7A2
 10
3249.369276
 20
565.138752
 30
0.0
 40
419.99999
 50
90.000106
 51
99.321502
  0
ARC
  8
2
  6
CONTINUOUS
 62
     2
  5
7A3
 10
3121.870476
 20
821.128552
 30
0.0
 40
10.0
 50
131.6492
 51
180.0
  0
ARC
  8
2
  6
CONTINUOUS
 62
     2
  5
7A4
 10
3699.178276
 20
775.278852
 30
0.0
 40
579.99998
 50
162.6098
 51
173.18513
  0
ARC
  8
2
  6
CONTINUOUS
 62
     2
  5
7A5
 10
3188.629676
 20
935.178752
 30
0.0
 40
44.999997
 50
99.321304
 51
162.6098
  0
ARC
  8
2
  6
CONTINUOUS
 62
     2
  5
7A6
 10
3098.459676
 20
847.148652
 30
0.0
 40
24.999999
 50
311.848
 51
353.354
  0
ARC
  8
2
  6
CONTINUOUS
 62
     2
  5
7A7
 10
3249.367576
 20
127.128752
 30
0.0
 40
819.99895
 50
86.494201
 51
93.505813
  0
ARC
  8
2
  6
CONTINUOUS
 62
     2
  5
7A8
 10
3297.982676
 20
920.648752
 30
0.0
 40
24.999999
 50
14.699005
 51
86.494613
  0
ARC
  8
2
  6
CONTINUOUS
 62
     2
  5
7A9
 10
3200.756376
 20
920.648752
 30
0.0
 40
24.999999
 50
93.505508
 51
165.3013
  0
ARC
  8
2
  6
CONTINUOUS
 62
     2
  5
7AA
 10
3376.868576
 20
817.138652
 30
0.0
 40
10.0
 50
360.0
 51
90.0
  0
ARC
  8
2
  6
CONTINUOUS
 62
     2
  5
7AB
 10
3121.869576
 20
817.138652
 30
0.0
 40
10.0
 50
90.0
 51
180.0
  0
ARC
  8
2
  6
CONTINUOUS
 62
     2
  5
7AC
 10
2679.869776
 20
775.178652
 30
0.0
 40
660.0
 50
4.515015
 51
13.298004
  0
ARC
  8
2
  6
CONTINUOUS
 62
     2
  5
7AD
 10
3818.868376
 20
775.178652
 30
0.0
 40
660.0
 50
166.70201
 51
175.48506
  0
ARC
  8
2
  6
CONTINUOUS
 62
     2
  5
7AE
 10
3123.891476
 20
1039.228652
 30
0.0
 40
9.4053
 50
38.850006
 51
142.86
  0
ARC
  8
2
  6
CONTINUOUS
 62
     2
  5
7AF
 10
3123.891476
 20
1011.038852
 30
0.0
 40
9.40532
 50
217.14001
 51
321.14601
  0
ARC
  8
2
  6
CONTINUOUS
 62
     2
  5
7B0
 10
3168.907376
 20
1044.008552
 30
0.0
 40
3.00005
 50
233.43501
 51
272.393
  0
ARC
  8
2
  6
CONTINUOUS
 62
     2
  5
7B1
 10
3168.907376
 20
1006.258552
 30
0.0
 40
2.99996
 50
87.610809
 51
126.5677
  0
ARC
  8
2
  6
CONTINUOUS
 62
     2
  5
7B2
 10
3211.370376
 20
987.138552
 30
0.0
 40
22.124999
 50
360.0
 51
90.0
  0
ARC
  8
2
  6
CONTINUOUS
 62
     2
  5
7B3
 10
3211.370376
 20
987.138552
 30
0.0
 40
53.874994
 50
360.0
 51
90.0
  0
ARC
  8
2
  6
CONTINUOUS
 62
     2
  5
7B4
 10
3073.913276
 20
843.288652
 30
0.0
 40
1.0
 50
350.93301
 51
360.0
  0
ARC
  8
2
  6
CONTINUOUS
 62
     2
  5
7B5
 10
3085.412576
 20
843.288652
 30
0.0
 40
0.999984
 50
180.0
 51
189.067
  0
ARC
  8
2
  6
CONTINUOUS
 62
     2
  5
7B6
 10
3104.162976
 20
816.638652
 30
0.0
 40
2.0
 50
360.0
 51
90.0
  0
ARC
  8
2
  6
CONTINUOUS
 62
     2
  5
7B7
 10
3086.163276
 20
830.638852
 30
0.0
 40
1.0
 50
360.0
 51
90.0
  0
ARC
  8
2
  6
CONTINUOUS
 62
     2
  5
7B8
 10
3073.162576
 20
830.638852
 30
0.0
 40
1.0
 50
90.0
 51
180.0
  0
ARC
  8
2
  6
CONTINUOUS
 62
     2
  5
7B9
 10
3090.163176
 20
821.638552
 30
0.0
 40
3.0
 50
180.0
 51
270.0
  0
ARC
  8
2
  6
CONTINUOUS
 62
     2
  5
7BA
 10
3069.162676
 20
821.638552
 30
0.0
 40
3.0
 50
270.0
 51
360.0
  0
ARC
  8
2
  6
CONTINUOUS
 62
     2
  5
7BB
 10
3087.774776
 20
998.138752
 30
0.0
 40
1.00001
 50
270.0
 51
357.082
  0
ARC
  8
2
  6
CONTINUOUS
 62
     2
  5
7BC
 10
3092.137776
 20
1005.148752
 30
0.0
 40
2.99999
 50
143.5323
 51
177.07986
  0
ARC
  8
2
  6
CONTINUOUS
 62
     2
  5
7BD
 10
3071.652576
 20
998.138752
 30
0.0
 40
1.0
 50
182.91801
 51
270.0
  0
ARC
  8
2
  6
CONTINUOUS
 62
     2
  5
7BE
 10
3067.701576
 20
1021.638852
 30
0.0
 40
1.0
 50
210.77101
 51
270.0
  0
ARC
  8
2
  6
CONTINUOUS
 62
     2
  5
7BF
 10
3081.701376
 20
1021.638852
 30
0.0
 40
1.0
 50
270.0
 51
360.0
  0
ARC
  8
2
  6
CONTINUOUS
 62
     2
  5
7C0
 10
3086.174676
 20
998.138752
 30
0.0
 40
1.00001
 50
270.0
 51
357.082
  0
ARC
  8
2
  6
CONTINUOUS
 62
     2
  5
7C1
 10
3067.295676
 20
1005.008752
 30
0.0
 40
2.99995
 50
2.920013
 51
31.643005
  0
ARC
  8
2
  6
CONTINUOUS
 62
     2
  5
7C2
 10
3149.229576
 20
1029.908652
 30
0.0
 40
36.491898
 50
160.7817
 51
173.61247
  0
ARC
  8
2
  6
CONTINUOUS
 62
     2
  5
7C3
 10
3184.634076
 20
1025.138752
 30
0.0
 40
72.2134
 50
172.97253
 51
187.027
  0
ARC
  8
2
  6
CONTINUOUS
 62
     2
  5
7C4
 10
3149.229576
 20
1020.358852
 30
0.0
 40
36.491898
 50
186.388
 51
199.218
  0
ARC
  8
2
  6
CONTINUOUS
 62
     2
  5
7C5
 10
3122.545876
 20
1010.668752
 30
0.0
 40
8.112621
 50
196.61
 51
220.77301
  0
ARC
  8
2
  6
CONTINUOUS
 62
     2
  5
7C6
 10
3122.545876
 20
1039.598752
 30
0.0
 40
8.11258
 50
139.22911
 51
163.38951
  0
ARC
  8
2
  6
CONTINUOUS
 62
     2
  5
7C7
 10
3131.086476
 20
1043.378652
 30
0.0
 40
1.75872
 50
43.910003
 51
136.0897
  0
ARC
  8
2
  6
CONTINUOUS
 62
     2
  5
7C8
 10
3139.658476
 20
1036.398852
 30
0.0
 40
12.806899
 50
140.1948
 51
168.91351
  0
ARC
  8
2
  6
CONTINUOUS
 62
     2
  5
7C9
 10
3174.043776
 20
1027.318552
 30
0.0
 40
48.351
 50
166.1894
 51
175.78564
  0
ARC
  8
2
  6
CONTINUOUS
 62
     2
  5
7CA
 10
3197.011876
 20
1025.138752
 30
0.0
 40
71.418801
 50
175.39326
 51
184.607
  0
ARC
  8
2
  6
CONTINUOUS
 62
     2
  5
7CB
 10
3122.516176
 20
1036.398852
 30
0.0
 40
12.806899
 50
37.933013
 51
39.805007
  0
ARC
  8
2
  6
CONTINUOUS
 62
     2
  5
7CC
 10
3131.086476
 20
1006.888852
 30
0.0
 40
1.75876
 50
223.91
 51
316.28401
  0
ARC
  8
2
  6
CONTINUOUS
 62
     2
  5
7CD
 10
3139.658476
 20
1013.868652
 30
0.0
 40
12.806899
 50
191.08601
 51
219.805
  0
ARC
  8
2
  6
CONTINUOUS
 62
     2
  5
7CE
 10
3174.043776
 20
1022.948552
 30
0.0
 40
48.351
 50
184.214
 51
193.811
  0
ARC
  8
2
  6
CONTINUOUS
 62
     2
  5
7CF
 10
3122.516176
 20
1013.868652
 30
0.0
 40
12.806899
 50
320.195
 51
322.066
  0
ARC
  8
2
  6
CONTINUOUS
 62
     2
  5
7D0
 10
3194.422276
 20
1025.138752
 30
0.0
 40
67.572098
 50
175.01945
 51
184.98001
  0
ARC
  8
2
  6
CONTINUOUS
 62
     2
  5
7D1
 10
3169.631776
 20
1027.688652
 30
0.0
 40
42.656299
 50
164.66731
 51
175.55374
  0
ARC
  8
2
  6
CONTINUOUS
 62
     2
  5
7D2
 10
3138.725876
 20
1036.698552
 30
0.0
 40
10.4799
 50
139.40921
 51
167.4902
  0
ARC
  8
2
  6
CONTINUOUS
 62
     2
  5
7D3
 10
3132.063676
 20
1042.408852
 30
0.0
 40
1.70843
 50
40.607009
 51
139.3885
  0
ARC
  8
2
  6
CONTINUOUS
 62
     2
  5
7D4
 10
3125.403276
 20
1036.698552
 30
0.0
 40
10.479799
 50
29.946014
 51
40.591003
  0
ARC
  8
2
  6
CONTINUOUS
 62
     2
  5
7D5
 10
3169.631776
 20
1022.578452
 30
0.0
 40
42.656299
 50
184.44601
 51
195.333
  0
ARC
  8
2
  6
CONTINUOUS
 62
     2
  5
7D6
 10
3138.725876
 20
1013.568552
 30
0.0
 40
10.479799
 50
192.51
 51
220.591
  0
ARC
  8
2
  6
CONTINUOUS
 62
     2
  5
7D7
 10
3132.063676
 20
1007.858652
 30
0.0
 40
1.70839
 50
220.61201
 51
319.393
  0
ARC
  8
2
  6
CONTINUOUS
 62
     2
  5
7D8
 10
3125.403276
 20
1013.568552
 30
0.0
 40
10.4799
 50
319.40901
 51
330.054
  0
ARC
  8
2
  6
CONTINUOUS
 62
     2
  5
7D9
 10
3221.432776
 20
1025.138752
 30
0.0
 40
59.850493
 50
175.02371
 51
184.97601
  0
ARC
  8
2
  6
CONTINUOUS
 62
     2
  5
7DA
 10
3199.478976
 20
1027.388552
 30
0.0
 40
37.784498
 50
164.6706
 51
175.54669
  0
ARC
  8
2
  6
CONTINUOUS
 62
     2
  5
7DB
 10
3172.087476
 20
1035.378752
 30
0.0
 40
9.2677
 50
139.3983
 51
167.4987
  0
ARC
  8
2
  6
CONTINUOUS
 62
     2
  5
7DC
 10
3166.198676
 20
1040.418452
 30
0.0
 40
1.51196
 50
45.353012
 51
140.5086
  0
ARC
  8
2
  6
CONTINUOUS
 62
     2
  5
7DD
 10
3199.478976
 20
1022.878552
 30
0.0
 40
37.784498
 50
184.453
 51
195.32901
  0
ARC
  8
2
  6
CONTINUOUS
 62
     2
  5
7DE
 10
3172.087476
 20
1014.898752
 30
0.0
 40
9.267669
 50
192.501
 51
220.602
  0
ARC
  8
2
  6
CONTINUOUS
 62
     2
  5
7DF
 10
3166.198676
 20
1009.848552
 30
0.0
 40
1.51195
 50
219.49101
 51
314.647
  0
ARC
  8
2
  6
CONTINUOUS
 62
     2
  5
7E0
 10
3144.750276
 20
1025.138752
 30
0.0
 40
78.008398
 50
174.55456
 51
185.445
  0
ARC
  8
2
  6
CONTINUOUS
 62
     2
  5
7E1
 10
3107.188276
 20
1029.388452
 30
0.0
 40
40.217601
 50
163.13551
 51
175.51
  0
ARC
  8
2
  6
CONTINUOUS
 62
     2
  5
7E2
 10
3076.931576
 20
1038.968852
 30
0.0
 40
8.49277
 50
137.8526
 51
165.7649
  0
ARC
  8
2
  6
CONTINUOUS
 62
     2
  5
7E3
 10
3071.701576
 20
1043.688752
 30
0.0
 40
1.44971
 50
88.914413
 51
138.6049
  0
ARC
  8
2
  6
CONTINUOUS
 62
     2
  5
7E4
 10
3107.188276
 20
1020.878552
 30
0.0
 40
40.217601
 50
184.49
 51
196.865
  0
ARC
  8
2
  6
CONTINUOUS
 62
     2
  5
7E5
 10
3076.931576
 20
1011.298652
 30
0.0
 40
8.492779
 50
194.235
 51
213.688
  0
ARC
  8
2
  6
CONTINUOUS
 62
     2
  5
7E6
 10
3123.149576
 20
1029.388452
 30
0.0
 40
40.217601
 50
163.13551
 51
175.51
  0
ARC
  8
2
  6
CONTINUOUS
 62
     2
  5
7E7
 10
3092.893676
 20
1038.968852
 30
0.0
 40
8.49277
 50
137.8526
 51
165.7649
  0
ARC
  8
2
  6
CONTINUOUS
 62
     2
  5
7E8
 10
3087.662776
 20
1043.688752
 30
0.0
 40
1.44971
 50
42.644012
 51
138.6049
  0
ARC
  8
2
  6
CONTINUOUS
 62
     2
  5
7E9
 10
3092.893676
 20
1011.298652
 30
0.0
 40
8.49274
 50
194.235
 51
222.147
  0
ARC
  8
2
  6
CONTINUOUS
 62
     2
  5
7EA
 10
3087.662776
 20
1006.588752
 30
0.0
 40
1.44966
 50
221.395
 51
317.356
  0
ARC
  8
2
  6
CONTINUOUS
 62
     2
  5
7EB
 10
3082.432776
 20
1038.968852
 30
0.0
 40
8.49274
 50
14.235
 51
42.147003
  0
ARC
  8
2
  6
CONTINUOUS
 62
     2
  5
7EC
 10
3082.432776
 20
1011.298652
 30
0.0
 40
8.49277
 50
317.85101
 51
345.76501
  0
ARC
  8
2
  6
CONTINUOUS
 62
     2
  5
7ED
 10
3160.711476
 20
1025.138752
 30
0.0
 40
78.008398
 50
174.55456
 51
179.63258
  0
ARC
  8
2
  6
CONTINUOUS
 62
     2
  5
7EE
 10
3123.149576
 20
1020.878552
 30
0.0
 40
40.217601
 50
184.49
 51
196.865
  0
ARC
  8
2
  6
CONTINUOUS
 62
     2
  5
7EF
 10
3160.711476
 20
1025.138752
 30
0.0
 40
78.008398
 50
180.367
 51
185.445
  0
ARC
  8
2
  6
CONTINUOUS
 62
     2
  5
7F0
 10
3135.483576
 20
735.138652
 30
0.0
 40
9.999979
 50
14.351196
 51
89.999298
  0
ARC
  8
2
  6
CONTINUOUS
 62
     2
  5
7F1
 10
3133.870276
 20
755.128752
 30
0.0
 40
10.0
 50
180.0
 51
270.0
  0
ARC
  8
2
  6
CONTINUOUS
 62
     2
  5
7F2
 10
3364.868776
 20
755.128752
 30
0.0
 40
10.0
 50
270.0
 51
360.0
  0
ARC
  8
2
  6
CONTINUOUS
 62
     2
  5
7F3
 10
3363.255476
 20
735.138652
 30
0.0
 40
10.0
 50
90.000686
 51
165.64799
  0
ARC
  8
2
  6
CONTINUOUS
 62
     2
  5
7F4
 10
3276.870176
 20
765.448752
 30
0.0
 40
81.999994
 50
316.62799
 51
340.05599
  0
ARC
  8
2
  6
CONTINUOUS
 62
     2
  5
7F5
 10
3221.870176
 20
765.448752
 30
0.0
 40
81.999899
 50
199.94398
 51
223.37199
  0
ARC
  8
2
  6
CONTINUOUS
 62
     2
  5
7F6
 10
3445.513076
 20
606.118852
 30
0.0
 40
149.99999
 50
136.62799
 51
165.04643
  0
ARC
  8
2
  6
CONTINUOUS
 62
     2
  5
7F7
 10
3249.369276
 20
677.562552
 30
0.0
 40
60.791122
 50
212.58413
 51
327.41586
  0
ARC
  8
2
  6
CONTINUOUS
 62
     2
  5
7F8
 10
3053.227676
 20
606.118852
 30
0.0
 40
149.99999
 50
14.953567
 51
43.372085
  0
LINE
  8
2
  6
CONTINUOUS
 62
     2
  5
7F9
 10
3053.162876
 20
816.638652
 30
0.0
 11
3053.162876
 21
815.138652
 31
0.0
  0
ARC
  8
2
  6
CONTINUOUS
 62
     2
  5
7FA
 10
3055.162876
 20
816.638652
 30
0.0
 40
2.0
 50
90.0
 51
180.0
  0
LINE
  8
2
  6
CONTINUOUS
 62
     2
  5
7FB
 10
3075.370976
 20
1730.138352
 30
0.0
 11
2814.459348
 21
1730.138352
 31
0.0
  0
LINE
  8
2
  6
CONTINUOUS
 62
     2
  5
7FC
 10
3038.856276
 20
1315.138452
 30
0.0
 11
2814.459348
 21
1315.138452
 31
0.0
  0
LINE
  8
2
  6
CONTINUOUS
 62
     2
  5
7FD
 10
3749.369676
 20
515.138652
 30
0.0
 11
3749.369676
 21
815.138652
 31
0.0
  0
LINE
  8
2
  6
CONTINUOUS
 62
     2
  5
7FE
 10
3029.390976
 20
1009.258452
 30
0.0
 11
3068.700395
 21
1009.258452
 31
0.0
  0
LINE
  8
2
  6
CONTINUOUS
 62
     2
  5
7FF
 10
3029.390976
 20
1041.008552
 30
0.0
 11
3068.643181
 21
1041.008552
 31
0.0
  0
LINE
  8
2
  6
CONTINUOUS
 62
     2
  5
800
 10
3249.369676
 20
616.77143
 30
0.0
 11
3249.369676
 21
515.138652
 31
0.0
  0
LINE
  8
2
  6
CONTINUOUS
 62
     2
  5
801
 10
3149.369676
 20
727.138688
 30
0.0
 11
3149.369676
 21
515.138652
 31
0.0
  0
LINE
  8
2
  6
CONTINUOUS
 62
     2
  5
802
 10
3349.369676
 20
715.138652
 30
0.0
 11
4049.369676
 21
715.138652
 31
0.0
  0
LINE
  8
2
  6
CONTINUOUS
 62
     2
  5
803
 10
3349.369676
 20
1134.903852
 30
0.0
 11
3349.369676
 21
957.168702
 31
0.0
  0
LINE
  8
2
  6
CONTINUOUS
 62
     2
  5
804
 10
3349.369676
 20
727.136593
 30
0.0
 11
3349.369676
 21
515.138652
 31
0.0
  0
LINE
  8
2
  6
CONTINUOUS
 62
     2
  5
805
 10
3362.448901
 20
915.138652
 30
0.0
 11
4049.369676
 21
915.138652
 31
0.0
  0
LINE
  8
2
  6
CONTINUOUS
 62
     2
  5
806
 10
3149.369676
 20
1008.338552
 30
0.0
 11
3149.369676
 21
957.170844
 31
0.0
  0
LINE
  8
2
  6
CONTINUOUS
 62
     2
  5
807
 10
3049.369676
 20
1009.258452
 30
0.0
 11
3049.369676
 21
515.138652
 31
0.0
  0
LINE
  8
2
  6
CONTINUOUS
 62
     2
  5
808
 10
3084.412676
 20
915.138652
 30
0.0
 11
3136.293552
 21
915.138652
 31
0.0
  0
LINE
  8
2
  6
CONTINUOUS
 62
     2
  5
809
 10
3257.397644
 20
1015.138652
 30
0.0
 11
4049.369676
 21
1015.138652
 31
0.0
  0
LINE
  8
2
  6
CONTINUOUS
 62
     2
  5
80A
 10
2893.657927
 20
1115.138652
 30
0.0
 11
4049.369676
 21
1115.138652
 31
0.0
  0
LINE
  8
2
  6
CONTINUOUS
 62
     2
  5
80B
 10
2949.369676
 20
1010.805056
 30
0.0
 11
2949.369676
 21
515.138652
 31
0.0
  0
LINE
  8
2
  6
CONTINUOUS
 62
     2
  5
80C
 10
2893.245376
 20
1215.138652
 30
0.0
 11
3257.135501
 21
1215.138652
 31
0.0
  0
LINE
  8
2
  6
CONTINUOUS
 62
     2
  5
80D
 10
3049.369676
 20
3165.138752
 30
0.0
 11
3049.369676
 21
1805.138852
 31
0.0
  0
LINE
  8
2
  6
CONTINUOUS
 62
     2
  5
80E
 10
3049.369676
 20
1332.484942
 30
0.0
 11
3049.369676
 21
1041.008552
 31
0.0
  0
LINE
  8
2
  6
CONTINUOUS
 62
     2
  5
80F
 10
2949.369676
 20
3165.138752
 30
0.0
 11
2949.369676
 21
1805.138852
 31
0.0
  0
LINE
  8
2
  6
CONTINUOUS
 62
     2
  5
810
 10
2949.369676
 20
1315.138452
 30
0.0
 11
2949.369676
 21
1043.232455
 31
0.0
  0
LINE
  8
2
  6
CONTINUOUS
 62
     2
  5
811
 10
2849.369676
 20
3165.138752
 30
0.0
 11
2849.369676
 21
1805.138852
 31
0.0
  0
LINE
  8
2
  6
CONTINUOUS
 62
     2
  5
812
 10
2849.369676
 20
515.138652
 30
0.0
 11
2849.369676
 21
1311.371467
 31
0.0
  0
LINE
  8
2
  6
CONTINUOUS
 62
     2
  5
813
 10
4049.369676
 20
615.138652
 30
0.0
 11
2744.370176
 21
615.138652
 31
0.0
  0
LINE
  8
2
  6
CONTINUOUS
 62
     2
  5
814
 10
3157.117746
 20
715.138652
 30
0.0
 11
2744.370176
 21
715.138652
 31
0.0
  0
LINE
  8
2
  6
CONTINUOUS
 62
     2
  5
815
 10
3074.912376
 20
915.138652
 30
0.0
 11
2744.370176
 21
915.138652
 31
0.0
  0
LINE
  8
2
  6
CONTINUOUS
 62
     2
  5
816
 10
2932.592016
 20
1015.138652
 30
0.0
 11
2744.370176
 21
1015.138652
 31
0.0
  0
LINE
  8
2
  6
CONTINUOUS
 62
     2
  5
817
 10
2861.495176
 20
1115.138652
 30
0.0
 11
2744.370176
 21
1115.138652
 31
0.0
  0
LINE
  8
2
  6
CONTINUOUS
 62
     2
  5
818
 10
2861.495176
 20
1215.138652
 30
0.0
 11
2744.370176
 21
1215.138652
 31
0.0
  0
LINE
  8
2
  6
CONTINUOUS
 62
     2
  5
819
 10
2750.335505
 20
1805.138852
 30
0.0
 11
3072.371076
 21
1805.138852
 31
0.0
  0
LINE
  8
2
  6
CONTINUOUS
 62
     2
  5
81A
 10
2756.126776
 20
1315.138452
 30
0.0
 11
2844.870776
 21
1315.138452
 31
0.0
  0
LINE
  8
2
  6
CONTINUOUS
 62
     2
  5
81B
 10
3423.007852
 20
1215.138652
 30
0.0
 11
4049.369676
 21
1215.138652
 31
0.0
  0
LINE
  8
2
  6
CONTINUOUS
 62
     2
  5
81C
 10
3849.369676
 20
3165.138752
 30
0.0
 11
3849.369676
 21
515.138652
 31
0.0
  0
LINE
  8
2
  6
CONTINUOUS
 62
     2
  5
81D
 10
3949.369676
 20
3165.138752
 30
0.0
 11
3949.369676
 21
515.138652
 31
0.0
  0
LINE
  8
2
  6
CONTINUOUS
 62
     2
  5
81E
 10
3049.371941
 20
1315.138652
 30
0.0
 11
4049.369676
 21
1315.138652
 31
0.0
  0
LINE
  8
2
  6
CONTINUOUS
 62
     2
  5
81F
 10
3649.369676
 20
3165.138752
 30
0.0
 11
3649.369676
 21
515.138652
 31
0.0
  0
LINE
  8
3
  6
CONTINUOUS
 62
     2
  5
820
 10
3574.369676
 20
2165.138652
 30
0.0
 11
3574.369676
 21
1965.138652
 31
0.0
  0
LINE
  8
3
  6
CONTINUOUS
 62
     2
  5
821
 10
4049.369676
 20
2165.138652
 30
0.0
 11
4049.369676
 21
1965.138652
 31
0.0
  0
CIRCLE
  8
3
  6
CONTINUOUS
 62
     2
  5
822
 10
3574.369676
 20
2165.138652
 30
0.0
 40
12.0
  0
CIRCLE
  8
3
  6
CONTINUOUS
 62
     2
  5
823
 10
4049.369676
 20
2165.138652
 30
0.0
 40
12.0
  0
TEXT
  8
3
  6
CONTINUOUS
 62
     2
  5
824
 10
3733.119676
 20
2165.138652
 30
0.0
 40
90.0
  1
475
 50
360.0
 41
0.583333
  7

 72
     5
 11
3890.619676
 21
2165.138652
 31
0.0
  0
LINE
  8
3
  6
CONTINUOUS
 62
     2
  5
825
 10
3574.369676
 20
2165.138652
 30
0.0
 11
4049.369676
 21
2165.138652
 31
0.0
  0
LINE
  8
3
  6
CONTINUOUS
 62
     2
  5
826
 10
3774.369676
 20
1365.138652
 30
0.0
 11
3574.369676
 21
1365.138652
 31
0.0
  0
LINE
  8
3
  6
CONTINUOUS
 62
     2
  5
827
 10
3774.369676
 20
815.138652
 30
0.0
 11
3574.369676
 21
815.138652
 31
0.0
  0
CIRCLE
  8
3
  6
CONTINUOUS
 62
     2
  5
828
 10
3774.369676
 20
815.138652
 30
0.0
 40
12.0
  0
CIRCLE
  8
3
  6
CONTINUOUS
 62
     2
  5
829
 10
3774.369676
 20
1365.138652
 30
0.0
 40
12.0
  0
TEXT
  8
3
  6
CONTINUOUS
 62
     2
  5
82A
 10
3774.369676
 20
1011.388652
 30
0.0
 40
90.0
  1
550
 50
90.0
 41
0.583333
  7

 72
     5
 11
3774.369676
 21
1168.888652
 31
0.0
  0
LINE
  8
3
  6
CONTINUOUS
 62
     2
  5
82B
 10
3774.369676
 20
815.138652
 30
0.0
 11
3774.369676
 21
1365.138652
 31
0.0
  0
LINE
  8
2
  6
CONTINUOUS
 62
     2
  5
82C
 10
3249.369676
 20
1979.538652
 30
0.0
 11
3249.369676
 21
3165.138752
 31
0.0
  0
LINE
  8
2
  6
CONTINUOUS
 62
     2
  5
82D
 10
3349.369676
 20
3165.138752
 30
0.0
 11
3349.369676
 21
1979.538652
 31
0.0
  0
LINE
  8
2
  6
CONTINUOUS
 62
     2
  5
82E
 10
3149.369676
 20
3165.138752
 30
0.0
 11
3149.369676
 21
1979.538652
 31
0.0
  0
LINE
  8
2
  6
CONTINUOUS
 62
     2
  5
82F
 10
3449.369676
 20
3165.138752
 30
0.0
 11
3449.369676
 21
1979.538652
 31
0.0
  0
LINE
  8
2
  6
CONTINUOUS
 62
     2
  5
830
 10
3549.369676
 20
3165.138752
 30
0.0
 11
3549.369676
 21
1979.538652
 31
0.0
  0
LINE
  8
2
  6
CONTINUOUS
 62
     2
  5
831
 10
3349.369676
 20
1950.738652
 30
0.0
 11
3349.369676
 21
1829.538652
 31
0.0
  0
LINE
  8
2
  6
CONTINUOUS
 62
     2
  5
832
 10
3249.369676
 20
1679.538652
 30
0.0
 11
3249.369676
 21
1800.738652
 31
0.0
  0
LINE
  8
2
  6
CONTINUOUS
 62
     2
  5
833
 10
3349.369676
 20
1800.738652
 30
0.0
 11
3349.369676
 21
1679.538652
 31
0.0
  0
LINE
  8
2
  6
CONTINUOUS
 62
     2
  5
834
 10
3249.369676
 20
1529.538652
 30
0.0
 11
3249.369676
 21
1650.738652
 31
0.0
  0
LINE
  8
2
  6
CONTINUOUS
 62
     2
  5
835
 10
3349.369676
 20
1650.738652
 30
0.0
 11
3349.369676
 21
1529.538652
 31
0.0
  0
LINE
  8
2
  6
CONTINUOUS
 62
     2
  5
836
 10
3449.369676
 20
1650.738652
 30
0.0
 11
3449.369676
 21
1529.538652
 31
0.0
  0
LINE
  8
2
  6
CONTINUOUS
 62
     2
  5
837
 10
3149.369676
 20
1350.738652
 30
0.0
 11
3149.369676
 21
1041.938552
 31
0.0
  0
LINE
  8
2
  6
CONTINUOUS
 62
     2
  5
838
 10
3249.369676
 20
1025.329757
 30
0.0
 11
3249.369676
 21
1350.738652
 31
0.0
  0
LINE
  8
2
  6
CONTINUOUS
 62
     2
  5
839
 10
3249.369676
 20
1379.538652
 30
0.0
 11
3249.369676
 21
1500.738652
 31
0.0
  0
LINE
  8
2
  6
CONTINUOUS
 62
     2
  5
83A
 10
3349.369676
 20
1500.738652
 30
0.0
 11
3349.369676
 21
1379.538652
 31
0.0
  0
LINE
  8
2
  6
CONTINUOUS
 62
     2
  5
83B
 10
3349.369676
 20
1350.738652
 30
0.0
 11
3349.369676
 21
1250.467152
 31
0.0
  0
LINE
  8
2
  6
CONTINUOUS
 62
     2
  5
83C
 10
3449.369676
 20
1500.738652
 30
0.0
 11
3449.369676
 21
1379.538652
 31
0.0
  0
LINE
  8
2
  6
CONTINUOUS
 62
     2
  5
83D
 10
3449.369676
 20
1350.738652
 30
0.0
 11
3449.369676
 21
515.138652
 31
0.0
  0
LINE
  8
2
  6
CONTINUOUS
 62
     2
  5
83E
 10
3549.369676
 20
1350.738652
 30
0.0
 11
3549.369676
 21
515.138652
 31
0.0
  0
LINE
  8
2
  6
CONTINUOUS
 62
     2
  5
83F
 10
3053.709085
 20
1415.138652
 30
0.0
 11
3109.969676
 21
1415.138652
 31
0.0
  0
LINE
  8
2
  6
CONTINUOUS
 62
     2
  5
840
 10
3138.769676
 20
1415.138652
 30
0.0
 11
3259.969676
 21
1415.138652
 31
0.0
  0
LINE
  8
2
  6
CONTINUOUS
 62
     2
  5
841
 10
3588.769676
 20
1415.138652
 30
0.0
 11
4049.369676
 21
1415.138652
 31
0.0
  0
LINE
  8
2
  6
CONTINUOUS
 62
     2
  5
842
 10
3249.369676
 20
1829.538652
 30
0.0
 11
3249.369676
 21
1949.147186
 31
0.0
  0
LINE
  8
2
  6
CONTINUOUS
 62
     2
  5
843
 10
3149.369676
 20
1856.803985
 30
0.0
 11
3149.369676
 21
1949.147186
 31
0.0
  0
LINE
  8
2
  6
CONTINUOUS
 62
     2
  5
844
 10
3149.369676
 20
1773.473318
 30
0.0
 11
3149.369676
 21
1679.538652
 31
0.0
  0
LINE
  8
2
  6
CONTINUOUS
 62
     2
  5
845
 10
3149.369676
 20
1556.803985
 30
0.0
 11
3149.369676
 21
1650.738652
 31
0.0
  0
LINE
  8
2
  6
CONTINUOUS
 62
     2
  5
846
 10
3149.369676
 20
1473.473318
 30
0.0
 11
3149.369676
 21
1379.538652
 31
0.0
  0
LINE
  8
2
  6
CONTINUOUS
 62
     2
  5
847
 10
3549.369676
 20
1556.803985
 30
0.0
 11
3549.369676
 21
1650.738652
 31
0.0
  0
LINE
  8
2
  6
CONTINUOUS
 62
     2
  5
848
 10
3549.369676
 20
1473.473318
 30
0.0
 11
3549.369676
 21
1379.538652
 31
0.0
  0
LINE
  8
2
  6
CONTINUOUS
 62
     2
  5
849
 10
3549.369676
 20
1773.473318
 30
0.0
 11
3549.369676
 21
1679.538652
 31
0.0
  0
LINE
  8
2
  6
CONTINUOUS
 62
     2
  5
84A
 10
3449.369676
 20
1679.538652
 30
0.0
 11
3449.369676
 21
1799.147186
 31
0.0
  0
LINE
  8
2
  6
CONTINUOUS
 62
     2
  5
84B
 10
3449.369676
 20
1949.147186
 30
0.0
 11
3449.369676
 21
1831.130117
 31
0.0
  0
LINE
  8
2
  6
CONTINUOUS
 62
     2
  5
84C
 10
3549.369676
 20
1949.147186
 30
0.0
 11
3549.369676
 21
1856.803985
 31
0.0
  0
LINE
  8
5
  6
CONTINUOUS
 62
     5
  5
84D
 10
2744.370176
 20
3165.138752
 30
0.0
 11
2744.370176
 21
515.138652
 31
0.0
  0
LINE
  8
5
  6
CONTINUOUS
 62
     5
  5
84E
 10
2744.370176
 20
3165.138752
 30
0.0
 11
4049.369676
 21
3165.138752
 31
0.0
  0
LINE
  8
5
  6
CONTINUOUS
 62
     5
  5
84F
 10
2744.370176
 20
515.138652
 30
0.0
 11
4049.369676
 21
515.138652
 31
0.0
  0
LINE
  8
5
  6
CONTINUOUS
 62
     5
  5
850
 10
4049.369676
 20
815.138652
 30
0.0
 11
2744.370176
 21
815.138652
 31
0.0
  0
LINE
  8
5
  6
CONTINUOUS
 62
     5
  5
851
 10
4049.369676
 20
3165.138752
 30
0.0
 11
4049.369676
 21
515.138652
 31
0.0
  0
LINE
  8
5
  6
CONTINUOUS
 62
     5
  5
852
 10
3749.369676
 20
3165.138752
 30
0.0
 11
3749.369676
 21
815.138652
 31
0.0
  0
LINE
  8
2
  6
CONTINUOUS
 62
     3
  5
853
 10
3259.969676
 20
1930.138652
 30
0.0
 11
3138.769676
 21
1930.138652
 31
0.0
  0
LINE
  8
2
  6
CONTINUOUS
 62
     3
  5
854
 10
3409.969676
 20
1930.138652
 30
0.0
 11
3288.769676
 21
1930.138652
 31
0.0
  0
LINE
  8
2
  6
CONTINUOUS
 62
     3
  5
855
 10
3559.969676
 20
1930.138652
 30
0.0
 11
3438.769676
 21
1930.138652
 31
0.0
  0
ARC
  8
7
  6
CONTINUOUS
 62
     4
  5
856
 10
3154.969676
 20
1934.538652
 30
0.0
 40
45.0
 50
90.0
 51
180.0
  0
ARC
  8
7
  6
CONTINUOUS
 62
     4
  5
857
 10
3306.769676
 20
1932.738652
 30
0.0
 40
18.0
 50
90.0
 51
180.0
  0
ARC
  8
7
  6
CONTINUOUS
 62
     4
  5
858
 10
3156.769676
 20
1932.738652
 30
0.0
 40
18.0
 50
90.0
 51
180.0
  0
ARC
  8
7
  6
CONTINUOUS
 62
     4
  5
859
 10
3241.969676
 20
1932.738652
 30
0.0
 40
18.0
 50
360.0
 51
90.0
  0
ARC
  8
7
  6
CONTINUOUS
 62
     4
  5
85A
 10
3391.969676
 20
1932.738652
 30
0.0
 40
18.0
 50
360.0
 51
90.0
  0
ARC
  8
7
  6
CONTINUOUS
 62
     4
  5
85B
 10
3456.769676
 20
1932.738652
 30
0.0
 40
18.0
 50
90.0
 51
180.0
  0
ARC
  8
7
  6
CONTINUOUS
 62
     4
  5
85C
 10
3543.769676
 20
1934.538652
 30
0.0
 40
45.0
 50
360.0
 51
90.0
  0
ARC
  8
7
  6
CONTINUOUS
 62
     4
  5
85D
 10
3541.969676
 20
1932.738652
 30
0.0
 40
18.0
 50
360.0
 51
90.0
  0
ARC
  8
7
  6
CONTINUOUS
 62
     4
  5
85E
 10
3548.869676
 20
1845.438652
 30
0.0
 40
7.7
 50
210.0
 51
30.0
  0
ARC
  8
7
  6
CONTINUOUS
 62
     4
  5
85F
 10
3548.869676
 20
1845.438652
 30
0.0
 40
6.8
 50
210.0
 51
30.0
  0
ARC
  8
7
  6
CONTINUOUS
 62
     4
  5
860
 10
3566.369676
 20
1815.138652
 30
0.0
 40
41.8
 50
110.63
 51
129.02
  0
LINE
  8
7
  6
CONTINUOUS
 62
     4
  5
861
 10
3554.769676
 20
1848.838652
 30
0.0
 11
3551.669676
 21
1854.238652
 31
0.0
  0
ARC
  8
7
  6
CONTINUOUS
 62
     4
  5
862
 10
3548.869676
 20
1784.838652
 30
0.0
 40
7.7
 50
330.0
 51
150.0
  0
ARC
  8
7
  6
CONTINUOUS
 62
     4
  5
863
 10
3548.869676
 20
1784.838652
 30
0.0
 40
6.8
 50
330.0
 51
150.0
  0
LINE
  8
7
  6
CONTINUOUS
 62
     4
  5
864
 10
3551.969676
 20
1774.938652
 30
0.0
 11
3555.469676
 21
1781.038652
 31
0.0
  0
LINE
  8
7
  6
CONTINUOUS
 62
     4
  5
865
 10
3554.669676
 20
1781.438652
 30
0.0
 11
3551.569676
 21
1776.038652
 31
0.0
  0
ARC
  8
7
  6
CONTINUOUS
 62
     4
  5
866
 10
3566.369676
 20
1815.138652
 30
0.0
 40
41.8
 50
230.63
 51
249.02
  0
LINE
  8
7
  6
CONTINUOUS
 62
     4
  5
867
 10
3542.969676
 20
1788.238652
 30
0.0
 11
3539.869676
 21
1782.838652
 31
0.0
  0
LINE
  8
7
  6
CONTINUOUS
 62
     4
  5
868
 10
3538.669676
 20
1782.638652
 30
0.0
 11
3542.169676
 21
1788.638652
 31
0.0
  0
ARC
  8
7
  6
CONTINUOUS
 62
     4
  5
869
 10
3566.369676
 20
1815.138652
 30
0.0
 40
42.7
 50
199.71
 51
261.38
  0
ARC
  8
7
  6
CONTINUOUS
 62
     4
  5
86A
 10
3566.369676
 20
1815.138652
 30
0.0
 40
45.0
 50
198.68
 51
261.82
  0
ARC
  8
7
  6
CONTINUOUS
 62
     4
  5
86B
 10
3566.369676
 20
1815.138652
 30
0.0
 40
45.0
 50
98.18
 51
161.32
  0
ARC
  8
7
  6
CONTINUOUS
 62
     4
  5
86C
 10
3566.369676
 20
1815.138652
 30
0.0
 40
42.7
 50
98.62
 51
160.29
  0
CIRCLE
  8
7
  6
CONTINUOUS
 62
     4
  5
86D
 10
3548.869676
 20
1784.838652
 30
0.0
 40
4.4
  0
CIRCLE
  8
7
  6
CONTINUOUS
 62
     4
  5
86E
 10
3548.869676
 20
1784.838652
 30
0.0
 40
4.0
  0
CIRCLE
  8
7
  6
CONTINUOUS
 62
     4
  5
86F
 10
3548.869676
 20
1845.438652
 30
0.0
 40
4.0
  0
CIRCLE
  8
7
  6
CONTINUOUS
 62
     4
  5
870
 10
3548.869676
 20
1845.438652
 30
0.0
 40
4.4
  0
ARC
  8
7
  6
CONTINUOUS
 62
     4
  5
871
 10
3541.969676
 20
1782.738652
 30
0.0
 40
18.0
 50
360.0
 51
90.0
  0
ARC
  8
7
  6
CONTINUOUS
 62
     4
  5
872
 10
3149.869676
 20
1784.838652
 30
0.0
 40
7.7
 50
30.0
 51
210.0
  0
ARC
  8
7
  6
CONTINUOUS
 62
     4
  5
873
 10
3149.869676
 20
1784.838652
 30
0.0
 40
6.8
 50
30.0
 51
210.0
  0
LINE
  8
7
  6
CONTINUOUS
 62
     4
  5
874
 10
3159.969676
 20
1782.538652
 30
0.0
 11
3156.469676
 21
1788.638652
 31
0.0
  0
LINE
  8
7
  6
CONTINUOUS
 62
     4
  5
875
 10
3155.669676
 20
1788.138652
 30
0.0
 11
3158.869676
 21
1782.738652
 31
0.0
  0
ARC
  8
7
  6
CONTINUOUS
 62
     4
  5
876
 10
3132.369676
 20
1815.138652
 30
0.0
 40
41.8
 50
290.63
 51
309.02
  0
LINE
  8
7
  6
CONTINUOUS
 62
     4
  5
877
 10
3143.969676
 20
1781.438652
 30
0.0
 11
3147.069676
 21
1776.038652
 31
0.0
  0
LINE
  8
7
  6
CONTINUOUS
 62
     4
  5
878
 10
3146.669676
 20
1774.938652
 30
0.0
 11
3143.169676
 21
1780.938652
 31
0.0
  0
ARC
  8
7
  6
CONTINUOUS
 62
     4
  5
879
 10
3097.369676
 20
1815.138652
 30
0.0
 40
7.7
 50
270.0
 51
90.0
  0
ARC
  8
7
  6
CONTINUOUS
 62
     4
  5
87A
 10
3097.369676
 20
1815.138652
 30
0.0
 40
6.8
 50
270.0
 51
90.0
  0
LINE
  8
7
  6
CONTINUOUS
 62
     4
  5
87B
 10
3090.369676
 20
1807.538652
 30
0.0
 11
3097.369676
 21
1807.538652
 31
0.0
  0
LINE
  8
7
  6
CONTINUOUS
 62
     4
  5
87C
 10
3097.369676
 20
1808.438652
 30
0.0
 11
3091.069676
 21
1808.438652
 31
0.0
  0
ARC
  8
7
  6
CONTINUOUS
 62
     4
  5
87D
 10
3132.369676
 20
1815.138652
 30
0.0
 40
41.8
 50
170.63
 51
189.02
  0
LINE
  8
7
  6
CONTINUOUS
 62
     4
  5
87E
 10
3097.369676
 20
1821.938652
 30
0.0
 11
3091.169676
 21
1821.938652
 31
0.0
  0
LINE
  8
7
  6
CONTINUOUS
 62
     4
  5
87F
 10
3090.369676
 20
1822.838652
 30
0.0
 11
3097.369676
 21
1822.838652
 31
0.0
  0
ARC
  8
7
  6
CONTINUOUS
 62
     4
  5
880
 10
3149.869676
 20
1845.438652
 30
0.0
 40
7.7
 50
150.0
 51
330.0
  0
ARC
  8
7
  6
CONTINUOUS
 62
     4
  5
881
 10
3149.869676
 20
1845.438652
 30
0.0
 40
6.8
 50
150.0
 51
330.0
  0
LINE
  8
7
  6
CONTINUOUS
 62
     4
  5
882
 10
3146.769676
 20
1855.338652
 30
0.0
 11
3143.269676
 21
1849.238652
 31
0.0
  0
LINE
  8
7
  6
CONTINUOUS
 62
     4
  5
883
 10
3144.069676
 20
1848.838652
 30
0.0
 11
3147.169676
 21
1854.238652
 31
0.0
  0
ARC
  8
7
  6
CONTINUOUS
 62
     4
  5
884
 10
3132.369676
 20
1815.138652
 30
0.0
 40
41.8
 50
50.63
 51
69.02
  0
ARC
  8
7
  6
CONTINUOUS
 62
     4
  5
885
 10
3132.369676
 20
1815.138652
 30
0.0
 40
42.7
 50
121.61
 51
238.39
  0
ARC
  8
7
  6
CONTINUOUS
 62
     4
  5
886
 10
3132.369676
 20
1815.138652
 30
0.0
 40
45.0
 50
119.87
 51
240.13
  0
ARC
  8
7
  6
CONTINUOUS
 62
     4
  5
887
 10
3132.369676
 20
1815.138652
 30
0.0
 40
42.7
 50
278.62
 51
340.29
  0
ARC
  8
7
  6
CONTINUOUS
 62
     4
  5
888
 10
3132.369676
 20
1815.138652
 30
0.0
 40
42.7
 50
19.71
 51
81.38
  0
ARC
  8
7
  6
CONTINUOUS
 62
     4
  5
889
 10
3132.369676
 20
1815.138652
 30
0.0
 40
45.0
 50
278.18
 51
341.32
  0
ARC
  8
7
  6
CONTINUOUS
 62
     4
  5
88A
 10
3132.369676
 20
1815.138652
 30
0.0
 40
45.0
 50
18.68
 51
81.82
  0
CIRCLE
  8
7
  6
CONTINUOUS
 62
     4
  5
88B
 10
3097.369676
 20
1815.138652
 30
0.0
 40
4.0
  0
CIRCLE
  8
7
  6
CONTINUOUS
 62
     4
  5
88C
 10
3097.369676
 20
1815.138652
 30
0.0
 40
4.4
  0
CIRCLE
  8
7
  6
CONTINUOUS
 62
     4
  5
88D
 10
3149.869676
 20
1784.838652
 30
0.0
 40
4.0
  0
CIRCLE
  8
7
  6
CONTINUOUS
 62
     4
  5
88E
 10
3149.869676
 20
1784.838652
 30
0.0
 40
4.4
  0
CIRCLE
  8
7
  6
CONTINUOUS
 62
     4
  5
88F
 10
3149.869676
 20
1845.438652
 30
0.0
 40
4.0
  0
CIRCLE
  8
7
  6
CONTINUOUS
 62
     4
  5
890
 10
3149.869676
 20
1845.438652
 30
0.0
 40
4.4
  0
ARC
  8
7
  6
CONTINUOUS
 62
     4
  5
891
 10
3156.769676
 20
1782.738652
 30
0.0
 40
18.0
 50
90.0
 51
180.0
  0
ARC
  8
7
  6
CONTINUOUS
 62
     4
  5
892
 10
3391.969676
 20
1782.738652
 30
0.0
 40
18.0
 50
360.0
 51
90.0
  0
ARC
  8
7
  6
CONTINUOUS
 62
     4
  5
893
 10
3306.769676
 20
1782.738652
 30
0.0
 40
18.0
 50
90.0
 51
180.0
  0
ARC
  8
7
  6
CONTINUOUS
 62
     4
  5
894
 10
3241.969676
 20
1782.738652
 30
0.0
 40
18.0
 50
360.0
 51
90.0
  0
ARC
  8
7
  6
CONTINUOUS
 62
     4
  5
895
 10
3456.769676
 20
1782.738652
 30
0.0
 40
18.0
 50
90.0
 51
180.0
  0
LINE
  8
7
  6
CONTINUOUS
 62
     4
  5
896
 10
3241.969676
 20
1829.538652
 30
0.0
 11
3156.769676
 21
1829.538652
 31
0.0
  0
LINE
  8
7
  6
CONTINUOUS
 62
     4
  5
897
 10
3241.969676
 20
1800.738652
 30
0.0
 11
3156.769676
 21
1800.738652
 31
0.0
  0
LINE
  8
7
  6
CONTINUOUS
 62
     4
  5
898
 10
3456.769676
 20
1829.538652
 30
0.0
 11
3541.969676
 21
1829.538652
 31
0.0
  0
LINE
  8
7
  6
CONTINUOUS
 62
     4
  5
899
 10
3456.769676
 20
1800.738652
 30
0.0
 11
3541.969676
 21
1800.738652
 31
0.0
  0
LINE
  8
7
  6
CONTINUOUS
 62
     4
  5
89A
 10
3538.769676
 20
1847.738652
 30
0.0
 11
3542.269676
 21
1841.638652
 31
0.0
  0
LINE
  8
7
  6
CONTINUOUS
 62
     4
  5
89B
 10
3543.069676
 20
1842.138652
 30
0.0
 11
3539.869676
 21
1847.538652
 31
0.0
  0
ARC
  8
7
  6
CONTINUOUS
 62
     4
  5
89C
 10
3541.969676
 20
1847.538652
 30
0.0
 40
18.0
 50
270.0
 51
360.0
  0
LINE
  8
7
  6
CONTINUOUS
 62
     4
  5
89D
 10
3155.769676
 20
1842.038652
 30
0.0
 11
3158.869676
 21
1847.438652
 31
0.0
  0
LINE
  8
7
  6
CONTINUOUS
 62
     4
  5
89E
 10
3160.069676
 20
1847.638652
 30
0.0
 11
3156.569676
 21
1841.638652
 31
0.0
  0
ARC
  8
7
  6
CONTINUOUS
 62
     4
  5
89F
 10
3156.769676
 20
1847.538652
 30
0.0
 40
18.0
 50
180.0
 51
270.0
  0
LINE
  8
7
  6
CONTINUOUS
 62
     4
  5
8A0
 10
3306.769676
 20
1800.738652
 30
0.0
 11
3391.969676
 21
1800.738652
 31
0.0
  0
LINE
  8
7
  6
CONTINUOUS
 62
     4
  5
8A1
 10
3306.769676
 20
1829.538652
 30
0.0
 11
3391.969676
 21
1829.538652
 31
0.0
  0
ARC
  8
7
  6
CONTINUOUS
 62
     4
  5
8A2
 10
3306.769676
 20
1847.538652
 30
0.0
 40
18.0
 50
180.0
 51
270.0
  0
ARC
  8
7
  6
CONTINUOUS
 62
     4
  5
8A3
 10
3391.969676
 20
1847.538652
 30
0.0
 40
18.0
 50
270.0
 51
360.0
  0
ARC
  8
7
  6
CONTINUOUS
 62
     4
  5
8A4
 10
3241.969676
 20
1847.538652
 30
0.0
 40
18.0
 50
270.0
 51
360.0
  0
ARC
  8
7
  6
CONTINUOUS
 62
     4
  5
8A5
 10
3456.769676
 20
1847.538652
 30
0.0
 40
18.0
 50
180.0
 51
270.0
  0
LINE
  8
7
  6
CONTINUOUS
 62
     4
  5
8A6
 10
3306.769676
 20
1950.738652
 30
0.0
 11
3391.969676
 21
1950.738652
 31
0.0
  0
LINE
  8
7
  6
CONTINUOUS
 62
     4
  5
8A7
 10
3241.969676
 20
1950.738652
 30
0.0
 11
3156.769676
 21
1950.738652
 31
0.0
  0
LINE
  8
7
  6
CONTINUOUS
 62
     4
  5
8A8
 10
3456.769676
 20
1950.738652
 30
0.0
 11
3541.969676
 21
1950.738652
 31
0.0
  0
LINE
  8
7
  6
CONTINUOUS
 62
     4
  5
8A9
 10
3154.969676
 20
1979.538652
 30
0.0
 11
3543.769676
 21
1979.538652
 31
0.0
  0
LINE
  8
7
  6
CONTINUOUS
 62
     4
  5
8AA
 10
3138.769676
 20
1847.538652
 30
0.0
 11
3138.769676
 21
1932.738652
 31
0.0
  0
LINE
  8
7
  6
CONTINUOUS
 62
     4
  5
8AB
 10
3138.769676
 20
1697.538652
 30
0.0
 11
3138.769676
 21
1782.738652
 31
0.0
  0
LINE
  8
7
  6
CONTINUOUS
 62
     4
  5
8AC
 10
3138.769676
 20
1547.538652
 30
0.0
 11
3138.769676
 21
1632.738652
 31
0.0
  0
LINE
  8
7
  6
CONTINUOUS
 62
     4
  5
8AD
 10
3138.769676
 20
1397.538652
 30
0.0
 11
3138.769676
 21
1482.738652
 31
0.0
  0
LINE
  8
7
  6
CONTINUOUS
 62
     4
  5
8AE
 10
3109.969676
 20
1395.738652
 30
0.0
 11
3109.969676
 21
1934.538652
 31
0.0
  0
ARC
  8
7
  6
CONTINUOUS
 62
     4
  5
8AF
 10
3154.969676
 20
1395.738652
 30
0.0
 40
45.0
 50
180.0
 51
270.0
  0
ARC
  8
7
  6
CONTINUOUS
 62
     4
  5
8B0
 10
3156.769676
 20
1397.538652
 30
0.0
 40
18.0
 50
180.0
 51
270.0
  0
LINE
  8
7
  6
CONTINUOUS
 62
     4
  5
8B1
 10
3156.769676
 20
1379.538652
 30
0.0
 11
3241.969676
 21
1379.538652
 31
0.0
  0
LINE
  8
7
  6
CONTINUOUS
 62
     4
  5
8B2
 10
3154.969676
 20
1350.738652
 30
0.0
 11
3543.769676
 21
1350.738652
 31
0.0
  0
ARC
  8
7
  6
CONTINUOUS
 62
     4
  5
8B3
 10
3543.769676
 20
1395.738652
 30
0.0
 40
45.0
 50
270.0
 51
360.0
  0
ARC
  8
7
  6
CONTINUOUS
 62
     4
  5
8B4
 10
3548.869676
 20
1545.438652
 30
0.0
 40
7.7
 50
210.0
 51
30.0
  0
ARC
  8
7
  6
CONTINUOUS
 62
     4
  5
8B5
 10
3548.869676
 20
1545.438652
 30
0.0
 40
6.8
 50
210.0
 51
30.0
  0
ARC
  8
7
  6
CONTINUOUS
 62
     4
  5
8B6
 10
3566.369676
 20
1515.138652
 30
0.0
 40
41.8
 50
110.63
 51
129.02
  0
LINE
  8
7
  6
CONTINUOUS
 62
     4
  5
8B7
 10
3554.769676
 20
1548.838652
 30
0.0
 11
3551.669676
 21
1554.238652
 31
0.0
  0
LINE
  8
7
  6
CONTINUOUS
 62
     4
  5
8B8
 10
3552.069676
 20
1555.338652
 30
0.0
 11
3555.569676
 21
1549.338652
 31
0.0
  0
ARC
  8
7
  6
CONTINUOUS
 62
     4
  5
8B9
 10
3566.369676
 20
1515.138652
 30
0.0
 40
45.0
 50
198.68
 51
261.82
  0
ARC
  8
7
  6
CONTINUOUS
 62
     4
  5
8BA
 10
3566.369676
 20
1515.138652
 30
0.0
 40
42.7
 50
199.71
 51
261.38
  0
ARC
  8
7
  6
CONTINUOUS
 62
     4
  5
8BB
 10
3566.369676
 20
1515.138652
 30
0.0
 40
42.7
 50
98.62
 51
160.29
  0
ARC
  8
7
  6
CONTINUOUS
 62
     4
  5
8BC
 10
3566.369676
 20
1515.138652
 30
0.0
 40
45.0
 50
98.18
 51
161.32
  0
CIRCLE
  8
7
  6
CONTINUOUS
 62
     4
  5
8BD
 10
3548.869676
 20
1545.438652
 30
0.0
 40
4.0
  0
CIRCLE
  8
7
  6
CONTINUOUS
 62
     4
  5
8BE
 10
3548.869676
 20
1545.438652
 30
0.0
 40
4.4
  0
ARC
  8
7
  6
CONTINUOUS
 62
     4
  5
8BF
 10
3541.969676
 20
1547.538652
 30
0.0
 40
18.0
 50
270.0
 51
360.0
  0
ARC
  8
7
  6
CONTINUOUS
 62
     4
  5
8C0
 10
3541.969676
 20
1482.738652
 30
0.0
 40
18.0
 50
360.0
 51
90.0
  0
ARC
  8
7
  6
CONTINUOUS
 62
     4
  5
8C1
 10
3132.369676
 20
1515.138652
 30
0.0
 40
41.8
 50
290.63
 51
309.02
  0
LINE
  8
7
  6
CONTINUOUS
 62
     4
  5
8C2
 10
3143.969676
 20
1481.438652
 30
0.0
 11
3147.069676
 21
1476.038652
 31
0.0
  0
LINE
  8
7
  6
CONTINUOUS
 62
     4
  5
8C3
 10
3146.669676
 20
1474.938652
 30
0.0
 11
3143.169676
 21
1480.938652
 31
0.0
  0
ARC
  8
7
  6
CONTINUOUS
 62
     4
  5
8C4
 10
3097.369676
 20
1515.138652
 30
0.0
 40
7.7
 50
270.0
 51
90.0
  0
ARC
  8
7
  6
CONTINUOUS
 62
     4
  5
8C5
 10
3097.369676
 20
1515.138652
 30
0.0
 40
6.8
 50
270.0
 51
90.0
  0
LINE
  8
7
  6
CONTINUOUS
 62
     4
  5
8C6
 10
3090.369676
 20
1507.538652
 30
0.0
 11
3097.369676
 21
1507.538652
 31
0.0
  0
LINE
  8
7
  6
CONTINUOUS
 62
     4
  5
8C7
 10
3097.369676
 20
1508.438652
 30
0.0
 11
3091.069676
 21
1508.438652
 31
0.0
  0
ARC
  8
7
  6
CONTINUOUS
 62
     4
  5
8C8
 10
3132.369676
 20
1515.138652
 30
0.0
 40
41.8
 50
170.63
 51
189.02
  0
LINE
  8
7
  6
CONTINUOUS
 62
     4
  5
8C9
 10
3097.369676
 20
1521.938652
 30
0.0
 11
3091.169676
 21
1521.938652
 31
0.0
  0
LINE
  8
7
  6
CONTINUOUS
 62
     4
  5
8CA
 10
3090.369676
 20
1522.838652
 30
0.0
 11
3097.369676
 21
1522.838652
 31
0.0
  0
ARC
  8
7
  6
CONTINUOUS
 62
     4
  5
8CB
 10
3149.869676
 20
1545.438652
 30
0.0
 40
7.7
 50
150.0
 51
330.0
  0
ARC
  8
7
  6
CONTINUOUS
 62
     4
  5
8CC
 10
3149.869676
 20
1545.438652
 30
0.0
 40
6.8
 50
150.0
 51
330.0
  0
LINE
  8
7
  6
CONTINUOUS
 62
     4
  5
8CD
 10
3146.769676
 20
1555.338652
 30
0.0
 11
3143.269676
 21
1549.238652
 31
0.0
  0
LINE
  8
7
  6
CONTINUOUS
 62
     4
  5
8CE
 10
3144.069676
 20
1548.838652
 30
0.0
 11
3147.169676
 21
1554.238652
 31
0.0
  0
ARC
  8
7
  6
CONTINUOUS
 62
     4
  5
8CF
 10
3132.369676
 20
1515.138652
 30
0.0
 40
41.8
 50
50.63
 51
69.02
  0
ARC
  8
7
  6
CONTINUOUS
 62
     4
  5
8D0
 10
3132.369676
 20
1515.138652
 30
0.0
 40
45.0
 50
119.87
 51
240.13
  0
ARC
  8
7
  6
CONTINUOUS
 62
     4
  5
8D1
 10
3132.369676
 20
1515.138652
 30
0.0
 40
42.7
 50
121.61
 51
238.39
  0
ARC
  8
7
  6
CONTINUOUS
 62
     4
  5
8D2
 10
3132.369676
 20
1515.138652
 30
0.0
 40
42.7
 50
278.62
 51
340.29
  0
ARC
  8
7
  6
CONTINUOUS
 62
     4
  5
8D3
 10
3132.369676
 20
1515.138652
 30
0.0
 40
42.7
 50
19.71
 51
81.38
  0
ARC
  8
7
  6
CONTINUOUS
 62
     4
  5
8D4
 10
3132.369676
 20
1515.138652
 30
0.0
 40
45.0
 50
278.18
 51
341.32
  0
ARC
  8
7
  6
CONTINUOUS
 62
     4
  5
8D5
 10
3132.369676
 20
1515.138652
 30
0.0
 40
45.0
 50
18.68
 51
81.82
  0
CIRCLE
  8
7
  6
CONTINUOUS
 62
     4
  5
8D6
 10
3097.369676
 20
1515.138652
 30
0.0
 40
4.0
  0
CIRCLE
  8
7
  6
CONTINUOUS
 62
     4
  5
8D7
 10
3097.369676
 20
1515.138652
 30
0.0
 40
4.4
  0
CIRCLE
  8
7
  6
CONTINUOUS
 62
     4
  5
8D8
 10
3149.869676
 20
1545.438652
 30
0.0
 40
4.0
  0
CIRCLE
  8
7
  6
CONTINUOUS
 62
     4
  5
8D9
 10
3149.869676
 20
1545.438652
 30
0.0
 40
4.4
  0
ARC
  8
7
  6
CONTINUOUS
 62
     4
  5
8DA
 10
3156.769676
 20
1547.538652
 30
0.0
 40
18.0
 50
180.0
 51
270.0
  0
ARC
  8
7
  6
CONTINUOUS
 62
     4
  5
8DB
 10
3156.769676
 20
1482.738652
 30
0.0
 40
18.0
 50
90.0
 51
180.0
  0
LINE
  8
7
  6
CONTINUOUS
 62
     4
  5
8DC
 10
3456.769676
 20
1500.738652
 30
0.0
 11
3541.969676
 21
1500.738652
 31
0.0
  0
LINE
  8
7
  6
CONTINUOUS
 62
     4
  5
8DD
 10
3456.769676
 20
1529.538652
 30
0.0
 11
3541.969676
 21
1529.538652
 31
0.0
  0
LINE
  8
7
  6
CONTINUOUS
 62
     4
  5
8DE
 10
3241.969676
 20
1500.738652
 30
0.0
 11
3156.769676
 21
1500.738652
 31
0.0
  0
LINE
  8
7
  6
CONTINUOUS
 62
     4
  5
8DF
 10
3241.969676
 20
1529.538652
 30
0.0
 11
3156.769676
 21
1529.538652
 31
0.0
  0
LINE
  8
7
  6
CONTINUOUS
 62
     4
  5
8E0
 10
3306.769676
 20
1500.738652
 30
0.0
 11
3391.969676
 21
1500.738652
 31
0.0
  0
LINE
  8
7
  6
CONTINUOUS
 62
     4
  5
8E1
 10
3306.769676
 20
1529.538652
 30
0.0
 11
3391.969676
 21
1529.538652
 31
0.0
  0
ARC
  8
7
  6
CONTINUOUS
 62
     4
  5
8E2
 10
3391.969676
 20
1482.738652
 30
0.0
 40
18.0
 50
360.0
 51
90.0
  0
ARC
  8
7
  6
CONTINUOUS
 62
     4
  5
8E3
 10
3391.969676
 20
1547.538652
 30
0.0
 40
18.0
 50
270.0
 51
360.0
  0
ARC
  8
7
  6
CONTINUOUS
 62
     4
  5
8E4
 10
3306.769676
 20
1482.738652
 30
0.0
 40
18.0
 50
90.0
 51
180.0
  0
ARC
  8
7
  6
CONTINUOUS
 62
     4
  5
8E5
 10
3306.769676
 20
1547.538652
 30
0.0
 40
18.0
 50
180.0
 51
270.0
  0
ARC
  8
7
  6
CONTINUOUS
 62
     4
  5
8E6
 10
3456.769676
 20
1482.738652
 30
0.0
 40
18.0
 50
90.0
 51
180.0
  0
ARC
  8
7
  6
CONTINUOUS
 62
     4
  5
8E7
 10
3456.769676
 20
1547.538652
 30
0.0
 40
18.0
 50
180.0
 51
270.0
  0
ARC
  8
7
  6
CONTINUOUS
 62
     4
  5
8E8
 10
3241.969676
 20
1482.738652
 30
0.0
 40
18.0
 50
360.0
 51
90.0
  0
ARC
  8
7
  6
CONTINUOUS
 62
     4
  5
8E9
 10
3241.969676
 20
1547.538652
 30
0.0
 40
18.0
 50
270.0
 51
360.0
  0
LINE
  8
7
  6
CONTINUOUS
 62
     4
  5
8EA
 10
3538.769676
 20
1547.738652
 30
0.0
 11
3542.269676
 21
1541.638652
 31
0.0
  0
LINE
  8
7
  6
CONTINUOUS
 62
     4
  5
8EB
 10
3543.069676
 20
1542.138652
 30
0.0
 11
3539.869676
 21
1547.538652
 31
0.0
  0
ARC
  8
7
  6
CONTINUOUS
 62
     4
  5
8EC
 10
3548.869676
 20
1484.838652
 30
0.0
 40
7.7
 50
330.0
 51
150.0
  0
ARC
  8
7
  6
CONTINUOUS
 62
     4
  5
8ED
 10
3548.869676
 20
1484.838652
 30
0.0
 40
6.8
 50
330.0
 51
150.0
  0
LINE
  8
7
  6
CONTINUOUS
 62
     4
  5
8EE
 10
3542.969676
 20
1488.238652
 30
0.0
 11
3539.869676
 21
1482.838652
 31
0.0
  0
LINE
  8
7
  6
CONTINUOUS
 62
     4
  5
8EF
 10
3538.669676
 20
1482.638652
 30
0.0
 11
3542.169676
 21
1488.638652
 31
0.0
  0
CIRCLE
  8
7
  6
CONTINUOUS
 62
     4
  5
8F0
 10
3548.869676
 20
1484.838652
 30
0.0
 40
4.4
  0
CIRCLE
  8
7
  6
CONTINUOUS
 62
     4
  5
8F1
 10
3548.869676
 20
1484.838652
 30
0.0
 40
4.0
  0
ARC
  8
7
  6
CONTINUOUS
 62
     4
  5
8F2
 10
3149.869676
 20
1484.838652
 30
0.0
 40
7.7
 50
30.0
 51
210.0
  0
ARC
  8
7
  6
CONTINUOUS
 62
     4
  5
8F3
 10
3149.869676
 20
1484.838652
 30
0.0
 40
6.8
 50
30.0
 51
210.0
  0
LINE
  8
7
  6
CONTINUOUS
 62
     4
  5
8F4
 10
3159.969676
 20
1482.538652
 30
0.0
 11
3156.469676
 21
1488.638652
 31
0.0
  0
LINE
  8
7
  6
CONTINUOUS
 62
     4
  5
8F5
 10
3155.669676
 20
1488.138652
 30
0.0
 11
3158.869676
 21
1482.738652
 31
0.0
  0
LINE
  8
7
  6
CONTINUOUS
 62
     4
  5
8F6
 10
3155.769676
 20
1542.038652
 30
0.0
 11
3158.869676
 21
1547.438652
 31
0.0
  0
LINE
  8
7
  6
CONTINUOUS
 62
     4
  5
8F7
 10
3160.069676
 20
1547.638652
 30
0.0
 11
3156.569676
 21
1541.638652
 31
0.0
  0
CIRCLE
  8
7
  6
CONTINUOUS
 62
     4
  5
8F8
 10
3149.869676
 20
1484.838652
 30
0.0
 40
4.0
  0
CIRCLE
  8
7
  6
CONTINUOUS
 62
     4
  5
8F9
 10
3149.869676
 20
1484.838652
 30
0.0
 40
4.4
  0
ARC
  8
7
  6
CONTINUOUS
 62
     4
  5
8FA
 10
3241.969676
 20
1397.538652
 30
0.0
 40
18.0
 50
270.0
 51
360.0
  0
ARC
  8
7
  6
CONTINUOUS
 62
     4
  5
8FB
 10
3391.969676
 20
1397.538652
 30
0.0
 40
18.0
 50
270.0
 51
360.0
  0
ARC
  8
7
  6
CONTINUOUS
 62
     4
  5
8FC
 10
3306.769676
 20
1397.538652
 30
0.0
 40
18.0
 50
180.0
 51
270.0
  0
ARC
  8
7
  6
CONTINUOUS
 62
     4
  5
8FD
 10
3456.769676
 20
1397.538652
 30
0.0
 40
18.0
 50
180.0
 51
270.0
  0
LINE
  8
7
  6
CONTINUOUS
 62
     4
  5
8FE
 10
3541.969676
 20
1379.538652
 30
0.0
 11
3456.769676
 21
1379.538652
 31
0.0
  0
LINE
  8
7
  6
CONTINUOUS
 62
     4
  5
8FF
 10
3391.969676
 20
1379.538652
 30
0.0
 11
3306.769676
 21
1379.538652
 31
0.0
  0
ARC
  8
7
  6
CONTINUOUS
 62
     4
  5
900
 10
3541.969676
 20
1397.538652
 30
0.0
 40
18.0
 50
270.0
 51
360.0
  0
LINE
  8
2
  6
CONTINUOUS
 62
     2
  5
901
 10
3288.769676
 20
1415.138652
 30
0.0
 11
3409.969676
 21
1415.138652
 31
0.0
  0
LINE
  8
2
  6
CONTINUOUS
 62
     2
  5
902
 10
3438.769676
 20
1415.138652
 30
0.0
 11
3559.969676
 21
1415.138652
 31
0.0
  0
ARC
  8
7
  6
CONTINUOUS
 62
     4
  5
903
 10
3566.369676
 20
1515.138652
 30
0.0
 40
41.8
 50
230.63
 51
249.02
  0
LINE
  8
7
  6
CONTINUOUS
 62
     4
  5
904
 10
3288.769676
 20
1397.538652
 30
0.0
 11
3288.769676
 21
1482.738652
 31
0.0
  0
LINE
  8
7
  6
CONTINUOUS
 62
     4
  5
905
 10
3259.969676
 20
1397.538652
 30
0.0
 11
3259.969676
 21
1482.738652
 31
0.0
  0
LINE
  8
7
  6
CONTINUOUS
 62
     4
  5
906
 10
3409.969676
 20
1397.538652
 30
0.0
 11
3409.969676
 21
1482.738652
 31
0.0
  0
LINE
  8
7
  6
CONTINUOUS
 62
     4
  5
907
 10
3438.769676
 20
1397.538652
 30
0.0
 11
3438.769676
 21
1482.738652
 31
0.0
  0
LINE
  8
7
  6
CONTINUOUS
 62
     4
  5
908
 10
3559.969676
 20
1397.538652
 30
0.0
 11
3559.969676
 21
1482.738652
 31
0.0
  0
LINE
  8
7
  6
CONTINUOUS
 62
     4
  5
909
 10
3551.969676
 20
1474.938652
 30
0.0
 11
3555.469676
 21
1481.038652
 31
0.0
  0
LINE
  8
7
  6
CONTINUOUS
 62
     4
  5
90A
 10
3554.669676
 20
1481.438652
 30
0.0
 11
3551.569676
 21
1476.038652
 31
0.0
  0
LINE
  8
7
  6
CONTINUOUS
 62
     4
  5
90B
 10
3456.769676
 20
1679.538652
 30
0.0
 11
3542.369676
 21
1679.538652
 31
0.0
  0
LINE
  8
7
  6
CONTINUOUS
 62
     4
  5
90C
 10
3306.769676
 20
1679.538652
 30
0.0
 11
3392.269676
 21
1679.538652
 31
0.0
  0
ARC
  8
7
  6
CONTINUOUS
 62
     4
  5
90D
 10
3391.969676
 20
1697.538652
 30
0.0
 40
18.0
 50
270.0
 51
360.0
  0
ARC
  8
7
  6
CONTINUOUS
 62
     4
  5
90E
 10
3306.769676
 20
1697.538652
 30
0.0
 40
18.0
 50
180.0
 51
270.0
  0
ARC
  8
7
  6
CONTINUOUS
 62
     4
  5
90F
 10
3456.769676
 20
1697.538652
 30
0.0
 40
18.0
 50
180.0
 51
270.0
  0
ARC
  8
7
  6
CONTINUOUS
 62
     4
  5
910
 10
3241.969676
 20
1697.538652
 30
0.0
 40
18.0
 50
270.0
 51
360.0
  0
ARC
  8
7
  6
CONTINUOUS
 62
     4
  5
911
 10
3156.769676
 20
1697.538652
 30
0.0
 40
18.0
 50
180.0
 51
270.0
  0
LINE
  8
7
  6
CONTINUOUS
 62
     4
  5
912
 10
3241.969676
 20
1679.538652
 30
0.0
 11
3156.369676
 21
1679.538652
 31
0.0
  0
ARC
  8
7
  6
CONTINUOUS
 62
     4
  5
913
 10
3541.969676
 20
1697.538652
 30
0.0
 40
18.0
 50
270.0
 51
360.0
  0
LINE
  8
7
  6
CONTINUOUS
 62
     4
  5
914
 10
3288.769676
 20
1697.538652
 30
0.0
 11
3288.769676
 21
1782.738652
 31
0.0
  0
LINE
  8
7
  6
CONTINUOUS
 62
     4
  5
915
 10
3288.769676
 20
1547.538652
 30
0.0
 11
3288.769676
 21
1632.738652
 31
0.0
  0
LINE
  8
7
  6
CONTINUOUS
 62
     4
  5
916
 10
3259.969676
 20
1697.538652
 30
0.0
 11
3259.969676
 21
1782.738652
 31
0.0
  0
LINE
  8
7
  6
CONTINUOUS
 62
     4
  5
917
 10
3259.969676
 20
1547.538652
 30
0.0
 11
3259.969676
 21
1632.738652
 31
0.0
  0
ARC
  8
7
  6
CONTINUOUS
 62
     4
  5
918
 10
3391.969676
 20
1632.738652
 30
0.0
 40
18.0
 50
360.0
 51
90.0
  0
ARC
  8
7
  6
CONTINUOUS
 62
     4
  5
919
 10
3306.769676
 20
1632.738652
 30
0.0
 40
18.0
 50
90.0
 51
180.0
  0
ARC
  8
7
  6
CONTINUOUS
 62
     4
  5
91A
 10
3456.769676
 20
1632.738652
 30
0.0
 40
18.0
 50
90.0
 51
180.0
  0
ARC
  8
7
  6
CONTINUOUS
 62
     4
  5
91B
 10
3241.969676
 20
1632.738652
 30
0.0
 40
18.0
 50
360.0
 51
90.0
  0
ARC
  8
7
  6
CONTINUOUS
 62
     4
  5
91C
 10
3156.769676
 20
1632.738652
 30
0.0
 40
18.0
 50
90.0
 51
180.0
  0
ARC
  8
7
  6
CONTINUOUS
 62
     4
  5
91D
 10
3541.969676
 20
1632.738652
 30
0.0
 40
18.0
 50
360.0
 51
90.0
  0
LINE
  8
7
  6
CONTINUOUS
 62
     4
  5
91E
 10
3456.769676
 20
1650.738652
 30
0.0
 11
3541.969676
 21
1650.738652
 31
0.0
  0
LINE
  8
7
  6
CONTINUOUS
 62
     4
  5
91F
 10
3306.769676
 20
1650.738652
 30
0.0
 11
3391.969676
 21
1650.738652
 31
0.0
  0
LINE
  8
7
  6
CONTINUOUS
 62
     4
  5
920
 10
3241.969676
 20
1650.738652
 30
0.0
 11
3156.769676
 21
1650.738652
 31
0.0
  0
LINE
  8
7
  6
CONTINUOUS
 62
     4
  5
921
 10
3409.969676
 20
1697.538652
 30
0.0
 11
3409.969676
 21
1782.738652
 31
0.0
  0
LINE
  8
7
  6
CONTINUOUS
 62
     4
  5
922
 10
3438.769676
 20
1697.538652
 30
0.0
 11
3438.769676
 21
1782.738652
 31
0.0
  0
LINE
  8
7
  6
CONTINUOUS
 62
     4
  5
923
 10
3559.969676
 20
1697.538652
 30
0.0
 11
3559.969676
 21
1782.738652
 31
0.0
  0
LINE
  8
7
  6
CONTINUOUS
 62
     4
  5
924
 10
3559.969676
 20
1547.538652
 30
0.0
 11
3559.969676
 21
1632.738652
 31
0.0
  0
LINE
  8
7
  6
CONTINUOUS
 62
     4
  5
925
 10
3409.969676
 20
1547.538652
 30
0.0
 11
3409.969676
 21
1632.738652
 31
0.0
  0
LINE
  8
7
  6
CONTINUOUS
 62
     4
  5
926
 10
3438.769676
 20
1547.538652
 30
0.0
 11
3438.769676
 21
1632.738652
 31
0.0
  0
LINE
  8
7
  6
CONTINUOUS
 62
     4
  5
927
 10
3588.769676
 20
1395.738652
 30
0.0
 11
3588.769676
 21
1934.538652
 31
0.0
  0
ARC
  8
7
  6
CONTINUOUS
 62
     4
  5
928
 10
3601.369676
 20
1815.138652
 30
0.0
 40
7.7
 50
90.0
 51
270.0
  0
ARC
  8
7
  6
CONTINUOUS
 62
     4
  5
929
 10
3601.369676
 20
1815.138652
 30
0.0
 40
6.8
 50
90.0
 51
270.0
  0
LINE
  8
7
  6
CONTINUOUS
 62
     4
  5
92A
 10
3608.369676
 20
1822.738652
 30
0.0
 11
3601.369676
 21
1822.738652
 31
0.0
  0
LINE
  8
7
  6
CONTINUOUS
 62
     4
  5
92B
 10
3601.369676
 20
1821.838652
 30
0.0
 11
3607.669676
 21
1821.838652
 31
0.0
  0
ARC
  8
7
  6
CONTINUOUS
 62
     4
  5
92C
 10
3566.369676
 20
1815.138652
 30
0.0
 40
41.8
 50
350.63
 51
9.02
  0
LINE
  8
7
  6
CONTINUOUS
 62
     4
  5
92D
 10
3601.369676
 20
1808.338652
 30
0.0
 11
3607.569676
 21
1808.338652
 31
0.0
  0
LINE
  8
7
  6
CONTINUOUS
 62
     4
  5
92E
 10
3608.369676
 20
1807.438652
 30
0.0
 11
3601.369676
 21
1807.438652
 31
0.0
  0
ARC
  8
7
  6
CONTINUOUS
 62
     4
  5
92F
 10
3566.369676
 20
1815.138652
 30
0.0
 40
45.0
 50
299.87
 51
60.13
  0
ARC
  8
7
  6
CONTINUOUS
 62
     4
  5
930
 10
3566.369676
 20
1815.138652
 30
0.0
 40
42.7
 50
301.61
 51
58.39
  0
CIRCLE
  8
7
  6
CONTINUOUS
 62
     4
  5
931
 10
3601.369676
 20
1815.138652
 30
0.0
 40
4.0
  0
CIRCLE
  8
7
  6
CONTINUOUS
 62
     4
  5
932
 10
3601.369676
 20
1815.138652
 30
0.0
 40
4.4
  0
ARC
  8
7
  6
CONTINUOUS
 62
     4
  5
933
 10
3601.369676
 20
1515.138652
 30
0.0
 40
7.7
 50
90.0
 51
270.0
  0
ARC
  8
7
  6
CONTINUOUS
 62
     4
  5
934
 10
3601.369676
 20
1515.138652
 30
0.0
 40
6.8
 50
90.0
 51
270.0
  0
LINE
  8
7
  6
CONTINUOUS
 62
     4
  5
935
 10
3608.369676
 20
1522.738652
 30
0.0
 11
3601.369676
 21
1522.738652
 31
0.0
  0
LINE
  8
7
  6
CONTINUOUS
 62
     4
  5
936
 10
3601.369676
 20
1521.838652
 30
0.0
 11
3607.669676
 21
1521.838652
 31
0.0
  0
ARC
  8
7
  6
CONTINUOUS
 62
     4
  5
937
 10
3566.369676
 20
1515.138652
 30
0.0
 40
41.8
 50
350.63
 51
9.02
  0
LINE
  8
7
  6
CONTINUOUS
 62
     4
  5
938
 10
3601.369676
 20
1508.338652
 30
0.0
 11
3607.569676
 21
1508.338652
 31
0.0
  0
LINE
  8
7
  6
CONTINUOUS
 62
     4
  5
939
 10
3608.369676
 20
1507.438652
 30
0.0
 11
3601.369676
 21
1507.438652
 31
0.0
  0
ARC
  8
7
  6
CONTINUOUS
 62
     4
  5
93A
 10
3566.369676
 20
1515.138652
 30
0.0
 40
42.7
 50
301.61
 51
58.39
  0
ARC
  8
7
  6
CONTINUOUS
 62
     4
  5
93B
 10
3566.369676
 20
1515.138652
 30
0.0
 40
45.0
 50
299.87
 51
60.13
  0
CIRCLE
  8
7
  6
CONTINUOUS
 62
     4
  5
93C
 10
3601.369676
 20
1515.138652
 30
0.0
 40
4.0
  0
CIRCLE
  8
7
  6
CONTINUOUS
 62
     4
  5
93D
 10
3601.369676
 20
1515.138652
 30
0.0
 40
4.4
  0
LINE
  8
7
  6
CONTINUOUS
 62
     4
  5
93E
 10
3288.769676
 20
1847.538652
 30
0.0
 11
3288.769676
 21
1932.738652
 31
0.0
  0
LINE
  8
7
  6
CONTINUOUS
 62
     4
  5
93F
 10
3259.969676
 20
1847.538652
 30
0.0
 11
3259.969676
 21
1932.738652
 31
0.0
  0
LINE
  8
7
  6
CONTINUOUS
 62
     4
  5
940
 10
3438.769676
 20
1847.538652
 30
0.0
 11
3438.769676
 21
1932.738652
 31
0.0
  0
LINE
  8
7
  6
CONTINUOUS
 62
     4
  5
941
 10
3409.969676
 20
1847.538652
 30
0.0
 11
3409.969676
 21
1932.738652
 31
0.0
  0
LINE
  8
7
  6
CONTINUOUS
 62
     4
  5
942
 10
3559.969676
 20
1847.538652
 30
0.0
 11
3559.969676
 21
1932.738652
 31
0.0
  0
LINE
  8
7
  6
CONTINUOUS
 62
     4
  5
943
 10
3552.069676
 20
1855.338652
 30
0.0
 11
3555.569676
 21
1849.338652
 31
0.0
  0
LINE
  8
2
  6
CONTINUOUS
 62
     3
  5
944
 10
1619.793602
 20
3165.138752
 30
0.0
 11
1619.793602
 21
1979.538652
 31
0.0
  0
LINE
  8
2
  6
CONTINUOUS
 62
     3
  5
945
 10
1519.793602
 20
3165.138752
 30
0.0
 11
1519.793602
 21
1979.538652
 31
0.0
  0
LINE
  8
2
  6
CONTINUOUS
 62
     3
  5
946
 10
1419.793602
 20
3165.138752
 30
0.0
 11
1419.793602
 21
1979.538652
 31
0.0
  0
LINE
  8
2
  6
CONTINUOUS
 62
     3
  5
947
 10
1219.793602
 20
3165.138752
 30
0.0
 11
1219.793602
 21
1979.538652
 31
0.0
  0
LINE
  8
2
  6
CONTINUOUS
 62
     3
  5
948
 10
1319.793602
 20
3165.138752
 30
0.0
 11
1319.793602
 21
1979.538652
 31
0.0
  0
LINE
  8
2
  6
CONTINUOUS
 62
     3
  5
949
 10
1519.793602
 20
1950.738652
 30
0.0
 11
1519.793602
 21
1829.538652
 31
0.0
  0
LINE
  8
2
  6
CONTINUOUS
 62
     3
  5
94A
 10
1419.793602
 20
1950.738652
 30
0.0
 11
1419.793602
 21
1829.538652
 31
0.0
  0
LINE
  8
2
  6
CONTINUOUS
 62
     3
  5
94B
 10
1319.793602
 20
1950.738652
 30
0.0
 11
1319.793602
 21
1829.538652
 31
0.0
  0
LINE
  8
2
  6
CONTINUOUS
 62
     3
  5
94C
 10
1519.793602
 20
1800.738652
 30
0.0
 11
1519.793602
 21
1679.538652
 31
0.0
  0
LINE
  8
2
  6
CONTINUOUS
 62
     3
  5
94D
 10
1419.793602
 20
1800.738652
 30
0.0
 11
1419.793602
 21
1679.538652
 31
0.0
  0
LINE
  8
2
  6
CONTINUOUS
 62
     3
  5
94E
 10
1319.793602
 20
1800.738652
 30
0.0
 11
1319.793602
 21
1679.538652
 31
0.0
  0
LINE
  8
2
  6
CONTINUOUS
 62
     3
  5
94F
 10
1519.793602
 20
1650.738652
 30
0.0
 11
1519.793602
 21
1529.538652
 31
0.0
  0
LINE
  8
2
  6
CONTINUOUS
 62
     3
  5
950
 10
1419.793602
 20
1650.738652
 30
0.0
 11
1419.793602
 21
1529.538652
 31
0.0
  0
LINE
  8
2
  6
CONTINUOUS
 62
     3
  5
951
 10
1319.793602
 20
1650.738652
 30
0.0
 11
1319.793602
 21
1529.538652
 31
0.0
  0
LINE
  8
2
  6
CONTINUOUS
 62
     3
  5
952
 10
1619.793602
 20
1350.738652
 30
0.0
 11
1619.793602
 21
815.138652
 31
0.0
  0
LINE
  8
2
  6
CONTINUOUS
 62
     3
  5
953
 10
1519.793602
 20
1500.738652
 30
0.0
 11
1519.793602
 21
1379.538652
 31
0.0
  0
LINE
  8
2
  6
CONTINUOUS
 62
     3
  5
954
 10
1519.793602
 20
1350.738652
 30
0.0
 11
1519.793602
 21
815.138652
 31
0.0
  0
LINE
  8
2
  6
CONTINUOUS
 62
     3
  5
955
 10
1419.793602
 20
1500.738652
 30
0.0
 11
1419.793602
 21
1379.538652
 31
0.0
  0
LINE
  8
2
  6
CONTINUOUS
 62
     3
  5
956
 10
1419.793602
 20
1350.738652
 30
0.0
 11
1419.793602
 21
815.138652
 31
0.0
  0
LINE
  8
2
  6
CONTINUOUS
 62
     3
  5
957
 10
1219.793602
 20
1350.738652
 30
0.0
 11
1219.793602
 21
515.138652
 31
0.0
  0
LINE
  8
2
  6
CONTINUOUS
 62
     3
  5
958
 10
1319.793602
 20
1500.738652
 30
0.0
 11
1319.793602
 21
1379.538652
 31
0.0
  0
LINE
  8
2
  6
CONTINUOUS
 62
     3
  5
959
 10
1319.793602
 20
1350.738652
 30
0.0
 11
1319.793602
 21
515.138652
 31
0.0
  0
LINE
  8
2
  6
CONTINUOUS
 62
     2
  5
95A
 10
1180.393602
 20
1415.138652
 30
0.0
 11
314.793902
 21
1415.138652
 31
0.0
  0
LINE
  8
2
  6
CONTINUOUS
 62
     2
  5
95B
 10
1359.193602
 20
1621.138652
 30
0.0
 11
1330.393602
 21
1621.138652
 31
0.0
  0
LINE
  8
2
  6
CONTINUOUS
 62
     2
  5
95C
 10
1180.393602
 20
1621.138652
 30
0.0
 11
1119.793602
 21
1621.138652
 31
0.0
  0
LINE
  8
2
  6
CONTINUOUS
 62
     2
  5
95D
 10
1359.193602
 20
1724.138652
 30
0.0
 11
1330.393602
 21
1724.138652
 31
0.0
  0
LINE
  8
2
  6
CONTINUOUS
 62
     2
  5
95E
 10
1180.393602
 20
1724.138652
 30
0.0
 11
1119.793602
 21
1724.138652
 31
0.0
  0
LINE
  8
3
  6
CONTINUOUS
 62
     2
  5
95F
 10
1519.793602
 20
1415.138652
 30
0.0
 11
1480.393602
 21
1415.138652
 31
0.0
  0
LINE
  8
2
  6
CONTINUOUS
 62
     2
  5
960
 10
1359.193602
 20
1930.138652
 30
0.0
 11
1480.393602
 21
1930.138652
 31
0.0
  0
LINE
  8
3
  6
CONTINUOUS
 62
     2
  5
961
 10
1748.832508
 20
1415.138652
 30
0.0
 11
1668.755524
 21
1415.138652
 31
0.0
  0
LINE
  8
3
  6
CONTINUOUS
 62
     2
  5
962
 10
1659.193602
 20
1415.138652
 30
0.0
 11
1630.393602
 21
1415.138652
 31
0.0
  0
LINE
  8
2
  6
CONTINUOUS
 62
     2
  5
963
 10
1810.455269
 20
1415.138652
 30
0.0
 11
1659.193602
 21
1415.138652
 31
0.0
  0
LINE
  8
2
  6
CONTINUOUS
 62
     2
  5
964
 10
1630.393602
 20
1415.138652
 30
0.0
 11
1519.793602
 21
1415.138652
 31
0.0
  0
LINE
  8
2
  6
CONTINUOUS
 62
     2
  5
965
 10
1748.832508
 20
1621.138652
 30
0.0
 11
1659.193602
 21
1621.138652
 31
0.0
  0
LINE
  8
2
  6
CONTINUOUS
 62
     2
  5
966
 10
1630.393602
 20
1621.138652
 30
0.0
 11
1519.793602
 21
1621.138652
 31
0.0
  0
LINE
  8
2
  6
CONTINUOUS
 62
     2
  5
967
 10
1797.444145
 20
1724.138652
 30
0.0
 11
1659.193602
 21
1724.138652
 31
0.0
  0
LINE
  8
2
  6
CONTINUOUS
 62
     2
  5
968
 10
1630.393602
 20
1724.138652
 30
0.0
 11
1519.793602
 21
1724.138652
 31
0.0
  0
LINE
  8
2
  6
CONTINUOUS
 62
     2
  5
969
 10
1748.832508
 20
1518.138652
 30
0.0
 11
1659.193602
 21
1518.138652
 31
0.0
  0
LINE
  8
2
  6
CONTINUOUS
 62
     2
  5
96A
 10
2049.70443
 20
1827.138652
 30
0.0
 11
1659.193602
 21
1827.138652
 31
0.0
  0
LINE
  8
2
  6
CONTINUOUS
 62
     2
  5
96B
 10
1659.193602
 20
1930.138652
 30
0.0
 11
2049.70443
 21
1930.138652
 31
0.0
  0
LINE
  8
2
  6
CONTINUOUS
 62
     2
  5
96C
 10
1119.793602
 20
1930.138652
 30
0.0
 11
1180.393602
 21
1930.138652
 31
0.0
  0
LINE
  8
2
  6
CONTINUOUS
 62
     2
  5
96D
 10
1209.193602
 20
1930.138652
 30
0.0
 11
1330.393602
 21
1930.138652
 31
0.0
  0
LINE
  8
2
  6
CONTINUOUS
 62
     2
  5
96E
 10
1180.393602
 20
1518.138652
 30
0.0
 11
1119.793602
 21
1518.138652
 31
0.0
  0
LINE
  8
2
  6
CONTINUOUS
 62
     2
  5
96F
 10
1119.793602
 20
1827.138652
 30
0.0
 11
1159.423105
 21
1827.138652
 31
0.0
  0
LINE
  8
2
  6
CONTINUOUS
 62
     2
  5
970
 10
1630.393602
 20
1930.138652
 30
0.0
 11
1509.193602
 21
1930.138652
 31
0.0
  0
LINE
  8
7
  6
CENTER
 62
     3
  5
971
 10
1225.393602
 20
1515.138652
 30
0.0
 11
1644.793602
 21
1515.138652
 31
0.0
  0
LINE
  8
2
  6
CONTINUOUS
 62
     2
  5
972
 10
1480.393602
 20
1724.138652
 30
0.0
 11
1359.193602
 21
1724.138652
 31
0.0
  0
LINE
  8
2
  6
CONTINUOUS
 62
     2
  5
973
 10
1330.393602
 20
1724.138652
 30
0.0
 11
1209.193602
 21
1724.138652
 31
0.0
  0
LINE
  8
2
  6
CONTINUOUS
 62
     2
  5
974
 10
1480.393602
 20
1621.138652
 30
0.0
 11
1359.193602
 21
1621.138652
 31
0.0
  0
LINE
  8
2
  6
CONTINUOUS
 62
     2
  5
975
 10
1330.393602
 20
1621.138652
 30
0.0
 11
1209.193602
 21
1621.138652
 31
0.0
  0
LINE
  8
2
  6
CONTINUOUS
 62
     2
  5
976
 10
1480.393602
 20
1415.138652
 30
0.0
 11
1359.193602
 21
1415.138652
 31
0.0
  0
LINE
  8
2
  6
CONTINUOUS
 62
     2
  5
977
 10
1330.393602
 20
1415.138652
 30
0.0
 11
1209.193602
 21
1415.138652
 31
0.0
  0
LINE
  8
7
  6
CENTER
 62
     3
  5
978
 10
1194.793602
 20
1365.138652
 30
0.0
 11
1644.793602
 21
1365.138652
 31
0.0
  0
LINE
  8
7
  6
CENTER
 62
     3
  5
979
 10
1194.793602
 20
1965.138652
 30
0.0
 11
1644.793602
 21
1965.138652
 31
0.0
  0
LINE
  8
7
  6
CENTER
 62
     3
  5
97A
 10
1194.793602
 20
1365.138652
 30
0.0
 11
1194.793602
 21
1965.138652
 31
0.0
  0
LINE
  8
2
  6
CONTINUOUS
 62
     3
  5
97B
 10
1219.793602
 20
1950.738652
 30
0.0
 11
1219.793602
 21
1856.803985
 31
0.0
  0
LINE
  8
2
  6
CONTINUOUS
 62
     3
  5
97C
 10
1219.793602
 20
1679.538652
 30
0.0
 11
1219.793602
 21
1773.473318
 31
0.0
  0
LINE
  8
2
  6
CONTINUOUS
 62
     3
  5
97D
 10
1219.793602
 20
1650.738652
 30
0.0
 11
1219.793602
 21
1556.803985
 31
0.0
  0
LINE
  8
2
  6
CONTINUOUS
 62
     3
  5
97E
 10
1219.793602
 20
1379.538652
 30
0.0
 11
1219.793602
 21
1473.473318
 31
0.0
  0
LINE
  8
2
  6
CONTINUOUS
 62
     3
  5
97F
 10
1619.793602
 20
1379.538652
 30
0.0
 11
1619.793602
 21
1473.473318
 31
0.0
  0
LINE
  8
2
  6
CONTINUOUS
 62
     3
  5
980
 10
1619.793602
 20
1650.738652
 30
0.0
 11
1619.793602
 21
1553.32556
 31
0.0
  0
LINE
  8
2
  6
CONTINUOUS
 62
     3
  5
981
 10
1619.793602
 20
1679.538652
 30
0.0
 11
1619.793602
 21
1775.968637
 31
0.0
  0
LINE
  8
2
  6
CONTINUOUS
 62
     3
  5
982
 10
1619.793602
 20
1950.738652
 30
0.0
 11
1619.793602
 21
1856.803985
 31
0.0
  0
LINE
  8
7
  6
CENTER
 62
     3
  5
983
 10
3424.369676
 20
1365.138652
 30
0.0
 11
3424.369676
 21
1965.138652
 31
0.0
  0
LINE
  8
7
  6
CENTER
 62
     3
  5
984
 10
3274.369676
 20
1365.138652
 30
0.0
 11
3274.369676
 21
1965.138652
 31
0.0
  0
LINE
  8
7
  6
CENTER
 62
     3
  5
985
 10
3574.369676
 20
1965.138652
 30
0.0
 11
3124.369676
 21
1965.138652
 31
0.0
  0
LINE
  8
7
  6
CENTER
 62
     3
  5
986
 10
3574.369676
 20
1815.138652
 30
0.0
 11
3124.369676
 21
1815.138652
 31
0.0
  0
LINE
  8
7
  6
CENTER
 62
     3
  5
987
 10
3574.369676
 20
1665.138652
 30
0.0
 11
3124.369676
 21
1665.138652
 31
0.0
  0
LINE
  8
7
  6
CENTER
 62
     3
  5
988
 10
3574.369676
 20
1515.138652
 30
0.0
 11
3124.369676
 21
1515.138652
 31
0.0
  0
LINE
  8
7
  6
CENTER
 62
     3
  5
989
 10
3574.369676
 20
1365.138652
 30
0.0
 11
3124.369676
 21
1365.138652
 31
0.0
  0
LINE
  8
7
  6
CENTER
 62
     3
  5
98A
 10
3124.369676
 20
1365.138652
 30
0.0
 11
3124.369676
 21
1965.138652
 31
0.0
  0
LINE
  8
1
  6
CONTINUOUS
 62
     6
  5
98B
 10
3080.552692
 20
4665.543977
 30
0.0
 11
3080.552692
 21
4720.543976
 31
0.0
  0
LINE
  8
1
  6
CONTINUOUS
 62
     6
  5
98C
 10
3078.552692
 20
4665.543977
 30
0.0
 11
3080.552692
 21
4665.543977
 31
0.0
  0
LINE
  8
1
  6
CONTINUOUS
 62
     6
  5
98D
 10
3080.552692
 20
4703.043976
 30
0.0
 11
3080.552692
 21
4683.043977
 31
0.0
  0
LINE
  8
7
  6
CONTINUOUS
 62
     3
  5
98E
 10
3067.638814
 20
4657.810575
 30
0.0
 11
3037.588605
 21
4657.810575
 31
0.0
  0
LINE
  8
40
  6
CONTINUOUS
 62
     4
  5
98F
 10
3067.588855
 20
4659.271475
 30
0.0
 11
3067.588855
 21
4628.448935
 31
0.0
  0
LINE
  8
40
  6
CONTINUOUS
 62
     4
  5
990
 10
3069.588825
 20
4622.205495
 30
0.0
 11
3069.588825
 21
4665.486495
 31
0.0
  0
LINE
  8
40
  6
CONTINUOUS
 62
     4
  5
991
 10
3087.588835
 20
4598.810655
 30
0.0
 11
3077.101925
 21
4598.810655
 31
0.0
  0
LINE
  8
40
  6
CONTINUOUS
 62
     4
  5
992
 10
3087.588835
 20
4688.810635
 30
0.0
 11
3077.073295
 21
4688.810635
 31
0.0
  0
LINE
  8
40
  6
CONTINUOUS
 62
     4
  5
993
 10
3075.588875
 20
4688.064575
 30
0.0
 11
3075.588875
 21
4599.600115
 31
0.0
  0
ARC
  8
40
  6
CONTINUOUS
 62
     4
  5
994
 10
3077.204615
 20
4600.810555
 30
0.0
 40
2.00004
 50
194.470295
 51
270.0
  0
ARC
  8
40
  6
CONTINUOUS
 62
     4
  5
995
 10
3077.161565
 20
4686.808915
 30
0.0
 40
2.00004
 50
90.0
 51
165.930352
  0
LINE
  8
1
  6
CONTINUOUS
 62
     4
  5
996
 10
3094.774895
 20
4611.499695
 30
0.0
 11
3095.469925
 21
4615.499775
 31
0.0
  0
LINE
  8
1
  6
CONTINUOUS
 62
     4
  5
997
 10
3097.811215
 20
4611.499695
 30
0.0
 11
3098.520455
 21
4615.499775
 31
0.0
  0
LINE
  8
1
  6
CONTINUOUS
 62
     4
  5
998
 10
3100.864335
 20
4611.499695
 30
0.0
 11
3101.573575
 21
4615.499775
 31
0.0
  0
LINE
  8
1
  6
CONTINUOUS
 62
     4
  5
999
 10
3103.917455
 20
4611.499695
 30
0.0
 11
3104.626625
 21
4615.499775
 31
0.0
  0
LINE
  8
1
  6
CONTINUOUS
 62
     4
  5
99A
 10
3106.967915
 20
4611.499695
 30
0.0
 11
3107.662875
 21
4615.499775
 31
0.0
  0
LINE
  8
1
  6
CONTINUOUS
 62
     4
  5
99B
 10
3110.004025
 20
4611.499695
 30
0.0
 11
3110.713265
 21
4615.499775
 31
0.0
  0
LINE
  8
1
  6
CONTINUOUS
 62
     4
  5
99C
 10
3093.879735
 20
4615.104555
 30
0.0
 11
3093.312105
 21
4611.894915
 31
0.0
  0
LINE
  8
1
  6
CONTINUOUS
 62
     4
  5
99D
 10
3096.913185
 20
4615.104555
 30
0.0
 11
3096.345625
 21
4611.894915
 31
0.0
  0
LINE
  8
1
  6
CONTINUOUS
 62
     4
  5
99E
 10
3099.966305
 20
4615.104555
 30
0.0
 11
3099.398745
 21
4611.894915
 31
0.0
  0
LINE
  8
1
  6
CONTINUOUS
 62
     4
  5
99F
 10
3103.019425
 20
4615.104555
 30
0.0
 11
3102.451935
 21
4611.894915
 31
0.0
  0
LINE
  8
1
  6
CONTINUOUS
 62
     4
  5
9A0
 10
3106.072615
 20
4615.104555
 30
0.0
 11
3105.505055
 21
4611.894915
 31
0.0
  0
LINE
  8
1
  6
CONTINUOUS
 62
     4
  5
9A1
 10
3109.106135
 20
4615.104555
 30
0.0
 11
3108.538575
 21
4611.894915
 31
0.0
  0
LINE
  8
1
  6
CONTINUOUS
 62
     4
  5
9A2
 10
3112.159255
 20
4615.104555
 30
0.0
 11
3111.591625
 21
4611.894915
 31
0.0
  0
LINE
  8
1
  6
CONTINUOUS
 62
     4
  5
9A3
 10
3091.723525
 20
4611.499695
 30
0.0
 11
3092.427725
 21
4615.499775
 31
0.0
  0
LINE
  8
1
  6
CONTINUOUS
 62
     4
  5
9A4
 10
3081.588855
 20
4613.499735
 30
0.0
 11
3081.588855
 21
4609.249755
 31
0.0
  0
LINE
  8
1
  6
CONTINUOUS
 62
     4
  5
9A5
 10
3085.676995
 20
4611.499695
 30
0.0
 11
3086.386235
 21
4615.499775
 31
0.0
  0
LINE
  8
1
  6
CONTINUOUS
 62
     4
  5
9A6
 10
3088.690845
 20
4611.499695
 30
0.0
 11
3089.400085
 21
4615.499775
 31
0.0
  0
LINE
  8
1
  6
CONTINUOUS
 62
     4
  5
9A7
 10
3084.798565
 20
4615.104555
 30
0.0
 11
3084.231005
 21
4611.894915
 31
0.0
  0
LINE
  8
1
  6
CONTINUOUS
 62
     4
  5
9A8
 10
3087.812485
 20
4615.104555
 30
0.0
 11
3087.244925
 21
4611.894915
 31
0.0
  0
LINE
  8
1
  6
CONTINUOUS
 62
     4
  5
9A9
 10
3090.846075
 20
4615.104555
 30
0.0
 11
3090.278515
 21
4611.894915
 31
0.0
  0
LINE
  8
1
  6
CONTINUOUS
 62
     4
  5
9AA
 10
3081.588855
 20
4610.896715
 30
0.0
 11
3082.791805
 21
4612.099735
 31
0.0
  0
LINE
  8
1
  6
CONTINUOUS
 62
     4
  5
9AB
 10
3081.588855
 20
4610.896715
 30
0.0
 11
3081.588855
 21
4609.249755
 31
0.0
  0
LINE
  8
1
  6
CONTINUOUS
 62
     4
  5
9AC
 10
3081.588855
 20
4616.102755
 30
0.0
 11
3082.791805
 21
4614.899735
 31
0.0
  0
LINE
  8
1
  6
CONTINUOUS
 62
     4
  5
9AD
 10
3081.588855
 20
4616.102755
 30
0.0
 11
3081.588855
 21
4617.749715
 31
0.0
  0
LINE
  8
1
  6
CONTINUOUS
 62
     4
  5
9AE
 10
3083.272005
 20
4615.104555
 30
0.0
 11
3082.704515
 21
4611.894915
 31
0.0
  0
LINE
  8
1
  6
CONTINUOUS
 62
     4
  5
9AF
 10
3078.097815
 20
4612.892975
 30
0.0
 11
3078.097815
 21
4614.106495
 31
0.0
  0
LINE
  8
1
  6
CONTINUOUS
 62
     4
  5
9B0
 10
3077.588845
 20
4612.892975
 30
0.0
 11
3078.097815
 21
4612.892975
 31
0.0
  0
LINE
  8
1
  6
CONTINUOUS
 62
     4
  5
9B1
 10
3077.588845
 20
4614.106495
 30
0.0
 11
3078.097815
 21
4614.106495
 31
0.0
  0
LINE
  8
1
  6
CONTINUOUS
 62
     4
  5
9B2
 10
3077.588845
 20
4612.892975
 30
0.0
 11
3077.588845
 21
4614.106495
 31
0.0
  0
LINE
  8
1
  6
CONTINUOUS
 62
     4
  5
9B3
 10
3113.057145
 20
4611.499695
 30
0.0
 11
3113.766385
 21
4615.499775
 31
0.0
  0
LINE
  8
1
  6
CONTINUOUS
 62
     4
  5
9B4
 10
3116.711565
 20
4614.891055
 30
0.0
 11
3116.200005
 21
4612.006075
 31
0.0
  0
LINE
  8
1
  6
CONTINUOUS
 62
     4
  5
9B5
 10
3115.212305
 20
4615.104555
 30
0.0
 11
3114.644745
 21
4611.894915
 31
0.0
  0
LINE
  8
1
  6
CONTINUOUS
 62
     4
  5
9B6
 10
3118.175825
 20
4614.598175
 30
0.0
 11
3117.773185
 21
4612.320795
 31
0.0
  0
LINE
  8
1
  6
CONTINUOUS
 62
     4
  5
9B7
 10
3094.774895
 20
4672.121515
 30
0.0
 11
3095.469925
 21
4676.121455
 31
0.0
  0
LINE
  8
1
  6
CONTINUOUS
 62
     4
  5
9B8
 10
3097.811215
 20
4672.121515
 30
0.0
 11
3098.520455
 21
4676.121455
 31
0.0
  0
LINE
  8
1
  6
CONTINUOUS
 62
     4
  5
9B9
 10
3100.864335
 20
4672.121515
 30
0.0
 11
3101.573575
 21
4676.121455
 31
0.0
  0
LINE
  8
1
  6
CONTINUOUS
 62
     4
  5
9BA
 10
3103.917455
 20
4672.121515
 30
0.0
 11
3104.626625
 21
4676.121455
 31
0.0
  0
LINE
  8
1
  6
CONTINUOUS
 62
     4
  5
9BB
 10
3106.967915
 20
4672.121515
 30
0.0
 11
3107.662875
 21
4676.121455
 31
0.0
  0
LINE
  8
1
  6
CONTINUOUS
 62
     4
  5
9BC
 10
3110.004025
 20
4672.121515
 30
0.0
 11
3110.713265
 21
4676.121455
 31
0.0
  0
LINE
  8
1
  6
CONTINUOUS
 62
     4
  5
9BD
 10
3093.879735
 20
4675.726375
 30
0.0
 11
3093.312105
 21
4672.516595
 31
0.0
  0
LINE
  8
1
  6
CONTINUOUS
 62
     4
  5
9BE
 10
3096.913185
 20
4675.726375
 30
0.0
 11
3096.345625
 21
4672.516595
 31
0.0
  0
LINE
  8
1
  6
CONTINUOUS
 62
     4
  5
9BF
 10
3099.966305
 20
4675.726375
 30
0.0
 11
3099.398745
 21
4672.516595
 31
0.0
  0
LINE
  8
1
  6
CONTINUOUS
 62
     4
  5
9C0
 10
3103.019425
 20
4675.726375
 30
0.0
 11
3102.451935
 21
4672.516595
 31
0.0
  0
LINE
  8
1
  6
CONTINUOUS
 62
     4
  5
9C1
 10
3106.072615
 20
4675.726375
 30
0.0
 11
3105.505055
 21
4672.516595
 31
0.0
  0
LINE
  8
1
  6
CONTINUOUS
 62
     4
  5
9C2
 10
3109.106135
 20
4675.726375
 30
0.0
 11
3108.538575
 21
4672.516595
 31
0.0
  0
LINE
  8
1
  6
CONTINUOUS
 62
     4
  5
9C3
 10
3112.159255
 20
4675.726375
 30
0.0
 11
3111.591625
 21
4672.516595
 31
0.0
  0
LINE
  8
1
  6
CONTINUOUS
 62
     4
  5
9C4
 10
3091.723525
 20
4672.121515
 30
0.0
 11
3092.427725
 21
4676.121455
 31
0.0
  0
LINE
  8
1
  6
CONTINUOUS
 62
     4
  5
9C5
 10
3081.588855
 20
4674.121555
 30
0.0
 11
3081.588855
 21
4669.871435
 31
0.0
  0
LINE
  8
1
  6
CONTINUOUS
 62
     4
  5
9C6
 10
3085.676995
 20
4672.121515
 30
0.0
 11
3086.386235
 21
4676.121455
 31
0.0
  0
LINE
  8
1
  6
CONTINUOUS
 62
     4
  5
9C7
 10
3088.690845
 20
4672.121515
 30
0.0
 11
3089.400085
 21
4676.121455
 31
0.0
  0
LINE
  8
1
  6
CONTINUOUS
 62
     4
  5
9C8
 10
3084.798565
 20
4675.726375
 30
0.0
 11
3084.231005
 21
4672.516595
 31
0.0
  0
LINE
  8
1
  6
CONTINUOUS
 62
     4
  5
9C9
 10
3087.812485
 20
4675.726375
 30
0.0
 11
3087.244925
 21
4672.516595
 31
0.0
  0
LINE
  8
1
  6
CONTINUOUS
 62
     4
  5
9CA
 10
3090.846075
 20
4675.726375
 30
0.0
 11
3090.278515
 21
4672.516595
 31
0.0
  0
LINE
  8
1
  6
CONTINUOUS
 62
     4
  5
9CB
 10
3081.588855
 20
4671.518535
 30
0.0
 11
3082.791805
 21
4672.721555
 31
0.0
  0
LINE
  8
1
  6
CONTINUOUS
 62
     4
  5
9CC
 10
3081.588855
 20
4671.518535
 30
0.0
 11
3081.588855
 21
4669.871435
 31
0.0
  0
LINE
  8
1
  6
CONTINUOUS
 62
     4
  5
9CD
 10
3081.588855
 20
4676.724435
 30
0.0
 11
3082.791805
 21
4675.521555
 31
0.0
  0
LINE
  8
1
  6
CONTINUOUS
 62
     4
  5
9CE
 10
3081.588855
 20
4676.724435
 30
0.0
 11
3081.588855
 21
4678.371535
 31
0.0
  0
LINE
  8
1
  6
CONTINUOUS
 62
     4
  5
9CF
 10
3083.272005
 20
4675.726375
 30
0.0
 11
3082.704515
 21
4672.516595
 31
0.0
  0
LINE
  8
1
  6
CONTINUOUS
 62
     4
  5
9D0
 10
3113.057145
 20
4672.121515
 30
0.0
 11
3113.766385
 21
4676.121455
 31
0.0
  0
LINE
  8
1
  6
CONTINUOUS
 62
     4
  5
9D1
 10
3116.711565
 20
4675.512735
 30
0.0
 11
3116.200005
 21
4672.627895
 31
0.0
  0
LINE
  8
1
  6
CONTINUOUS
 62
     4
  5
9D2
 10
3115.212305
 20
4675.726375
 30
0.0
 11
3114.644745
 21
4672.516595
 31
0.0
  0
LINE
  8
1
  6
CONTINUOUS
 62
     4
  5
9D3
 10
3118.175825
 20
4675.219995
 30
0.0
 11
3117.773185
 21
4672.942475
 31
0.0
  0
LINE
  8
40
  6
CONTINUOUS
 62
     4
  5
9D4
 10
3087.588835
 20
4688.785575
 30
0.0
 11
3077.073295
 21
4688.785575
 31
0.0
  0
LINE
  8
40
  6
CONTINUOUS
 62
     4
  5
9D5
 10
3074.956355
 20
4686.285595
 30
0.0
 11
3082.588875
 21
4686.285595
 31
0.0
  0
LINE
  8
40
  6
CONTINUOUS
 62
     4
  5
9D6
 10
3068.588875
 20
4626.080555
 30
0.0
 11
3068.588875
 21
4661.611575
 31
0.0
  0
LINE
  8
40
  6
CONTINUOUS
 62
     4
  5
9D7
 10
3067.588855
 20
4629.810575
 30
0.0
 11
3067.588855
 21
4657.810575
 31
0.0
  0
LINE
  8
40
  6
CONTINUOUS
 62
     4
  5
9D8
 10
3066.588835
 20
4658.394935
 30
0.0
 11
3066.588835
 21
4629.294535
 31
0.0
  0
LINE
  8
40
  6
CONTINUOUS
 62
     4
  5
9D9
 10
3065.588745
 20
4657.956595
 30
0.0
 11
3065.588745
 21
4629.691435
 31
0.0
  0
LINE
  8
12
  6
CONTINUOUS
 62
     4
  5
9DA
 10
3082.588875
 20
4667.197575
 30
0.0
 11
3082.588875
 21
4688.810635
 31
0.0
  0
LINE
  8
12
  6
CONTINUOUS
 62
     4
  5
9DB
 10
3074.981135
 20
4601.310635
 30
0.0
 11
3082.588875
 21
4601.310635
 31
0.0
  0
LINE
  8
12
  6
CONTINUOUS
 62
     4
  5
9DC
 10
3069.600655
 20
4622.159995
 30
0.0
 11
3069.571115
 21
4622.159995
 31
0.0
  0
LINE
  8
12
  6
CONTINUOUS
 62
     4
  5
9DD
 10
3070.043895
 20
4620.442055
 30
0.0
 11
3082.588875
 21
4620.442055
 31
0.0
  0
LINE
  8
12
  6
CONTINUOUS
 62
     4
  5
9DE
 10
3069.696135
 20
4622.153835
 30
0.0
 11
3082.694155
 21
4620.529135
 31
0.0
  0
LINE
  8
12
  6
CONTINUOUS
 62
     4
  5
9DF
 10
3069.495235
 20
4665.479775
 30
0.0
 11
3069.465765
 21
4665.479775
 31
0.0
  0
LINE
  8
12
  6
CONTINUOUS
 62
     4
  5
9E0
 10
3069.938545
 20
4667.197575
 30
0.0
 11
3082.483595
 21
4667.197575
 31
0.0
  0
LINE
  8
12
  6
CONTINUOUS
 62
     4
  5
9E1
 10
3069.590855
 20
4665.485935
 30
0.0
 11
3082.588875
 21
4667.110635
 31
0.0
  0
LINE
  8
12
  6
CONTINUOUS
 62
     4
  5
9E2
 10
3082.588875
 20
4620.542295
 30
0.0
 11
3082.588875
 21
4601.310635
 31
0.0
  0
LINE
  8
12
  6
CONTINUOUS
 62
     4
  5
9E3
 10
3081.588855
 20
4620.542295
 30
0.0
 11
3081.588855
 21
4601.310635
 31
0.0
  0
LINE
  8
12
  6
CONTINUOUS
 62
     4
  5
9E4
 10
3081.588855
 20
4667.197575
 30
0.0
 11
3081.588855
 21
4688.810635
 31
0.0
  0
LINE
  8
12
  6
CONTINUOUS
 62
     4
  5
9E5
 10
3081.588855
 20
4617.749715
 30
0.0
 11
3081.588855
 21
4609.249755
 31
0.0
  0
LINE
  8
12
  6
CONTINUOUS
 62
     4
  5
9E6
 10
3081.588855
 20
4609.249755
 30
0.0
 11
3078.588865
 21
4609.249755
 31
0.0
  0
LINE
  8
12
  6
CONTINUOUS
 62
     4
  5
9E7
 10
3081.588855
 20
4617.749715
 30
0.0
 11
3078.588865
 21
4617.749715
 31
0.0
  0
LINE
  8
12
  6
CONTINUOUS
 62
     4
  5
9E8
 10
3078.588865
 20
4617.749715
 30
0.0
 11
3081.588855
 21
4617.749715
 31
0.0
  0
LINE
  8
12
  6
CONTINUOUS
 62
     4
  5
9E9
 10
3078.588865
 20
4609.249755
 30
0.0
 11
3081.588855
 21
4609.249755
 31
0.0
  0
LINE
  8
12
  6
CONTINUOUS
 62
     4
  5
9EA
 10
3078.588865
 20
4609.249755
 30
0.0
 11
3078.588865
 21
4617.749715
 31
0.0
  0
ARC
  8
12
  6
CONTINUOUS
 62
     4
  5
9EB
 10
3087.120115
 20
4613.499735
 30
0.0
 40
9.53134
 50
153.51896
 51
206.48104
  0
LINE
  8
12
  6
CONTINUOUS
 62
     4
  5
9EC
 10
3081.588855
 20
4614.899735
 30
0.0
 11
3112.588845
 21
4614.899735
 31
0.0
  0
LINE
  8
12
  6
CONTINUOUS
 62
     4
  5
9ED
 10
3081.588855
 20
4612.099735
 30
0.0
 11
3112.588845
 21
4612.099735
 31
0.0
  0
LINE
  8
12
  6
CONTINUOUS
 62
     4
  5
9EE
 10
3112.588845
 20
4614.899735
 30
0.0
 11
3112.588845
 21
4612.099735
 31
0.0
  0
LINE
  8
12
  6
CONTINUOUS
 62
     4
  5
9EF
 10
3119.588845
 20
4613.499735
 30
0.0
 11
3112.588845
 21
4612.099735
 31
0.0
  0
LINE
  8
12
  6
CONTINUOUS
 62
     4
  5
9F0
 10
3119.588845
 20
4613.499735
 30
0.0
 11
3112.588845
 21
4614.899735
 31
0.0
  0
LINE
  8
12
  6
CENTER
 62
     4
  5
9F1
 10
3078.588865
 20
4613.499735
 30
0.0
 11
3119.588845
 21
4613.499735
 31
0.0
  0
LINE
  8
12
  6
CENTER
 62
     4
  5
9F2
 10
3119.588845
 20
4613.499735
 30
0.0
 11
3080.081825
 21
4613.499735
 31
0.0
  0
LINE
  8
12
  6
CONTINUOUS
 62
     4
  5
9F3
 10
3081.588855
 20
4678.371535
 30
0.0
 11
3081.588855
 21
4669.871435
 31
0.0
  0
LINE
  8
12
  6
CONTINUOUS
 62
     4
  5
9F4
 10
3081.588855
 20
4669.871435
 30
0.0
 11
3078.588865
 21
4669.871435
 31
0.0
  0
LINE
  8
12
  6
CONTINUOUS
 62
     4
  5
9F5
 10
3078.588865
 20
4669.871435
 30
0.0
 11
3081.588855
 21
4669.871435
 31
0.0
  0
LINE
  8
12
  6
CONTINUOUS
 62
     4
  5
9F6
 10
3081.588855
 20
4675.521555
 30
0.0
 11
3112.588845
 21
4675.521555
 31
0.0
  0
LINE
  8
12
  6
CONTINUOUS
 62
     4
  5
9F7
 10
3081.588855
 20
4672.721555
 30
0.0
 11
3112.588845
 21
4672.721555
 31
0.0
  0
LINE
  8
12
  6
CONTINUOUS
 62
     4
  5
9F8
 10
3112.588845
 20
4675.521555
 30
0.0
 11
3112.588845
 21
4672.721555
 31
0.0
  0
LINE
  8
12
  6
CONTINUOUS
 62
     4
  5
9F9
 10
3119.588845
 20
4674.121555
 30
0.0
 11
3112.588845
 21
4672.721555
 31
0.0
  0
LINE
  8
12
  6
CONTINUOUS
 62
     4
  5
9FA
 10
3119.588845
 20
4674.121555
 30
0.0
 11
3112.588845
 21
4675.521555
 31
0.0
  0
LINE
  8
12
  6
CONTINUOUS
 62
     4
  5
9FB
 10
3081.836095
 20
4619.208235
 30
0.0
 11
3081.836095
 21
4607.708215
 31
0.0
  0
LINE
  8
12
  6
CONTINUOUS
 62
     4
  5
9FC
 10
3082.635985
 20
4619.208235
 30
0.0
 11
3082.635985
 21
4607.708215
 31
0.0
  0
LINE
  8
12
  6
CONTINUOUS
 62
     4
  5
9FD
 10
3081.836095
 20
4619.208235
 30
0.0
 11
3082.635985
 21
4619.208235
 31
0.0
  0
LINE
  8
12
  6
CONTINUOUS
 62
     4
  5
9FE
 10
3081.836095
 20
4616.208315
 30
0.0
 11
3082.635985
 21
4616.208315
 31
0.0
  0
LINE
  8
12
  6
CONTINUOUS
 62
     4
  5
9FF
 10
3081.836095
 20
4610.708275
 30
0.0
 11
3082.635985
 21
4610.708275
 31
0.0
  0
LINE
  8
12
  6
CONTINUOUS
 62
     4
  5
A00
 10
3081.836095
 20
4607.708215
 30
0.0
 11
3082.635985
 21
4607.708215
 31
0.0
  0
LINE
  8
12
  6
CONTINUOUS
 62
     4
  5
A01
 10
3081.836095
 20
4679.826415
 30
0.0
 11
3081.836095
 21
4668.326395
 31
0.0
  0
LINE
  8
12
  6
CONTINUOUS
 62
     4
  5
A02
 10
3082.635985
 20
4679.826415
 30
0.0
 11
3082.635985
 21
4668.326395
 31
0.0
  0
LINE
  8
12
  6
CONTINUOUS
 62
     4
  5
A03
 10
3081.836095
 20
4679.826415
 30
0.0
 11
3082.635985
 21
4679.826415
 31
0.0
  0
LINE
  8
12
  6
CONTINUOUS
 62
     4
  5
A04
 10
3081.836095
 20
4676.826355
 30
0.0
 11
3082.635985
 21
4676.826355
 31
0.0
  0
LINE
  8
12
  6
CONTINUOUS
 62
     4
  5
A05
 10
3081.836095
 20
4671.326315
 30
0.0
 11
3082.635985
 21
4671.326315
 31
0.0
  0
LINE
  8
12
  6
CONTINUOUS
 62
     4
  5
A06
 10
3081.836095
 20
4668.326395
 30
0.0
 11
3082.635985
 21
4668.326395
 31
0.0
  0
LINE
  8
8
  6
CONTINUOUS
 62
     4
  5
A07
 10
3068.382235
 20
4660.811055
 30
0.0
 11
3075.219765
 21
4687.306615
 31
0.0
  0
LINE
  8
8
  6
CONTINUOUS
 62
     4
  5
A08
 10
3068.351785
 20
4626.998815
 30
0.0
 11
3075.250145
 21
4600.267775
 31
0.0
  0
ARC
  8
8
  6
CONTINUOUS
 62
     4
  5
A09
 10
3064.552885
 20
4625.842835
 30
0.0
 40
4.00008
 50
14.470294
 51
90.0
  0
LINE
  8
50
  6
CENTER
 62
     4
  5
A0A
 10
3081.836095
 20
4613.458295
 30
0.0
 11
3083.958075
 21
4613.458295
 31
0.0
  0
LINE
  8
50
  6
CENTER
 62
     4
  5
A0B
 10
3081.836095
 20
4674.076335
 30
0.0
 11
3083.958075
 21
4674.076335
 31
0.0
  0
ARC
  8
8
  6
CONTINUOUS
 62
     4
  5
A0C
 10
3064.501995
 20
4661.805055
 30
0.0
 40
4.00008
 50
270.0
 51
345.529706
  0
LINE
  8
40
  6
CONTINUOUS
 62
     4
  5
A0D
 10
3067.588855
 20
4197.583148
 30
0.0
 11
3067.588855
 21
4228.405688
 31
0.0
  0
LINE
  8
40
  6
CONTINUOUS
 62
     4
  5
A0E
 10
3069.588825
 20
4234.649128
 30
0.0
 11
3069.588825
 21
4191.368128
 31
0.0
  0
LINE
  8
40
  6
CONTINUOUS
 62
     4
  5
A0F
 10
3087.588835
 20
4258.043968
 30
0.0
 11
3077.101925
 21
4258.043968
 31
0.0
  0
LINE
  8
40
  6
CONTINUOUS
 62
     4
  5
A10
 10
3087.588835
 20
4168.043988
 30
0.0
 11
3077.073295
 21
4168.043988
 31
0.0
  0
LINE
  8
40
  6
CONTINUOUS
 62
     4
  5
A11
 10
3075.588875
 20
4168.790048
 30
0.0
 11
3075.588875
 21
4257.254508
 31
0.0
  0
ARC
  8
40
  6
CONTINUOUS
 62
     4
  5
A12
 10
3077.204615
 20
4256.044068
 30
0.0
 40
2.00004
 50
90.0
 51
165.529705
  0
ARC
  8
40
  6
CONTINUOUS
 62
     4
  5
A13
 10
3077.161565
 20
4170.045708
 30
0.0
 40
2.00004
 50
194.069648
 51
270.0
  0
LINE
  8
1
  6
CONTINUOUS
 62
     4
  5
A14
 10
3094.774895
 20
4245.354928
 30
0.0
 11
3095.469925
 21
4241.354848
 31
0.0
  0
LINE
  8
1
  6
CONTINUOUS
 62
     4
  5
A15
 10
3097.811215
 20
4245.354928
 30
0.0
 11
3098.520455
 21
4241.354848
 31
0.0
  0
LINE
  8
1
  6
CONTINUOUS
 62
     4
  5
A16
 10
3100.864335
 20
4245.354928
 30
0.0
 11
3101.573575
 21
4241.354848
 31
0.0
  0
LINE
  8
1
  6
CONTINUOUS
 62
     4
  5
A17
 10
3103.917455
 20
4245.354928
 30
0.0
 11
3104.626625
 21
4241.354848
 31
0.0
  0
LINE
  8
1
  6
CONTINUOUS
 62
     4
  5
A18
 10
3106.967915
 20
4245.354928
 30
0.0
 11
3107.662875
 21
4241.354848
 31
0.0
  0
LINE
  8
1
  6
CONTINUOUS
 62
     4
  5
A19
 10
3110.004025
 20
4245.354928
 30
0.0
 11
3110.713265
 21
4241.354848
 31
0.0
  0
LINE
  8
1
  6
CONTINUOUS
 62
     4
  5
A1A
 10
3093.879735
 20
4241.750068
 30
0.0
 11
3093.312105
 21
4244.959708
 31
0.0
  0
LINE
  8
1
  6
CONTINUOUS
 62
     4
  5
A1B
 10
3096.913185
 20
4241.750068
 30
0.0
 11
3096.345625
 21
4244.959708
 31
0.0
  0
LINE
  8
1
  6
CONTINUOUS
 62
     4
  5
A1C
 10
3099.966305
 20
4241.750068
 30
0.0
 11
3099.398745
 21
4244.959708
 31
0.0
  0
LINE
  8
1
  6
CONTINUOUS
 62
     4
  5
A1D
 10
3103.019425
 20
4241.750068
 30
0.0
 11
3102.451935
 21
4244.959708
 31
0.0
  0
LINE
  8
1
  6
CONTINUOUS
 62
     4
  5
A1E
 10
3106.072615
 20
4241.750068
 30
0.0
 11
3105.505055
 21
4244.959708
 31
0.0
  0
LINE
  8
1
  6
CONTINUOUS
 62
     4
  5
A1F
 10
3109.106135
 20
4241.750068
 30
0.0
 11
3108.538575
 21
4244.959708
 31
0.0
  0
LINE
  8
1
  6
CONTINUOUS
 62
     4
  5
A20
 10
3112.159255
 20
4241.750068
 30
0.0
 11
3111.591625
 21
4244.959708
 31
0.0
  0
LINE
  8
1
  6
CONTINUOUS
 62
     4
  5
A21
 10
3091.723525
 20
4245.354928
 30
0.0
 11
3092.427725
 21
4241.354848
 31
0.0
  0
LINE
  8
1
  6
CONTINUOUS
 62
     4
  5
A22
 10
3081.588855
 20
4243.354888
 30
0.0
 11
3081.588855
 21
4247.604868
 31
0.0
  0
LINE
  8
1
  6
CONTINUOUS
 62
     4
  5
A23
 10
3085.676995
 20
4245.354928
 30
0.0
 11
3086.386235
 21
4241.354848
 31
0.0
  0
LINE
  8
1
  6
CONTINUOUS
 62
     4
  5
A24
 10
3088.690845
 20
4245.354928
 30
0.0
 11
3089.400085
 21
4241.354848
 31
0.0
  0
LINE
  8
1
  6
CONTINUOUS
 62
     4
  5
A25
 10
3084.798565
 20
4241.750068
 30
0.0
 11
3084.231005
 21
4244.959708
 31
0.0
  0
LINE
  8
1
  6
CONTINUOUS
 62
     4
  5
A26
 10
3087.812485
 20
4241.750068
 30
0.0
 11
3087.244925
 21
4244.959708
 31
0.0
  0
LINE
  8
1
  6
CONTINUOUS
 62
     4
  5
A27
 10
3090.846075
 20
4241.750068
 30
0.0
 11
3090.278515
 21
4244.959708
 31
0.0
  0
LINE
  8
1
  6
CONTINUOUS
 62
     4
  5
A28
 10
3081.588855
 20
4245.957908
 30
0.0
 11
3082.791805
 21
4244.754888
 31
0.0
  0
LINE
  8
1
  6
CONTINUOUS
 62
     4
  5
A29
 10
3081.588855
 20
4245.957908
 30
0.0
 11
3081.588855
 21
4247.604868
 31
0.0
  0
LINE
  8
1
  6
CONTINUOUS
 62
     4
  5
A2A
 10
3081.588855
 20
4240.751868
 30
0.0
 11
3082.791805
 21
4241.954888
 31
0.0
  0
LINE
  8
1
  6
CONTINUOUS
 62
     4
  5
A2B
 10
3081.588855
 20
4240.751868
 30
0.0
 11
3081.588855
 21
4239.104908
 31
0.0
  0
LINE
  8
1
  6
CONTINUOUS
 62
     4
  5
A2C
 10
3083.272005
 20
4241.750068
 30
0.0
 11
3082.704515
 21
4244.959708
 31
0.0
  0
LINE
  8
1
  6
CONTINUOUS
 62
     4
  5
A2D
 10
3078.097815
 20
4243.961648
 30
0.0
 11
3078.097815
 21
4242.748128
 31
0.0
  0
LINE
  8
1
  6
CONTINUOUS
 62
     4
  5
A2E
 10
3077.588845
 20
4243.961648
 30
0.0
 11
3078.097815
 21
4243.961648
 31
0.0
  0
LINE
  8
1
  6
CONTINUOUS
 62
     4
  5
A2F
 10
3077.588845
 20
4242.748128
 30
0.0
 11
3078.097815
 21
4242.748128
 31
0.0
  0
LINE
  8
1
  6
CONTINUOUS
 62
     4
  5
A30
 10
3077.588845
 20
4243.961648
 30
0.0
 11
3077.588845
 21
4242.748128
 31
0.0
  0
LINE
  8
1
  6
CONTINUOUS
 62
     4
  5
A31
 10
3113.057145
 20
4245.354928
 30
0.0
 11
3113.766385
 21
4241.354848
 31
0.0
  0
LINE
  8
1
  6
CONTINUOUS
 62
     4
  5
A32
 10
3116.711565
 20
4241.963568
 30
0.0
 11
3116.200005
 21
4244.848548
 31
0.0
  0
LINE
  8
1
  6
CONTINUOUS
 62
     4
  5
A33
 10
3115.212305
 20
4241.750068
 30
0.0
 11
3114.644745
 21
4244.959708
 31
0.0
  0
LINE
  8
1
  6
CONTINUOUS
 62
     4
  5
A34
 10
3118.175825
 20
4242.256448
 30
0.0
 11
3117.773185
 21
4244.533828
 31
0.0
  0
LINE
  8
1
  6
CONTINUOUS
 62
     4
  5
A35
 10
3094.774895
 20
4184.733108
 30
0.0
 11
3095.469925
 21
4180.733168
 31
0.0
  0
LINE
  8
1
  6
CONTINUOUS
 62
     4
  5
A36
 10
3097.811215
 20
4184.733108
 30
0.0
 11
3098.520455
 21
4180.733168
 31
0.0
  0
LINE
  8
1
  6
CONTINUOUS
 62
     4
  5
A37
 10
3100.864335
 20
4184.733108
 30
0.0
 11
3101.573575
 21
4180.733168
 31
0.0
  0
LINE
  8
1
  6
CONTINUOUS
 62
     4
  5
A38
 10
3103.917455
 20
4184.733108
 30
0.0
 11
3104.626625
 21
4180.733168
 31
0.0
  0
LINE
  8
1
  6
CONTINUOUS
 62
     4
  5
A39
 10
3106.967915
 20
4184.733108
 30
0.0
 11
3107.662875
 21
4180.733168
 31
0.0
  0
LINE
  8
1
  6
CONTINUOUS
 62
     4
  5
A3A
 10
3110.004025
 20
4184.733108
 30
0.0
 11
3110.713265
 21
4180.733168
 31
0.0
  0
LINE
  8
1
  6
CONTINUOUS
 62
     4
  5
A3B
 10
3093.879735
 20
4181.128248
 30
0.0
 11
3093.312105
 21
4184.338028
 31
0.0
  0
LINE
  8
1
  6
CONTINUOUS
 62
     4
  5
A3C
 10
3096.913185
 20
4181.128248
 30
0.0
 11
3096.345625
 21
4184.338028
 31
0.0
  0
LINE
  8
1
  6
CONTINUOUS
 62
     4
  5
A3D
 10
3099.966305
 20
4181.128248
 30
0.0
 11
3099.398745
 21
4184.338028
 31
0.0
  0
LINE
  8
1
  6
CONTINUOUS
 62
     4
  5
A3E
 10
3103.019425
 20
4181.128248
 30
0.0
 11
3102.451935
 21
4184.338028
 31
0.0
  0
LINE
  8
1
  6
CONTINUOUS
 62
     4
  5
A3F
 10
3106.072615
 20
4181.128248
 30
0.0
 11
3105.505055
 21
4184.338028
 31
0.0
  0
LINE
  8
1
  6
CONTINUOUS
 62
     4
  5
A40
 10
3109.106135
 20
4181.128248
 30
0.0
 11
3108.538575
 21
4184.338028
 31
0.0
  0
LINE
  8
1
  6
CONTINUOUS
 62
     4
  5
A41
 10
3112.159255
 20
4181.128248
 30
0.0
 11
3111.591625
 21
4184.338028
 31
0.0
  0
LINE
  8
1
  6
CONTINUOUS
 62
     4
  5
A42
 10
3091.723525
 20
4184.733108
 30
0.0
 11
3092.427725
 21
4180.733168
 31
0.0
  0
LINE
  8
1
  6
CONTINUOUS
 62
     4
  5
A43
 10
3081.588855
 20
4182.733068
 30
0.0
 11
3081.588855
 21
4186.983188
 31
0.0
  0
LINE
  8
1
  6
CONTINUOUS
 62
     4
  5
A44
 10
3085.676995
 20
4184.733108
 30
0.0
 11
3086.386235
 21
4180.733168
 31
0.0
  0
LINE
  8
1
  6
CONTINUOUS
 62
     4
  5
A45
 10
3088.690845
 20
4184.733108
 30
0.0
 11
3089.400085
 21
4180.733168
 31
0.0
  0
LINE
  8
1
  6
CONTINUOUS
 62
     4
  5
A46
 10
3084.798565
 20
4181.128248
 30
0.0
 11
3084.231005
 21
4184.338028
 31
0.0
  0
LINE
  8
1
  6
CONTINUOUS
 62
     4
  5
A47
 10
3087.812485
 20
4181.128248
 30
0.0
 11
3087.244925
 21
4184.338028
 31
0.0
  0
LINE
  8
1
  6
CONTINUOUS
 62
     4
  5
A48
 10
3090.846075
 20
4181.128248
 30
0.0
 11
3090.278515
 21
4184.338028
 31
0.0
  0
LINE
  8
1
  6
CONTINUOUS
 62
     4
  5
A49
 10
3081.588855
 20
4185.336088
 30
0.0
 11
3082.791805
 21
4184.133068
 31
0.0
  0
LINE
  8
1
  6
CONTINUOUS
 62
     4
  5
A4A
 10
3081.588855
 20
4185.336088
 30
0.0
 11
3081.588855
 21
4186.983188
 31
0.0
  0
LINE
  8
1
  6
CONTINUOUS
 62
     4
  5
A4B
 10
3081.588855
 20
4180.130188
 30
0.0
 11
3082.791805
 21
4181.333068
 31
0.0
  0
LINE
  8
1
  6
CONTINUOUS
 62
     4
  5
A4C
 10
3081.588855
 20
4180.130188
 30
0.0
 11
3081.588855
 21
4178.483088
 31
0.0
  0
LINE
  8
1
  6
CONTINUOUS
 62
     4
  5
A4D
 10
3083.272005
 20
4181.128248
 30
0.0
 11
3082.704515
 21
4184.338028
 31
0.0
  0
LINE
  8
1
  6
CONTINUOUS
 62
     4
  5
A4E
 10
3078.097815
 20
4183.339828
 30
0.0
 11
3078.097815
 21
4182.126448
 31
0.0
  0
LINE
  8
1
  6
CONTINUOUS
 62
     4
  5
A4F
 10
3077.588845
 20
4183.339828
 30
0.0
 11
3078.097815
 21
4183.339828
 31
0.0
  0
LINE
  8
1
  6
CONTINUOUS
 62
     4
  5
A50
 10
3077.588845
 20
4182.126448
 30
0.0
 11
3078.097815
 21
4182.126448
 31
0.0
  0
LINE
  8
1
  6
CONTINUOUS
 62
     4
  5
A51
 10
3077.588845
 20
4183.339828
 30
0.0
 11
3077.588845
 21
4182.126448
 31
0.0
  0
LINE
  8
1
  6
CONTINUOUS
 62
     4
  5
A52
 10
3113.057145
 20
4184.733108
 30
0.0
 11
3113.766385
 21
4180.733168
 31
0.0
  0
LINE
  8
1
  6
CONTINUOUS
 62
     4
  5
A53
 10
3116.711565
 20
4181.341888
 30
0.0
 11
3116.200005
 21
4184.226728
 31
0.0
  0
LINE
  8
1
  6
CONTINUOUS
 62
     4
  5
A54
 10
3115.212305
 20
4181.128248
 30
0.0
 11
3114.644745
 21
4184.338028
 31
0.0
  0
LINE
  8
1
  6
CONTINUOUS
 62
     4
  5
A55
 10
3118.175825
 20
4181.634628
 30
0.0
 11
3117.773185
 21
4183.912148
 31
0.0
  0
LINE
  8
40
  6
CONTINUOUS
 62
     4
  5
A56
 10
3087.588835
 20
4168.069048
 30
0.0
 11
3077.073295
 21
4168.069048
 31
0.0
  0
LINE
  8
40
  6
CONTINUOUS
 62
     4
  5
A57
 10
3074.956355
 20
4170.569028
 30
0.0
 11
3082.588875
 21
4170.569028
 31
0.0
  0
LINE
  8
40
  6
CONTINUOUS
 62
     4
  5
A58
 10
3068.588875
 20
4230.774068
 30
0.0
 11
3068.588875
 21
4195.243048
 31
0.0
  0
LINE
  8
40
  6
CONTINUOUS
 62
     4
  5
A59
 10
3067.588855
 20
4227.044048
 30
0.0
 11
3067.588855
 21
4199.044048
 31
0.0
  0
LINE
  8
40
  6
CONTINUOUS
 62
     4
  5
A5A
 10
3066.588835
 20
4198.459688
 30
0.0
 11
3066.588835
 21
4227.560088
 31
0.0
  0
LINE
  8
40
  6
CONTINUOUS
 62
     4
  5
A5B
 10
3065.588745
 20
4198.898028
 30
0.0
 11
3065.588745
 21
4227.163188
 31
0.0
  0
LINE
  8
12
  6
CONTINUOUS
 62
     4
  5
A5C
 10
3082.588875
 20
4189.657048
 30
0.0
 11
3082.588875
 21
4168.043988
 31
0.0
  0
LINE
  8
12
  6
CONTINUOUS
 62
     4
  5
A5D
 10
3074.981135
 20
4255.543988
 30
0.0
 11
3082.588875
 21
4255.543988
 31
0.0
  0
LINE
  8
12
  6
CONTINUOUS
 62
     4
  5
A5E
 10
3069.600655
 20
4234.694628
 30
0.0
 11
3069.571115
 21
4234.694628
 31
0.0
  0
LINE
  8
12
  6
CONTINUOUS
 62
     4
  5
A5F
 10
3070.043895
 20
4236.412568
 30
0.0
 11
3082.588875
 21
4236.412568
 31
0.0
  0
LINE
  8
12
  6
CONTINUOUS
 62
     4
  5
A60
 10
3069.696135
 20
4234.700788
 30
0.0
 11
3082.694155
 21
4236.325488
 31
0.0
  0
LINE
  8
12
  6
CONTINUOUS
 62
     4
  5
A61
 10
3069.495235
 20
4191.374848
 30
0.0
 11
3069.465765
 21
4191.374848
 31
0.0
  0
LINE
  8
12
  6
CONTINUOUS
 62
     4
  5
A62
 10
3069.938545
 20
4189.657048
 30
0.0
 11
3082.483595
 21
4189.657048
 31
0.0
  0
LINE
  8
12
  6
CONTINUOUS
 62
     4
  5
A63
 10
3069.590855
 20
4191.368688
 30
0.0
 11
3082.588875
 21
4189.743988
 31
0.0
  0
LINE
  8
12
  6
CONTINUOUS
 62
     4
  5
A64
 10
3082.588875
 20
4236.312328
 30
0.0
 11
3082.588875
 21
4255.543988
 31
0.0
  0
LINE
  8
12
  6
CONTINUOUS
 62
     4
  5
A65
 10
3081.588855
 20
4236.312328
 30
0.0
 11
3081.588855
 21
4255.543988
 31
0.0
  0
LINE
  8
12
  6
CONTINUOUS
 62
     4
  5
A66
 10
3081.588855
 20
4189.657048
 30
0.0
 11
3081.588855
 21
4168.043988
 31
0.0
  0
LINE
  8
12
  6
CONTINUOUS
 62
     4
  5
A67
 10
3081.588855
 20
4239.104908
 30
0.0
 11
3081.588855
 21
4247.604868
 31
0.0
  0
LINE
  8
12
  6
CONTINUOUS
 62
     4
  5
A68
 10
3081.588855
 20
4247.604868
 30
0.0
 11
3078.588865
 21
4247.604868
 31
0.0
  0
LINE
  8
12
  6
CONTINUOUS
 62
     4
  5
A69
 10
3081.588855
 20
4239.104908
 30
0.0
 11
3078.588865
 21
4239.104908
 31
0.0
  0
LINE
  8
12
  6
CONTINUOUS
 62
     4
  5
A6A
 10
3078.588865
 20
4239.104908
 30
0.0
 11
3081.588855
 21
4239.104908
 31
0.0
  0
LINE
  8
12
  6
CONTINUOUS
 62
     4
  5
A6B
 10
3078.588865
 20
4247.604868
 30
0.0
 11
3081.588855
 21
4247.604868
 31
0.0
  0
LINE
  8
12
  6
CONTINUOUS
 62
     4
  5
A6C
 10
3078.588865
 20
4247.604868
 30
0.0
 11
3078.588865
 21
4239.104908
 31
0.0
  0
ARC
  8
12
  6
CONTINUOUS
 62
     4
  5
A6D
 10
3087.120115
 20
4243.354888
 30
0.0
 40
9.53134
 50
153.51896
 51
206.48104
  0
LINE
  8
12
  6
CONTINUOUS
 62
     4
  5
A6E
 10
3081.588855
 20
4241.954888
 30
0.0
 11
3112.588845
 21
4241.954888
 31
0.0
  0
LINE
  8
12
  6
CONTINUOUS
 62
     4
  5
A6F
 10
3081.588855
 20
4244.754888
 30
0.0
 11
3112.588845
 21
4244.754888
 31
0.0
  0
LINE
  8
12
  6
CONTINUOUS
 62
     4
  5
A70
 10
3112.588845
 20
4241.954888
 30
0.0
 11
3112.588845
 21
4244.754888
 31
0.0
  0
LINE
  8
12
  6
CONTINUOUS
 62
     4
  5
A71
 10
3119.588845
 20
4243.354888
 30
0.0
 11
3112.588845
 21
4244.754888
 31
0.0
  0
LINE
  8
12
  6
CONTINUOUS
 62
     4
  5
A72
 10
3119.588845
 20
4243.354888
 30
0.0
 11
3112.588845
 21
4241.954888
 31
0.0
  0
LINE
  8
12
  6
CENTER
 62
     4
  5
A73
 10
3078.588865
 20
4243.354888
 30
0.0
 11
3119.588845
 21
4243.354888
 31
0.0
  0
LINE
  8
12
  6
CENTER
 62
     4
  5
A74
 10
3119.588845
 20
4243.354888
 30
0.0
 11
3080.081825
 21
4243.354888
 31
0.0
  0
LINE
  8
12
  6
CONTINUOUS
 62
     4
  5
A75
 10
3081.588855
 20
4178.483088
 30
0.0
 11
3081.588855
 21
4186.983188
 31
0.0
  0
LINE
  8
12
  6
CONTINUOUS
 62
     4
  5
A76
 10
3081.588855
 20
4186.983188
 30
0.0
 11
3078.588865
 21
4186.983188
 31
0.0
  0
LINE
  8
12
  6
CONTINUOUS
 62
     4
  5
A77
 10
3081.588855
 20
4178.483088
 30
0.0
 11
3078.588865
 21
4178.483088
 31
0.0
  0
LINE
  8
12
  6
CONTINUOUS
 62
     4
  5
A78
 10
3078.588865
 20
4178.483088
 30
0.0
 11
3081.588855
 21
4178.483088
 31
0.0
  0
LINE
  8
12
  6
CONTINUOUS
 62
     4
  5
A79
 10
3078.588865
 20
4186.983188
 30
0.0
 11
3081.588855
 21
4186.983188
 31
0.0
  0
LINE
  8
12
  6
CONTINUOUS
 62
     4
  5
A7A
 10
3078.588865
 20
4186.983188
 30
0.0
 11
3078.588865
 21
4178.483088
 31
0.0
  0
ARC
  8
12
  6
CONTINUOUS
 62
     4
  5
A7B
 10
3087.120115
 20
4182.733068
 30
0.0
 40
9.53134
 50
153.51896
 51
206.48104
  0
LINE
  8
12
  6
CONTINUOUS
 62
     4
  5
A7C
 10
3081.588855
 20
4181.333068
 30
0.0
 11
3112.588845
 21
4181.333068
 31
0.0
  0
LINE
  8
12
  6
CONTINUOUS
 62
     4
  5
A7D
 10
3081.588855
 20
4184.133068
 30
0.0
 11
3112.588845
 21
4184.133068
 31
0.0
  0
LINE
  8
12
  6
CONTINUOUS
 62
     4
  5
A7E
 10
3112.588845
 20
4181.333068
 30
0.0
 11
3112.588845
 21
4184.133068
 31
0.0
  0
LINE
  8
12
  6
CONTINUOUS
 62
     4
  5
A7F
 10
3119.588845
 20
4182.733068
 30
0.0
 11
3112.588845
 21
4184.133068
 31
0.0
  0
LINE
  8
12
  6
CONTINUOUS
 62
     4
  5
A80
 10
3119.588845
 20
4182.733068
 30
0.0
 11
3112.588845
 21
4181.333068
 31
0.0
  0
LINE
  8
12
  6
CENTER
 62
     4
  5
A81
 10
3078.588865
 20
4182.733068
 30
0.0
 11
3119.588845
 21
4182.733068
 31
0.0
  0
LINE
  8
12
  6
CENTER
 62
     4
  5
A82
 10
3119.588845
 20
4182.733068
 30
0.0
 11
3080.081825
 21
4182.733068
 31
0.0
  0
LINE
  8
12
  6
CONTINUOUS
 62
     4
  5
A83
 10
3081.836095
 20
4237.646388
 30
0.0
 11
3081.836095
 21
4249.146408
 31
0.0
  0
LINE
  8
12
  6
CONTINUOUS
 62
     4
  5
A84
 10
3082.635985
 20
4237.646388
 30
0.0
 11
3082.635985
 21
4249.146408
 31
0.0
  0
LINE
  8
12
  6
CONTINUOUS
 62
     4
  5
A85
 10
3081.836095
 20
4237.646388
 30
0.0
 11
3082.635985
 21
4237.646388
 31
0.0
  0
LINE
  8
12
  6
CONTINUOUS
 62
     4
  5
A86
 10
3081.836095
 20
4240.646308
 30
0.0
 11
3082.635985
 21
4240.646308
 31
0.0
  0
LINE
  8
12
  6
CONTINUOUS
 62
     4
  5
A87
 10
3081.836095
 20
4246.146348
 30
0.0
 11
3082.635985
 21
4246.146348
 31
0.0
  0
LINE
  8
12
  6
CONTINUOUS
 62
     4
  5
A88
 10
3081.836095
 20
4249.146408
 30
0.0
 11
3082.635985
 21
4249.146408
 31
0.0
  0
LINE
  8
12
  6
CONTINUOUS
 62
     4
  5
A89
 10
3081.836095
 20
4177.028208
 30
0.0
 11
3081.836095
 21
4188.528228
 31
0.0
  0
LINE
  8
12
  6
CONTINUOUS
 62
     4
  5
A8A
 10
3082.635985
 20
4177.028208
 30
0.0
 11
3082.635985
 21
4188.528228
 31
0.0
  0
LINE
  8
12
  6
CONTINUOUS
 62
     4
  5
A8B
 10
3081.836095
 20
4177.028208
 30
0.0
 11
3082.635985
 21
4177.028208
 31
0.0
  0
LINE
  8
12
  6
CONTINUOUS
 62
     4
  5
A8C
 10
3081.836095
 20
4180.028268
 30
0.0
 11
3082.635985
 21
4180.028268
 31
0.0
  0
LINE
  8
12
  6
CONTINUOUS
 62
     4
  5
A8D
 10
3081.836095
 20
4185.528308
 30
0.0
 11
3082.635985
 21
4185.528308
 31
0.0
  0
LINE
  8
12
  6
CONTINUOUS
 62
     4
  5
A8E
 10
3081.836095
 20
4188.528228
 30
0.0
 11
3082.635985
 21
4188.528228
 31
0.0
  0
LINE
  8
8
  6
CONTINUOUS
 62
     4
  5
A8F
 10
3068.382235
 20
4196.043568
 30
0.0
 11
3075.219765
 21
4169.548008
 31
0.0
  0
LINE
  8
8
  6
CONTINUOUS
 62
     4
  5
A90
 10
3068.351785
 20
4229.855808
 30
0.0
 11
3075.250145
 21
4256.586848
 31
0.0
  0
ARC
  8
8
  6
CONTINUOUS
 62
     4
  5
A91
 10
3064.552885
 20
4231.011788
 30
0.0
 40
4.00008
 50
270.0
 51
345.529706
  0
LINE
  8
50
  6
CENTER
 62
     4
  5
A92
 10
3081.836095
 20
4243.396328
 30
0.0
 11
3083.958075
 21
4243.396328
 31
0.0
  0
LINE
  8
50
  6
CENTER
 62
     4
  5
A93
 10
3081.836095
 20
4182.778288
 30
0.0
 11
3083.958075
 21
4182.778288
 31
0.0
  0
ARC
  8
8
  6
CONTINUOUS
 62
     4
  5
A94
 10
3064.501995
 20
4195.049568
 30
0.0
 40
4.00008
 50
14.470294
 51
90.0
  0
LINE
  8
40
  6
DOT
 62
     3
  5
A95
 10
3031.588625
 20
4636.310635
 30
0.0
 11
3031.588625
 21
4651.310655
 31
0.0
  0
LINE
  8
40
  6
DOT
 62
     3
  5
A96
 10
3031.588625
 20
4636.310635
 30
0.0
 11
3037.588745
 21
4636.310635
 31
0.0
  0
LINE
  8
40
  6
DOT
 62
     3
  5
A97
 10
3031.588625
 20
4651.310655
 30
0.0
 11
3037.588745
 21
4651.310655
 31
0.0
  0
LINE
  8
40
  6
CONTINUOUS
 62
     4
  5
A98
 10
3037.588605
 20
4657.810575
 30
0.0
 11
3060.172938
 21
4657.810575
 31
0.0
  0
LINE
  8
40
  6
CONTINUOUS
 62
     4
  5
A99
 10
3037.588605
 20
4629.810575
 30
0.0
 11
3060.172938
 21
4629.810575
 31
0.0
  0
LINE
  8
40
  6
CONTINUOUS
 62
     4
  5
A9A
 10
3037.588745
 20
4657.810575
 30
0.0
 11
3037.588745
 21
4629.810575
 31
0.0
  0
LINE
  8
40
  6
DOT
 62
     3
  5
A9B
 10
3031.588625
 20
4220.543988
 30
0.0
 11
3031.588625
 21
4205.543968
 31
0.0
  0
LINE
  8
40
  6
DOT
 62
     3
  5
A9C
 10
3031.588625
 20
4220.543988
 30
0.0
 11
3037.588745
 21
4220.543988
 31
0.0
  0
LINE
  8
40
  6
DOT
 62
     3
  5
A9D
 10
3031.588625
 20
4205.543968
 30
0.0
 11
3037.588745
 21
4205.543968
 31
0.0
  0
LINE
  8
40
  6
CONTINUOUS
 62
     4
  5
A9E
 10
3037.588605
 20
4227.044048
 30
0.0
 11
3060.172938
 21
4227.044048
 31
0.0
  0
LINE
  8
7
  6
CONTINUOUS
 62
     4
  5
A9F
 10
3067.638814
 20
4199.044048
 30
0.0
 11
3037.588605
 21
4199.044048
 31
0.0
  0
LINE
  8
7
  6
CONTINUOUS
 62
     4
  5
AA0
 10
3012.546764
 20
4199.044048
 30
0.0
 11
3012.546764
 21
4657.810575
 31
0.0
  0
ARC
  8
7
  6
CONTINUOUS
 62
     4
  5
AA1
 10
3022.5635
 20
4199.044048
 30
0.0
 40
10.016736
 50
180.0
 51
270.0
  0
LINE
  8
7
  6
CONTINUOUS
 62
     4
  5
AA2
 10
3022.5635
 20
4189.027312
 30
0.0
 11
3037.588605
 21
4189.027312
 31
0.0
  0
LINE
  8
40
  6
CONTINUOUS
 62
     4
  5
AA3
 10
3037.588605
 20
4199.044048
 30
0.0
 11
3060.172938
 21
4199.044048
 31
0.0
  0
LINE
  8
40
  6
CONTINUOUS
 62
     4
  5
AA4
 10
3037.588745
 20
4199.044048
 30
0.0
 11
3037.588745
 21
4227.044048
 31
0.0
  0
LINE
  8
7
  6
CONTINUOUS
 62
     4
  5
AA5
 10
3022.5635
 20
4667.827312
 30
0.0
 11
3037.588605
 21
4667.827312
 31
0.0
  0
LINE
  8
7
  6
CONTINUOUS
 62
     4
  5
AA6
 10
3037.588605
 20
4189.027312
 30
0.0
 11
3037.588605
 21
4667.827312
 31
0.0
  0
ARC
  8
7
  6
CONTINUOUS
 62
     4
  5
AA7
 10
3022.5635
 20
4657.810575
 30
0.0
 40
10.016736
 50
90.0
 51
180.0
  0
LINE
  8
2
  6
CONTINUOUS
 62
     2
  5
AA8
 10
3037.588605
 20
4613.043978
 30
0.0
 11
3071.953047
 21
4613.043978
 31
0.0
  0
ENDSEC
  0
EOF
