  0
SECTION
  2
HEADER
  9
$ACADVER
  1
AC1009
  9
$INSBASE
 10
0.0
 20
0.0
 30
0.0
  9
$EXTMIN
 10
48582.646329
 20
8214.437707
 30
0.0
  9
$EXTMAX
 10
51532.646329
 20
16281.906559
 30
0.0
  9
$LIMMIN
 10
46887.147718
 20
7820.98695
  9
$LIMMAX
 10
53187.147718
 20
16730.98695
  9
$ORTHOMODE
 70
     0
  9
$REGENMODE
 70
     1
  9
$FILLMODE
 70
     1
  9
$QTEXTMODE
 70
     0
  9
$MIRRTEXT
 70
     1
  9
$DRAGMODE
 70
     2
  9
$LTSCALE
 40
30.0
  9
$OSMODE
 70
     0
  9
$ATTMODE
 70
     1
  9
$TEXTSIZE
 40
0.2
  9
$TRACEWID
 40
0.05
  9
$TEXTSTYLE
  7
STANDARD
  9
$CLAYER
  8
0
  9
$CELTYPE
  6
CONTINUOUS
  9
$CECOLOR
 62
   256
  9
$DIMSCALE
 40
1.0
  9
$DIMASZ
 40
0.18
  9
$DIMEXO
 40
0.0625
  9
$DIMDLI
 40
0.38
  9
$DIMRND
 40
0.0
  9
$DIMDLE
 40
0.0
  9
$DIMEXE
 40
0.18
  9
$DIMTP
 40
0.0
  9
$DIMTM
 40
0.0
  9
$DIMTXT
 40
0.18
  9
$DIMCEN
 40
0.09
  9
$DIMTSZ
 40
0.0
  9
$DIMTOL
 70
     0
  9
$DIMLIM
 70
     0
  9
$DIMTIH
 70
     1
  9
$DIMTOH
 70
     1
  9
$DIMSE1
 70
     0
  9
$DIMSE2
 70
     0
  9
$DIMTAD
 70
     0
  9
$DIMZIN
 70
     0
  9
$DIMBLK
  1

  9
$DIMASO
 70
     1
  9
$DIMSHO
 70
     1
  9
$DIMPOST
  1

  9
$DIMAPOST
  1

  9
$DIMALT
 70
     0
  9
$DIMALTD
 70
     2
  9
$DIMALTF
 40
25.4
  9
$DIMLFAC
 40
1.0
  9
$DIMTOFL
 70
     0
  9
$DIMTVP
 40
0.0
  9
$DIMTIX
 70
     0
  9
$DIMSOXD
 70
     0
  9
$DIMSAH
 70
     0
  9
$DIMBLK1
  1

  9
$DIMBLK2
  1

  9
$DIMSTYLE
  2
STANDARD
  9
$DIMCLRD
 70
     0
  9
$DIMCLRE
 70
     0
  9
$DIMCLRT
 70
     0
  9
$DIMTFAC
 40
1.0
  9
$DIMGAP
 40
0.09
  9
$LUNITS
 70
     2
  9
$LUPREC
 70
     4
  9
$AXISMODE
 70
     0
  9
$AXISUNIT
 10
0.0
 20
0.0
  9
$SKETCHINC
 40
0.1
  9
$FILLETRAD
 40
0.0
  9
$AUNITS
 70
     0
  9
$AUPREC
 70
     0
  9
$MENU
  1
acad
  9
$ELEVATION
 40
0.0
  9
$PELEVATION
 40
0.0
  9
$THICKNESS
 40
0.0
  9
$LIMCHECK
 70
     0
  9
$BLIPMODE
 70
     1
  9
$CHAMFERA
 40
0.0
  9
$CHAMFERB
 40
0.0
  9
$SKPOLY
 70
     0
  9
$TDCREATE
 40
0.000000000
  9
$TDUPDATE
 40
0.000000000
  9
$TDINDWG
 40
0.0000000000
  9
$TDUSRTIMER
 40
0.0000000000
  9
$USRTIMER
 70
     1
  9
$ANGBASE
 50
0.0
  9
$ANGDIR
 70
     0
  9
$PDMODE
 70
     0
  9
$PDSIZE
 40
0.0
  9
$PLINEWID
 40
0.0
  9
$COORDS
 70
     0
  9
$SPLFRAME
 70
     0
  9
$SPLINETYPE
 70
     6
  9
$SPLINESEGS
 70
     8
  9
$ATTDIA
 70
     0
  9
$ATTREQ
 70
     1
  9
$HANDLING
 70
     1
  9
$HANDSEED
  5
476
  9
$SURFTAB1
 70
     6
  9
$SURFTAB2
 70
     6
  9
$SURFTYPE
 70
     6
  9
$SURFU
 70
     6
  9
$SURFV
 70
     6
  9
$UCSNAME
  2

  9
$UCSORG
 10
0.0
 20
0.0
 30
0.0
  9
$UCSXDIR
 10
1.0
 20
0.0
 30
0.0
  9
$UCSYDIR
 10
0.0
 20
1.0
 30
0.0
  9
$PUCSNAME
  2

  9
$PUCSORG
 10
0.0
 20
0.0
 30
0.0
  9
$PUCSXDIR
 10
1.0
 20
0.0
 30
0.0
  9
$PUCSYDIR
 10
0.0
 20
1.0
 30
0.0
  9
$USERI1
 70
     0
  9
$USERI2
 70
     0
  9
$USERI3
 70
     0
  9
$USERI4
 70
     0
  9
$USERI5
 70
     0
  9
$USERR1
 40
0.0
  9
$USERR2
 40
0.0
  9
$USERR3
 40
0.0
  9
$USERR4
 40
0.0
  9
$USERR5
 40
0.0
  9
$WORLDVIEW
 70
     1
  9
$SHADEDGE
 70
     3
  9
$SHADEDIF
 70
    70
  9
$TILEMODE
 70
     1
  9
$MAXACTVP
 70
    16
  9
$PINSBASE
 10
0.0
 20
0.0
 30
0.0
  9
$PLIMCHECK
 70
     0
  9
$PEXTMIN
 10
1.000000E+20
 20
1.000000E+20
 30
1.000000E+20
  9
$PEXTMAX
 10
-1.000000E+20
 20
-1.000000E+20
 30
-1.000000E+20
  9
$PLIMMIN
 10
0.0
 20
0.0
  9
$PLIMMAX
 10
12.0
 20
9.0
  9
$UNITMODE
 70
     0
  9
$VISRETAIN
 70
     0
  9
$PLINEGEN
 70
     1
  9
$PSLTSCALE
 70
     0
  9
$TREEDEPTH
 70
  3020
  9
$DWGCODEPAGE
  3
dos932
  0
ENDSEC
  0
SECTION
  2
TABLES
  0
TABLE
  2
VPORT
 70
     1
  0
VPORT
  2
*ACTIVE
 70
     0
 10
0.0
 20
0.0
 11
1.0
 21
1.0
 12
50037.147718
 22
12275.98695
 13
0.0
 23
0.0
 14
1000.0
 24
1000.0
 15
1000.0
 25
1000.0
 16
0.0
 26
0.0
 36
1.0
 17
0.0
 27
0.0
 37
0.0
 40
8910.0
 41
0.707071
 42
50.0
 43
0.0
 44
0.0
 50
0.0
 51
0.0
 71
     0
 72
   100
 73
     1
 74
     1
 75
     0
 76
     0
 77
     0
 78
     0
  0
ENDTAB
  0
TABLE
  2
LTYPE
 70
     9
  0
LTYPE
  2
CONTINUOUS
 70
    64
  3
Solid line
 72
    65
 73
     0
 40
0.0
  0
LTYPE
  2
HIDDEN
 70
    64
  3
__ __ __ __ __ __ __ __ __ __ __ __ __ __ __ __
 72
    65
 73
     5
 40
8.0
 49
1.0
 49
-2.0
 49
2.0
 49
-2.0
 49
1.0
  0
LTYPE
  2
DOT
 70
    64
  3
. . . . . . . . . . . . . . . . . . . . . . . .
 72
    65
 73
     3
 40
1.6
 49
0.4
 49
-0.8
 49
0.4
  0
LTYPE
  2
CENTER
 70
    64
  3
____ _ ____ _ ____ _ ____ _ ____ _ ____ _ ____ 
 72
    65
 73
     5
 40
12.0
 49
5.0
 49
-0.8
 49
0.4
 49
-0.8
 49
5.0
  0
LTYPE
  2
DIVIDE
 70
    64
  3
____ . . ____ . . ____ . . ____ . . ____ . . __
 72
    65
 73
     7
 40
13.2
 49
5.0
 49
-0.8
 49
0.4
 49
-0.8
 49
0.4
 49
-0.8
 49
5.0
  0
LTYPE
  2
DASHED1
 70
     0
  3
Solid Line
 72
    65
 73
     2
 40
2.5
 49
1.25
 49
-1.25
  0
LTYPE
  2
DASHED3
 70
     0
  3
Solid Line
 72
    65
 73
     2
 40
5.0
 49
3.75
 49
-1.25
  0
LTYPE
  2
CENTER1
 70
     0
  3
Solid Line
 72
    65
 73
     4
 40
10.0
 49
6.25
 49
-1.25
 49
1.25
 49
-1.25
  0
LTYPE
  2
PHANTOM1
 70
     0
  3
Solid Line
 72
    65
 73
     6
 40
9.5
 49
3.25
 49
-1.25
 49
1.25
 49
-1.25
 49
1.25
 49
-1.25
  0
ENDTAB
  0
TABLE
  2
LAYER
 70
    27
  0
LAYER
  2
0
 70
     0
 62
     7
  6
CONTINUOUS
  0
LAYER
  2
1
 70
     0
 62
     1
  6
CONTINUOUS
  0
LAYER
  2
2
 70
     0
 62
     1
  6
CONTINUOUS
  0
LAYER
  2
3
 70
     0
 62
     1
  6
CONTINUOUS
  0
LAYER
  2
4
 70
     0
 62
     1
  6
CONTINUOUS
  0
LAYER
  2
5
 70
     0
 62
     1
  6
CONTINUOUS
  0
LAYER
  2
6
 70
     0
 62
     1
  6
CONTINUOUS
  0
LAYER
  2
7
 70
     0
 62
     1
  6
CONTINUOUS
  0
LAYER
  2
8
 70
     0
 62
     1
  6
CONTINUOUS
  0
LAYER
  2
9
 70
     0
 62
     1
  6
CONTINUOUS
  0
LAYER
  2
10
 70
     0
 62
     1
  6
CONTINUOUS
  0
LAYER
  2
11
 70
     0
 62
     1
  6
CONTINUOUS
  0
LAYER
  2
12
 70
     0
 62
     1
  6
CONTINUOUS
  0
LAYER
  2
13
 70
     0
 62
     1
  6
CONTINUOUS
  0
LAYER
  2
14
 70
     0
 62
     1
  6
CONTINUOUS
  0
LAYER
  2
15
 70
     0
 62
     1
  6
CONTINUOUS
  0
LAYER
  2
16
 70
     0
 62
     1
  6
CONTINUOUS
  0
LAYER
  2
20
 70
     0
 62
     1
  6
CONTINUOUS
  0
LAYER
  2
21
 70
     0
 62
     1
  6
CONTINUOUS
  0
LAYER
  2
22
 70
     0
 62
     1
  6
CONTINUOUS
  0
LAYER
  2
40
 70
     0
 62
     1
  6
CONTINUOUS
  0
LAYER
  2
50
 70
     0
 62
     1
  6
CONTINUOUS
  0
LAYER
  2
52
 70
     0
 62
     1
  6
CONTINUOUS
  0
LAYER
  2
54
 70
     0
 62
     1
  6
CONTINUOUS
  0
LAYER
  2
55
 70
     0
 62
     1
  6
CONTINUOUS
  0
LAYER
  2
80
 70
     0
 62
     1
  6
CONTINUOUS
  0
LAYER
  2
100
 70
     0
 62
     1
  6
CONTINUOUS
  0
ENDTAB
  0
TABLE
  2
STYLE
 70
     3
  0
STYLE
  2
STANDARD
 70
     0
 40
0.0
 41
1.0
 50
0.0
 71
     0
 42
0.0
  3
txt
  4

  0
STYLE
  2

 70
     0
 40
1000.0
 41
1.0
 50
0.0
 71
     0
 42
1000.0
  3
txt
  4
extfont
  0
STYLE
  2

 70
     0
 40
1000.0
 41
1.0
 50
0.0
 71
     0
 42
1000.0
  3
txt
  4
extfont
  0
ENDTAB
  0
TABLE
  2
VIEW
 70
     0
  0
ENDTAB
  0
TABLE
  2
UCS
 70
     0
  0
ENDTAB
  0
TABLE
  2
APPID
 70
     1
  0
APPID
  2
ACAD
 70
     0
  0
ENDTAB
  0
TABLE
  2
DIMSTYLE
 70
     1
  0
DIMSTYLE
  2
STANDARD
 70
     0
  3

  4

  5

  6

  7

 40
1.0
 41
0.18
 42
0.0625
 43
0.38
 44
0.18
 45
0.0
 46
0.0
 47
0.0
 48
0.0
 71
     0
 72
     0
 73
     1
 74
     1
 75
     0
 76
     0
 77
     0
 78
     0
140
0.18
141
0.09
142
0.0
143
25.4
144
1.0
145
0.0
146
1.0
147
0.09
170
     0
171
     2
172
     0
173
     0
174
     0
175
     0
176
     0
177
     0
178
     0
  0
ENDTAB
  0
ENDSEC
  0
SECTION
  2
BLOCKS
  0
ENDSEC
  0
SECTION
  2
ENTITIES
  0
LINE
  8
21
  6
CONTINUOUS
 62
     2
  5
102
 10
51130.146329
 20
13871.906559
 30
0.0
 11
51140.146329
 21
13871.906559
 31
0.0
  0
LINE
  8
21
  6
CONTINUOUS
 62
     2
  5
103
 10
51200.146329
 20
13901.906559
 30
0.0
 11
51200.146329
 21
13871.906559
 31
0.0
  0
LINE
  8
21
  6
CONTINUOUS
 62
     2
  5
104
 10
51200.146329
 20
13871.906559
 30
0.0
 11
51190.146329
 21
13871.906559
 31
0.0
  0
LINE
  8
21
  6
CONTINUOUS
 62
     2
  5
105
 10
51130.146329
 20
13901.906559
 30
0.0
 11
51200.146329
 21
13901.906559
 31
0.0
  0
LINE
  8
21
  6
CONTINUOUS
 62
     2
  5
106
 10
51130.146329
 20
14746.906559
 30
0.0
 11
51140.146329
 21
14746.906559
 31
0.0
  0
LINE
  8
21
  6
CONTINUOUS
 62
     2
  5
107
 10
51200.146329
 20
14716.906559
 30
0.0
 11
51200.146329
 21
14746.906559
 31
0.0
  0
LINE
  8
21
  6
CONTINUOUS
 62
     2
  5
108
 10
51200.146329
 20
14746.906559
 30
0.0
 11
51190.146329
 21
14746.906559
 31
0.0
  0
LINE
  8
21
  6
CONTINUOUS
 62
     2
  5
109
 10
51130.146329
 20
14716.906559
 30
0.0
 11
51200.146329
 21
14716.906559
 31
0.0
  0
LINE
  8
10
  6
CONTINUOUS
 62
     5
  5
10A
 10
51052.146329
 20
15827.406559
 30
0.0
 11
51052.146329
 21
14756.906559
 31
0.0
  0
LINE
  8
20
  6
CONTINUOUS
 62
     5
  5
10B
 10
49844.146329
 20
12668.406559
 30
0.0
 11
49844.146329
 21
12645.906559
 31
0.0
  0
LINE
  8
10
  6
CONTINUOUS
 62
     5
  5
10C
 10
49844.146329
 20
12668.406559
 30
0.0
 11
49844.146329
 21
12768.406559
 31
0.0
  0
LINE
  8
20
  6
CONTINUOUS
 62
     5
  5
10D
 10
49844.146329
 20
12768.406559
 30
0.0
 11
49844.146329
 21
12807.406559
 31
0.0
  0
LINE
  8
10
  6
CONTINUOUS
 62
     5
  5
10E
 10
51045.146329
 20
12797.406559
 30
0.0
 11
51052.146329
 21
12797.406559
 31
0.0
  0
LINE
  8
10
  6
CONTINUOUS
 62
     5
  5
10F
 10
49044.146329
 20
12637.406559
 30
0.0
 11
49044.146329
 21
12807.406559
 31
0.0
  0
LINE
  8
15
  6
CONTINUOUS
 62
     5
  5
110
 10
51130.146329
 20
13901.906559
 30
0.0
 11
51200.146329
 21
13901.906559
 31
0.0
  0
LINE
  8
15
  6
CONTINUOUS
 62
     5
  5
111
 10
49069.146329
 20
12649.406559
 30
0.0
 11
49069.146329
 21
12749.406559
 31
0.0
  0
LINE
  8
15
  6
CONTINUOUS
 62
     5
  5
112
 10
49819.146329
 20
12649.406559
 30
0.0
 11
49819.146329
 21
12749.406559
 31
0.0
  0
LINE
  8
10
  6
CONTINUOUS
 62
     5
  5
113
 10
51200.146329
 20
14731.906559
 30
0.0
 11
51265.146329
 21
14731.906559
 31
0.0
  0
LINE
  8
15
  6
CONTINUOUS
 62
     5
  5
114
 10
51130.146329
 20
14716.906559
 30
0.0
 11
51200.146329
 21
14716.906559
 31
0.0
  0
LINE
  8
10
  6
CONTINUOUS
 62
     5
  5
115
 10
49844.146329
 20
12797.406559
 30
0.0
 11
51045.146329
 21
12797.406559
 31
0.0
  0
LINE
  8
20
  6
CONTINUOUS
 62
     5
  5
116
 10
49819.146329
 20
12807.406559
 30
0.0
 11
49819.146329
 21
12645.906559
 31
0.0
  0
LINE
  8
20
  6
CONTINUOUS
 62
     5
  5
117
 10
49844.146329
 20
12645.906559
 30
0.0
 11
49819.146329
 21
12645.906559
 31
0.0
  0
LINE
  8
20
  6
CONTINUOUS
 62
     5
  5
118
 10
49844.146329
 20
12807.406559
 30
0.0
 11
49819.146329
 21
12807.406559
 31
0.0
  0
LINE
  8
10
  6
CONTINUOUS
 62
     5
  5
119
 10
51045.146329
 20
14756.906559
 30
0.0
 11
51045.146329
 21
15820.406559
 31
0.0
  0
LINE
  8
12
  6
CONTINUOUS
 62
     5
  5
11A
 10
51045.146329
 20
15820.406559
 30
0.0
 11
49044.146329
 21
15820.406559
 31
0.0
  0
LINE
  8
20
  6
CONTINUOUS
 62
     5
  5
11B
 10
49069.146329
 20
12807.406559
 30
0.0
 11
49069.146329
 21
12626.906559
 31
0.0
  0
LINE
  8
20
  6
CONTINUOUS
 62
     5
  5
11C
 10
49044.146329
 20
12807.406559
 30
0.0
 11
49069.146329
 21
12807.406559
 31
0.0
  0
LINE
  8
20
  6
CONTINUOUS
 62
     5
  5
11D
 10
49069.146329
 20
12626.906559
 30
0.0
 11
49044.146329
 21
12626.906559
 31
0.0
  0
LINE
  8
10
  6
CONTINUOUS
 62
     5
  5
11E
 10
48902.646329
 20
12637.406559
 30
0.0
 11
49044.146329
 21
12637.406559
 31
0.0
  0
LINE
  8
20
  6
CONTINUOUS
 62
     5
  5
11F
 10
49044.146329
 20
12626.906559
 30
0.0
 11
49044.146329
 21
12637.406559
 31
0.0
  0
LINE
  8
10
  6
CONTINUOUS
 62
     5
  5
120
 10
48902.646329
 20
12649.406559
 30
0.0
 11
48902.646329
 21
12637.406559
 31
0.0
  0
LINE
  8
10
  6
CONTINUOUS
 62
     5
  5
121
 10
48902.646329
 20
15961.906559
 30
0.0
 11
48902.646329
 21
12649.406559
 31
0.0
  0
LINE
  8
12
  6
CONTINUOUS
 62
     5
  5
122
 10
49044.146329
 20
15820.406559
 30
0.0
 11
49044.146329
 21
12807.406559
 31
0.0
  0
LINE
  8
10
  6
CONTINUOUS
 62
     5
  5
123
 10
51265.146329
 20
14731.906559
 30
0.0
 11
51215.146329
 21
14731.906559
 31
0.0
  0
LINE
  8
10
  6
CONTINUOUS
 62
     5
  5
124
 10
51200.146329
 20
13886.906559
 30
0.0
 11
51295.146329
 21
13886.906559
 31
0.0
  0
LINE
  8
3
  6
CONTINUOUS
 62
     6
  5
125
 10
50719.886582
 20
13514.695813
 30
0.0
 11
50676.478582
 21
13510.061813
 31
0.0
  0
LINE
  8
3
  6
CONTINUOUS
 62
     6
  5
126
 10
50676.478582
 20
13510.061813
 30
0.0
 11
50634.389582
 21
13496.301813
 31
0.0
  0
LINE
  8
3
  6
CONTINUOUS
 62
     6
  5
127
 10
50634.389582
 20
13496.301813
 30
0.0
 11
50594.897582
 21
13473.832813
 31
0.0
  0
LINE
  8
3
  6
CONTINUOUS
 62
     6
  5
128
 10
50594.897582
 20
13473.832813
 30
0.0
 11
50559.203582
 21
13443.338813
 31
0.0
  0
LINE
  8
3
  6
CONTINUOUS
 62
     6
  5
129
 10
50559.203582
 20
12976.051813
 30
0.0
 11
50594.897582
 21
12945.557813
 31
0.0
  0
LINE
  8
3
  6
CONTINUOUS
 62
     6
  5
12A
 10
50594.897582
 20
12945.557813
 30
0.0
 11
50634.389582
 21
12923.088813
 31
0.0
  0
LINE
  8
3
  6
CONTINUOUS
 62
     6
  5
12B
 10
50634.389582
 20
12923.088813
 30
0.0
 11
50676.478582
 21
12909.328813
 31
0.0
  0
LINE
  8
3
  6
CONTINUOUS
 62
     6
  5
12C
 10
50676.478582
 20
12909.328813
 30
0.0
 11
50719.886582
 21
12904.695813
 31
0.0
  0
LINE
  8
3
  6
CONTINUOUS
 62
     6
  5
12D
 10
50719.886582
 20
12904.695813
 30
0.0
 11
50763.294582
 21
12909.328813
 31
0.0
  0
LINE
  8
3
  6
CONTINUOUS
 62
     6
  5
12E
 10
50763.294582
 20
12909.328813
 30
0.0
 11
50805.384582
 21
12923.088813
 31
0.0
  0
LINE
  8
3
  6
CONTINUOUS
 62
     6
  5
12F
 10
50805.384582
 20
12923.088813
 30
0.0
 11
50844.875582
 21
12945.557813
 31
0.0
  0
LINE
  8
3
  6
CONTINUOUS
 62
     6
  5
130
 10
50844.875582
 20
12945.557813
 30
0.0
 11
50880.569582
 21
12976.051813
 31
0.0
  0
LINE
  8
3
  6
CONTINUOUS
 62
     6
  5
131
 10
50880.569582
 20
12976.051813
 30
0.0
 11
50911.380582
 21
13013.644813
 31
0.0
  0
LINE
  8
3
  6
CONTINUOUS
 62
     6
  5
132
 10
50911.380582
 20
13013.644813
 30
0.0
 11
50936.374582
 21
13057.195813
 31
0.0
  0
LINE
  8
3
  6
CONTINUOUS
 62
     6
  5
133
 10
50936.374582
 20
13057.195813
 30
0.0
 11
50954.789582
 21
13105.378813
 31
0.0
  0
LINE
  8
3
  6
CONTINUOUS
 62
     6
  5
134
 10
50954.789582
 20
13105.378813
 30
0.0
 11
50966.067582
 21
13156.732813
 31
0.0
  0
LINE
  8
3
  6
CONTINUOUS
 62
     6
  5
135
 10
50966.067582
 20
13156.732813
 30
0.0
 11
50969.864582
 21
13209.695813
 31
0.0
  0
LINE
  8
3
  6
CONTINUOUS
 62
     6
  5
136
 10
50969.864582
 20
13209.695813
 30
0.0
 11
50966.067582
 21
13262.657813
 31
0.0
  0
LINE
  8
3
  6
CONTINUOUS
 62
     6
  5
137
 10
50966.067582
 20
13262.657813
 30
0.0
 11
50954.789582
 21
13314.011813
 31
0.0
  0
LINE
  8
3
  6
CONTINUOUS
 62
     6
  5
138
 10
50954.789582
 20
13314.011813
 30
0.0
 11
50936.374582
 21
13362.195813
 31
0.0
  0
LINE
  8
3
  6
CONTINUOUS
 62
     6
  5
139
 10
50936.374582
 20
13362.195813
 30
0.0
 11
50911.380582
 21
13405.745813
 31
0.0
  0
LINE
  8
3
  6
CONTINUOUS
 62
     6
  5
13A
 10
50911.380582
 20
13405.745813
 30
0.0
 11
50880.569582
 21
13443.338813
 31
0.0
  0
LINE
  8
3
  6
CONTINUOUS
 62
     6
  5
13B
 10
50880.569582
 20
13443.338813
 30
0.0
 11
50844.875582
 21
13473.832813
 31
0.0
  0
LINE
  8
3
  6
CONTINUOUS
 62
     6
  5
13C
 10
50844.875582
 20
13473.832813
 30
0.0
 11
50805.384582
 21
13496.301813
 31
0.0
  0
LINE
  8
3
  6
CONTINUOUS
 62
     6
  5
13D
 10
50805.384582
 20
13496.301813
 30
0.0
 11
50763.294582
 21
13510.061813
 31
0.0
  0
LINE
  8
3
  6
CONTINUOUS
 62
     6
  5
13E
 10
50763.294582
 20
13510.061813
 30
0.0
 11
50719.886582
 21
13514.695813
 31
0.0
  0
LINE
  8
3
  6
CONTINUOUS
 62
     6
  5
13F
 10
50559.203582
 20
13443.338813
 30
0.0
 11
50528.392582
 21
13405.745813
 31
0.0
  0
LINE
  8
3
  6
CONTINUOUS
 62
     6
  5
140
 10
50528.392582
 20
13405.745813
 30
0.0
 11
50503.399582
 21
13362.195813
 31
0.0
  0
LINE
  8
3
  6
CONTINUOUS
 62
     6
  5
141
 10
50503.399582
 20
13362.195813
 30
0.0
 11
50484.984582
 21
13314.011813
 31
0.0
  0
LINE
  8
3
  6
CONTINUOUS
 62
     6
  5
142
 10
50484.984582
 20
13314.011813
 30
0.0
 11
50473.706582
 21
13262.657813
 31
0.0
  0
LINE
  8
3
  6
CONTINUOUS
 62
     6
  5
143
 10
50473.706582
 20
13156.732813
 30
0.0
 11
50484.984582
 21
13105.378813
 31
0.0
  0
LINE
  8
3
  6
CONTINUOUS
 62
     6
  5
144
 10
50484.984582
 20
13105.378813
 30
0.0
 11
50503.399582
 21
13057.195813
 31
0.0
  0
LINE
  8
3
  6
CONTINUOUS
 62
     6
  5
145
 10
50503.399582
 20
13057.195813
 30
0.0
 11
50528.392582
 21
13013.644813
 31
0.0
  0
LINE
  8
3
  6
CONTINUOUS
 62
     6
  5
146
 10
50528.392582
 20
13013.644813
 30
0.0
 11
50559.203582
 21
12976.051813
 31
0.0
  0
LINE
  8
3
  6
CONTINUOUS
 62
     6
  5
147
 10
50473.706582
 20
13262.657813
 30
0.0
 11
50469.908582
 21
13209.695813
 31
0.0
  0
LINE
  8
3
  6
CONTINUOUS
 62
     6
  5
148
 10
50469.908582
 20
13209.695813
 30
0.0
 11
50473.706582
 21
13156.732813
 31
0.0
  0
ARC
  8
3
  6
CONTINUOUS
 62
     6
  5
149
 10
50714.146329
 20
14309.406559
 30
0.0
 40
82.999807
 50
108.083999
 51
251.91598
  0
LINE
  8
3
  6
CONTINUOUS
 62
     6
  5
14A
 10
50921.146329
 20
14474.407559
 30
0.0
 11
50858.144329
 21
14474.407559
 31
0.0
  0
LINE
  8
3
  6
CONTINUOUS
 62
     6
  5
14B
 10
50921.146329
 20
14144.410559
 30
0.0
 11
50858.144329
 21
14144.410559
 31
0.0
  0
ARC
  8
3
  6
CONTINUOUS
 62
     6
  5
14C
 10
50858.144329
 20
14364.408559
 30
0.0
 40
110.00001
 50
90.0
 51
133.403991
  0
ARC
  8
3
  6
CONTINUOUS
 62
     6
  5
14D
 10
50610.774329
 20
14625.956559
 30
0.0
 40
249.99997
 50
288.08448
 51
313.40399
  0
ARC
  8
3
  6
CONTINUOUS
 62
     6
  5
14E
 10
50858.144329
 20
14254.409559
 30
0.0
 40
110.00001
 50
226.59599
 51
270.0
  0
ARC
  8
3
  6
CONTINUOUS
 62
     6
  5
14F
 10
50610.774329
 20
13992.856559
 30
0.0
 40
249.99997
 50
46.59599
 51
71.91598
  0
ARC
  8
3
  6
CONTINUOUS
 62
     6
  5
150
 10
50407.149562
 20
15379.458646
 30
0.0
 40
126.99999
 50
137.328994
 51
222.67068
  0
ARC
  8
3
  6
CONTINUOUS
 62
     6
  5
151
 10
49914.482562
 20
20158.980646
 30
0.0
 40
4999.9999
 50
278.37501
 51
280.43699
  0
ARC
  8
3
  6
CONTINUOUS
 62
     6
  5
152
 10
50539.529562
 20
15501.427646
 30
0.0
 40
307.0
 50
222.64878
 51
289.64501
  0
ARC
  8
3
  6
CONTINUOUS
 62
     6
  5
153
 10
50539.529562
 20
15257.498646
 30
0.0
 40
307.0
 50
70.3543
 51
137.350997
  0
ARC
  8
3
  6
CONTINUOUS
 62
     6
  5
154
 10
49914.482562
 20
10599.950646
 30
0.0
 40
4999.9999
 50
79.56298
 51
81.62495
  0
ARC
  8
3
  6
CONTINUOUS
 62
     6
  5
155
 10
53827.142562
 20
15379.458646
 30
0.0
 40
3010.0
 50
176.061996
 51
183.939987
  0
ARC
  8
3
  6
CONTINUOUS
 62
     6
  5
156
 10
51020.651562
 20
15574.457646
 30
0.0
 40
34.999999
 50
45.58499
 51
90.0
  0
ARC
  8
3
  6
CONTINUOUS
 62
     6
  5
157
 10
51020.651562
 20
15184.458646
 30
0.0
 40
34.999999
 50
270.0
 51
314.41499
  0
LINE
  8
3
  6
CONTINUOUS
 62
     6
  5
158
 10
50849.189562
 20
15149.458646
 30
0.0
 11
51020.651562
 21
15149.458647
 31
0.0
  0
LINE
  8
3
  6
CONTINUOUS
 62
     6
  5
159
 10
51020.651562
 20
15609.457645
 30
0.0
 11
50849.189562
 21
15609.459646
 31
0.0
  0
ARC
  8
3
  6
CONTINUOUS
 62
     6
  5
15A
 10
50849.189562
 20
15174.460646
 30
0.0
 40
24.9999
 50
183.594879
 51
269.99938
  0
ARC
  8
3
  6
CONTINUOUS
 62
     6
  5
15B
 10
50849.189562
 20
15584.458646
 30
0.0
 40
24.999999
 50
90.000992
 51
176.061996
  0
LINE
  8
15
  6
CONTINUOUS
 62
     6
  5
15C
 10
49069.146329
 20
12699.406559
 30
0.0
 11
49819.146329
 21
12699.406559
 31
0.0
  0
LINE
  8
15
  6
CONTINUOUS
 62
     6
  5
15D
 10
49444.146329
 20
12799.406559
 30
0.0
 11
49444.146329
 21
12599.406559
 31
0.0
  0
ARC
  8
15
  6
CONTINUOUS
 62
     6
  5
15E
 10
49069.146329
 20
12749.406559
 30
0.0
 40
750.0
 50
360.0
 51
90.0
  0
LINE
  8
15
  6
CONTINUOUS
 62
     6
  5
15F
 10
49069.146329
 20
12749.406559
 30
0.0
 11
49069.146329
 21
13499.406559
 31
0.0
  0
LINE
  8
15
  6
CONTINUOUS
 62
     6
  5
160
 10
49069.146329
 20
12749.406559
 30
0.0
 11
49069.146329
 21
13499.406559
 31
0.0
  0
LINE
  8
50
  6
CENTER
 62
     2
  5
161
 10
48902.646329
 20
15899.406559
 30
0.0
 11
51295.146329
 21
15899.406559
 31
0.0
  0
LINE
  8
50
  6
CENTER
 62
     2
  5
162
 10
48902.646329
 20
12699.406559
 30
0.0
 11
51295.146329
 21
12699.406559
 31
0.0
  0
LINE
  8
100
  6
CENTER
 62
     2
  5
163
 10
51165.146329
 20
12655.906559
 30
0.0
 11
51165.146329
 21
15961.906559
 31
0.0
  0
LINE
  8
50
  6
CENTER
 62
     2
  5
164
 10
48965.146329
 20
12655.906559
 30
0.0
 11
48965.146329
 21
15961.906559
 31
0.0
  0
LINE
  8
21
  6
CONTINUOUS
 62
     2
  5
165
 10
51130.146329
 20
13901.906559
 30
0.0
 11
51130.146329
 21
13871.906559
 31
0.0
  0
LINE
  8
21
  6
CONTINUOUS
 62
     2
  5
166
 10
51130.146329
 20
14716.906559
 30
0.0
 11
51130.146329
 21
14746.906559
 31
0.0
  0
LINE
  8
10
  6
CONTINUOUS
 62
     5
  5
167
 10
51130.146329
 20
13861.906559
 30
0.0
 11
51130.146329
 21
13886.906559
 31
0.0
  0
LINE
  8
10
  6
CONTINUOUS
 62
     5
  5
168
 10
51130.146329
 20
14756.906559
 30
0.0
 11
51130.146329
 21
14731.906559
 31
0.0
  0
LINE
  8
10
  6
CONTINUOUS
 62
     5
  5
169
 10
51045.146329
 20
14756.906559
 30
0.0
 11
51130.146329
 21
14756.906559
 31
0.0
  0
LINE
  8
10
  6
CONTINUOUS
 62
     6
  5
16A
 10
51045.146329
 20
14756.906559
 30
0.0
 11
51035.146329
 21
14756.906559
 31
0.0
  0
LINE
  8
10
  6
CONTINUOUS
 62
     6
  5
16B
 10
51035.146329
 20
14731.906559
 30
0.0
 11
51130.146329
 21
14731.906559
 31
0.0
  0
LINE
  8
10
  6
CONTINUOUS
 62
     6
  5
16C
 10
51035.146329
 20
14756.906559
 30
0.0
 11
51035.146329
 21
14731.906559
 31
0.0
  0
LINE
  8
15
  6
CONTINUOUS
 62
     6
  5
16D
 10
51200.146329
 20
14716.906559
 30
0.0
 11
51200.146329
 21
13901.906559
 31
0.0
  0
LINE
  8
15
  6
CONTINUOUS
 62
     6
  5
16E
 10
51175.146329
 20
14289.406559
 30
0.0
 11
51175.146329
 21
14716.906559
 31
0.0
  0
LINE
  8
15
  6
CONTINUOUS
 62
     6
  5
16F
 10
51112.646329
 20
14309.406559
 30
0.0
 11
51217.646329
 21
14309.406559
 31
0.0
  0
LINE
  8
15
  6
CONTINUOUS
 62
     6
  5
170
 10
51155.146329
 20
13901.906559
 30
0.0
 11
51155.146329
 21
14329.406559
 31
0.0
  0
LINE
  8
15
  6
CONTINUOUS
 62
     6
  5
171
 10
51130.146329
 20
13901.906559
 30
0.0
 11
51130.146329
 21
14716.906559
 31
0.0
  0
LINE
  8
10
  6
CONTINUOUS
 62
     6
  5
172
 10
51035.146329
 20
13861.906559
 30
0.0
 11
51035.146329
 21
13886.906559
 31
0.0
  0
LINE
  8
10
  6
CONTINUOUS
 62
     6
  5
173
 10
51035.146329
 20
13886.906559
 30
0.0
 11
51130.146329
 21
13886.906559
 31
0.0
  0
LINE
  8
13
  6
CONTINUOUS
 62
     6
  5
174
 10
51035.146329
 20
13886.906559
 30
0.0
 11
51035.146329
 21
14731.906559
 31
0.0
  0
LINE
  8
10
  6
CONTINUOUS
 62
     5
  5
175
 10
51045.146329
 20
13861.906559
 30
0.0
 11
51130.146329
 21
13861.906559
 31
0.0
  0
LINE
  8
10
  6
CONTINUOUS
 62
     5
  5
176
 10
51045.146329
 20
13861.906559
 30
0.0
 11
51045.146329
 21
12797.406559
 31
0.0
  0
LINE
  8
5
  6
CONTINUOUS
 62
     6
  5
177
 10
51045.146329
 20
13861.906559
 30
0.0
 11
51035.146329
 21
13861.906559
 31
0.0
  0
LINE
  8
15
  6
CONTINUOUS
 62
     6
  5
178
 10
51305.146329
 20
14741.906559
 30
0.0
 11
51305.146329
 21
13876.906559
 31
0.0
  0
LINE
  8
15
  6
CONTINUOUS
 62
     5
  5
179
 10
51265.146329
 20
14741.906559
 30
0.0
 11
51295.146329
 21
14741.906559
 31
0.0
  0
LINE
  8
15
  6
CONTINUOUS
 62
     6
  5
17A
 10
51295.146329
 20
13876.906559
 30
0.0
 11
51305.146329
 21
13876.906559
 31
0.0
  0
LINE
  8
15
  6
CONTINUOUS
 62
     6
  5
17B
 10
51295.146329
 20
14741.906559
 30
0.0
 11
51305.146329
 21
14741.906559
 31
0.0
  0
LINE
  8
10
  6
CONTINUOUS
 62
     5
  5
17C
 10
51295.146329
 20
15961.906559
 30
0.0
 11
48902.646329
 21
15961.906559
 31
0.0
  0
LINE
  8
10
  6
CONTINUOUS
 62
     5
  5
17D
 10
51295.146329
 20
15961.906559
 30
0.0
 11
51295.146329
 21
14741.906559
 31
0.0
  0
LINE
  8
10
  6
CONTINUOUS
 62
     5
  5
17E
 10
51295.146329
 20
13886.906559
 30
0.0
 11
51295.146329
 21
12655.906559
 31
0.0
  0
LINE
  8
10
  6
CONTINUOUS
 62
     5
  5
17F
 10
49844.146329
 20
12655.906559
 30
0.0
 11
51295.146329
 21
12655.906559
 31
0.0
  0
LINE
  8
5
  6
CONTINUOUS
 62
     3
  5
180
 10
48965.146329
 20
16191.906559
 30
0.0
 11
48965.146329
 21
15991.906559
 31
0.0
  0
LINE
  8
5
  6
CONTINUOUS
 62
     3
  5
181
 10
51165.146329
 20
16191.906559
 30
0.0
 11
51165.146329
 21
15991.906559
 31
0.0
  0
CIRCLE
  8
5
  6
CONTINUOUS
 62
     3
  5
182
 10
48965.146329
 20
16191.906559
 30
0.0
 40
7.5
  0
CIRCLE
  8
5
  6
CONTINUOUS
 62
     3
  5
183
 10
51165.146329
 20
16191.906559
 30
0.0
 40
7.5
  0
CIRCLE
  8
5
  6
CONTINUOUS
 62
     3
  5
184
 10
48965.146329
 20
16091.906559
 30
0.0
 40
7.5
  0
CIRCLE
  8
5
  6
CONTINUOUS
 62
     3
  5
185
 10
51165.146329
 20
16091.906559
 30
0.0
 40
7.5
  0
LINE
  8
5
  6
CONTINUOUS
 62
     3
  5
186
 10
48965.146329
 20
16191.906559
 30
0.0
 11
51165.146329
 21
16191.906559
 31
0.0
  0
LINE
  8
5
  6
CONTINUOUS
 62
     3
  5
187
 10
51525.146329
 20
15899.406559
 30
0.0
 11
51325.146329
 21
15899.406559
 31
0.0
  0
LINE
  8
5
  6
CONTINUOUS
 62
     3
  5
188
 10
51525.146329
 20
12699.406559
 30
0.0
 11
51325.146329
 21
12699.406559
 31
0.0
  0
LINE
  8
5
  6
CONTINUOUS
 62
     3
  5
189
 10
51425.146329
 20
14716.906559
 30
0.0
 11
51325.146329
 21
14716.906559
 31
0.0
  0
LINE
  8
5
  6
CONTINUOUS
 62
     3
  5
18A
 10
51425.146329
 20
13901.906559
 30
0.0
 11
51325.146329
 21
13901.906559
 31
0.0
  0
CIRCLE
  8
5
  6
CONTINUOUS
 62
     3
  5
18B
 10
51525.146329
 20
15899.406559
 30
0.0
 40
7.5
  0
CIRCLE
  8
5
  6
CONTINUOUS
 62
     3
  5
18C
 10
51525.146329
 20
12699.406559
 30
0.0
 40
7.5
  0
CIRCLE
  8
5
  6
CONTINUOUS
 62
     3
  5
18D
 10
51425.146329
 20
12699.406559
 30
0.0
 40
7.5
  0
CIRCLE
  8
5
  6
CONTINUOUS
 62
     3
  5
18E
 10
51425.146329
 20
13901.906559
 30
0.0
 40
7.5
  0
CIRCLE
  8
5
  6
CONTINUOUS
 62
     3
  5
18F
 10
51425.146329
 20
14716.906559
 30
0.0
 40
7.5
  0
CIRCLE
  8
5
  6
CONTINUOUS
 62
     3
  5
190
 10
51425.146329
 20
15899.406559
 30
0.0
 40
7.5
  0
LINE
  8
5
  6
CONTINUOUS
 62
     3
  5
191
 10
51525.146329
 20
15899.406559
 30
0.0
 11
51525.146329
 21
12699.406559
 31
0.0
  0
LINE
  8
5
  6
CONTINUOUS
 62
     3
  5
192
 10
51425.146329
 20
12699.406559
 30
0.0
 11
51425.146329
 21
13901.906559
 31
0.0
  0
LINE
  8
5
  6
CONTINUOUS
 62
     3
  5
193
 10
51425.146329
 20
13901.906559
 30
0.0
 11
51425.146329
 21
14716.906559
 31
0.0
  0
LINE
  8
5
  6
CONTINUOUS
 62
     3
  5
194
 10
51425.146329
 20
14716.906559
 30
0.0
 11
51425.146329
 21
15899.406559
 31
0.0
  0
LINE
  8
5
  6
CONTINUOUS
 62
     3
  5
195
 10
48672.646329
 20
15899.406559
 30
0.0
 11
48872.646329
 21
15899.406559
 31
0.0
  0
LINE
  8
5
  6
CONTINUOUS
 62
     3
  5
196
 10
48672.646329
 20
12699.406559
 30
0.0
 11
48872.646329
 21
12699.406559
 31
0.0
  0
CIRCLE
  8
5
  6
CONTINUOUS
 62
     3
  5
197
 10
48672.646329
 20
15899.406559
 30
0.0
 40
7.5
  0
CIRCLE
  8
5
  6
CONTINUOUS
 62
     3
  5
198
 10
48672.646329
 20
12699.406559
 30
0.0
 40
7.5
  0
CIRCLE
  8
5
  6
CONTINUOUS
 62
     3
  5
199
 10
48772.646329
 20
12699.406559
 30
0.0
 40
7.5
  0
CIRCLE
  8
5
  6
CONTINUOUS
 62
     3
  5
19A
 10
48772.646329
 20
15899.406559
 30
0.0
 40
7.5
  0
LINE
  8
5
  6
CONTINUOUS
 62
     3
  5
19B
 10
48672.646329
 20
15899.406559
 30
0.0
 11
48672.646329
 21
12699.406559
 31
0.0
  0
POINT
  8
50
  6
CONTINUOUS
 62
     2
  5
19C
 10
50162.146329
 20
13769.406559
 30
0.0
  0
LINE
  8
13
  6
CONTINUOUS
 62
     5
  5
19D
 10
50162.146329
 20
13749.406559
 30
0.0
 11
50162.146329
 21
13789.406559
 31
0.0
  0
LINE
  8
13
  6
CONTINUOUS
 62
     5
  5
19E
 10
51045.146329
 20
13749.406559
 30
0.0
 11
50162.146329
 21
13749.406559
 31
0.0
  0
LINE
  8
13
  6
CONTINUOUS
 62
     5
  5
19F
 10
51045.146329
 20
13789.406559
 30
0.0
 11
50162.146329
 21
13789.406559
 31
0.0
  0
LINE
  8
3
  6
CONTINUOUS
 62
     6
  5
1A0
 10
50453.681582
 20
12798.207799
 30
0.0
 11
50453.681582
 21
13749.406559
 31
0.0
  0
LINE
  8
55
  6
CENTER
 62
     2
  5
1A1
 10
50136.653354
 20
13769.406559
 30
0.0
 11
51295.146329
 21
13769.406559
 31
0.0
  0
CIRCLE
  8
5
  6
CONTINUOUS
 62
     3
  5
1A2
 10
48772.646329
 20
13769.406559
 30
0.0
 40
7.5
  0
LINE
  8
5
  6
CONTINUOUS
 62
     3
  5
1A3
 10
48772.646329
 20
13769.406559
 30
0.0
 11
48872.646329
 21
13769.406559
 31
0.0
  0
LINE
  8
5
  6
CONTINUOUS
 62
     3
  5
1A4
 10
48772.646329
 20
12699.406559
 30
0.0
 11
48772.646329
 21
13769.406559
 31
0.0
  0
LINE
  8
10
  6
CONTINUOUS
 62
     5
  5
1A5
 10
50213.146329
 20
14939.406559
 30
0.0
 11
50213.146329
 21
14899.406559
 31
0.0
  0
LINE
  8
10
  6
CONTINUOUS
 62
     5
  5
1A6
 10
50213.146329
 20
14939.406559
 30
0.0
 11
51045.146329
 21
14939.406559
 31
0.0
  0
LINE
  8
10
  6
CONTINUOUS
 62
     5
  5
1A7
 10
49144.146329
 20
14939.406559
 30
0.0
 11
49144.146329
 21
14899.406559
 31
0.0
  0
LINE
  8
10
  6
CONTINUOUS
 62
     5
  5
1A8
 10
49144.146329
 20
14899.406559
 30
0.0
 11
49044.146329
 21
14899.406559
 31
0.0
  0
LINE
  8
10
  6
CONTINUOUS
 62
     5
  5
1A9
 10
49144.146329
 20
14939.406559
 30
0.0
 11
49044.146329
 21
14939.406559
 31
0.0
  0
LINE
  8
10
  6
CONTINUOUS
 62
     5
  5
1AA
 10
49664.146329
 20
14939.406559
 30
0.0
 11
49664.146329
 21
14899.406559
 31
0.0
  0
LINE
  8
10
  6
CONTINUOUS
 62
     5
  5
1AB
 10
49504.146329
 20
14899.406559
 30
0.0
 11
49504.146329
 21
14939.406559
 31
0.0
  0
LINE
  8
10
  6
CONTINUOUS
 62
     5
  5
1AC
 10
49544.146329
 20
14939.406559
 30
0.0
 11
49664.146329
 21
14939.406559
 31
0.0
  0
LINE
  8
10
  6
CONTINUOUS
 62
     5
  5
1AD
 10
49504.146329
 20
14899.406559
 30
0.0
 11
49664.146329
 21
14899.406559
 31
0.0
  0
LINE
  8
10
  6
CONTINUOUS
 62
     5
  5
1AE
 10
50213.146329
 20
14899.406559
 30
0.0
 11
51045.146329
 21
14899.406559
 31
0.0
  0
LINE
  8
54
  6
CENTER
 62
     2
  5
1AF
 10
48902.646329
 20
14919.406559
 30
0.0
 11
51295.146329
 21
14919.406559
 31
0.0
  0
CIRCLE
  8
5
  6
CONTINUOUS
 62
     3
  5
1B0
 10
48772.646329
 20
14919.406559
 30
0.0
 40
7.5
  0
LINE
  8
13
  6
CONTINUOUS
 62
     5
  5
1B1
 10
50921.146329
 20
13789.406559
 30
0.0
 11
50921.146329
 21
14899.406559
 31
0.0
  0
LINE
  8
5
  6
CONTINUOUS
 62
     3
  5
1B2
 10
48772.646329
 20
14919.406559
 30
0.0
 11
48772.646329
 21
15899.406559
 31
0.0
  0
LINE
  8
5
  6
CONTINUOUS
 62
     3
  5
1B3
 10
48772.646329
 20
14919.406559
 30
0.0
 11
48872.646329
 21
14919.406559
 31
0.0
  0
LINE
  8
5
  6
CONTINUOUS
 62
     3
  5
1B4
 10
48772.646329
 20
13769.406559
 30
0.0
 11
48772.646329
 21
14919.406559
 31
0.0
  0
LINE
  8
5
  6
CONTINUOUS
 62
     3
  5
1B5
 10
51165.146329
 20
12425.906559
 30
0.0
 11
51165.146329
 21
12625.906559
 31
0.0
  0
LINE
  8
5
  6
CONTINUOUS
 62
     3
  5
1B6
 10
48965.146329
 20
12425.906559
 30
0.0
 11
48965.146329
 21
12625.906559
 31
0.0
  0
CIRCLE
  8
5
  6
CONTINUOUS
 62
     3
  5
1B7
 10
51165.146329
 20
12425.906559
 30
0.0
 40
7.5
  0
CIRCLE
  8
5
  6
CONTINUOUS
 62
     3
  5
1B8
 10
48965.146329
 20
12425.906559
 30
0.0
 40
7.5
  0
CIRCLE
  8
5
  6
CONTINUOUS
 62
     3
  5
1B9
 10
48965.146329
 20
12525.906559
 30
0.0
 40
7.5
  0
CIRCLE
  8
5
  6
CONTINUOUS
 62
     3
  5
1BA
 10
51165.146329
 20
12525.906559
 30
0.0
 40
7.5
  0
LINE
  8
5
  6
CONTINUOUS
 62
     3
  5
1BB
 10
51165.146329
 20
12425.906559
 30
0.0
 11
48965.146329
 21
12425.906559
 31
0.0
  0
CIRCLE
  8
5
  6
CONTINUOUS
 62
     3
  5
1BC
 10
49065.146329
 20
12525.906559
 30
0.0
 40
7.5
  0
CIRCLE
  8
5
  6
CONTINUOUS
 62
     3
  5
1BD
 10
49815.146329
 20
12525.906559
 30
0.0
 40
7.5
  0
LINE
  8
5
  6
CONTINUOUS
 62
     3
  5
1BE
 10
49815.146329
 20
12525.906559
 30
0.0
 11
49815.146329
 21
12625.906559
 31
0.0
  0
LINE
  8
5
  6
CONTINUOUS
 62
     3
  5
1BF
 10
49815.146329
 20
12525.906559
 30
0.0
 11
51165.146329
 21
12525.906559
 31
0.0
  0
LINE
  8
5
  6
CONTINUOUS
 62
     3
  5
1C0
 10
48965.146329
 20
12525.906559
 30
0.0
 11
49065.146329
 21
12525.906559
 31
0.0
  0
LINE
  8
5
  6
CONTINUOUS
 62
     3
  5
1C1
 10
49065.146329
 20
12525.906559
 30
0.0
 11
49815.146329
 21
12525.906559
 31
0.0
  0
LINE
  8
5
  6
CONTINUOUS
 62
     3
  5
1C2
 10
49065.146329
 20
12525.906559
 30
0.0
 11
49065.146329
 21
12625.906559
 31
0.0
  0
LINE
  8
7
  6
CONTINUOUS
 62
     3
  5
1C3
 10
50370.912916
 20
15800.456538
 30
0.0
 11
50370.912916
 21
15770.406329
 31
0.0
  0
LINE
  8
40
  6
CONTINUOUS
 62
     4
  5
1C4
 10
50372.373816
 20
15800.406579
 30
0.0
 11
50341.551276
 21
15800.406579
 31
0.0
  0
LINE
  8
40
  6
CONTINUOUS
 62
     4
  5
1C5
 10
50335.307836
 20
15802.406549
 30
0.0
 11
50378.588836
 21
15802.406549
 31
0.0
  0
LINE
  8
40
  6
CONTINUOUS
 62
     4
  5
1C6
 10
50311.912996
 20
15820.406559
 30
0.0
 11
50311.912996
 21
15809.919649
 31
0.0
  0
LINE
  8
40
  6
CONTINUOUS
 62
     4
  5
1C7
 10
50401.912976
 20
15820.406559
 30
0.0
 11
50401.912976
 21
15809.891019
 31
0.0
  0
LINE
  8
40
  6
CONTINUOUS
 62
     4
  5
1C8
 10
50401.166916
 20
15808.406599
 30
0.0
 11
50312.702456
 21
15808.406599
 31
0.0
  0
ARC
  8
40
  6
CONTINUOUS
 62
     4
  5
1C9
 10
50313.912896
 20
15810.022339
 30
0.0
 40
2.00004
 50
180.0
 51
255.529705
  0
ARC
  8
40
  6
CONTINUOUS
 62
     4
  5
1CA
 10
50399.911256
 20
15809.979289
 30
0.0
 40
2.00004
 50
284.069648
 51
360.0
  0
LINE
  8
1
  6
CONTINUOUS
 62
     4
  5
1CB
 10
50324.602036
 20
15827.592619
 30
0.0
 11
50328.602116
 21
15828.287649
 31
0.0
  0
LINE
  8
1
  6
CONTINUOUS
 62
     4
  5
1CC
 10
50324.602036
 20
15830.628939
 30
0.0
 11
50328.602116
 21
15831.338179
 31
0.0
  0
LINE
  8
1
  6
CONTINUOUS
 62
     4
  5
1CD
 10
50324.602036
 20
15833.682059
 30
0.0
 11
50328.602116
 21
15834.391299
 31
0.0
  0
LINE
  8
1
  6
CONTINUOUS
 62
     4
  5
1CE
 10
50324.602036
 20
15836.735179
 30
0.0
 11
50328.602116
 21
15837.444349
 31
0.0
  0
LINE
  8
1
  6
CONTINUOUS
 62
     4
  5
1CF
 10
50324.602036
 20
15839.785639
 30
0.0
 11
50328.602116
 21
15840.480599
 31
0.0
  0
LINE
  8
1
  6
CONTINUOUS
 62
     4
  5
1D0
 10
50324.602036
 20
15842.821749
 30
0.0
 11
50328.602116
 21
15843.530989
 31
0.0
  0
LINE
  8
1
  6
CONTINUOUS
 62
     4
  5
1D1
 10
50328.206896
 20
15826.697459
 30
0.0
 11
50324.997256
 21
15826.129829
 31
0.0
  0
LINE
  8
1
  6
CONTINUOUS
 62
     4
  5
1D2
 10
50328.206896
 20
15829.730909
 30
0.0
 11
50324.997256
 21
15829.163349
 31
0.0
  0
LINE
  8
1
  6
CONTINUOUS
 62
     4
  5
1D3
 10
50328.206896
 20
15832.784029
 30
0.0
 11
50324.997256
 21
15832.216469
 31
0.0
  0
LINE
  8
1
  6
CONTINUOUS
 62
     4
  5
1D4
 10
50328.206896
 20
15835.837149
 30
0.0
 11
50324.997256
 21
15835.269659
 31
0.0
  0
LINE
  8
1
  6
CONTINUOUS
 62
     4
  5
1D5
 10
50328.206896
 20
15838.890339
 30
0.0
 11
50324.997256
 21
15838.322779
 31
0.0
  0
LINE
  8
1
  6
CONTINUOUS
 62
     4
  5
1D6
 10
50328.206896
 20
15841.923859
 30
0.0
 11
50324.997256
 21
15841.356299
 31
0.0
  0
LINE
  8
1
  6
CONTINUOUS
 62
     4
  5
1D7
 10
50328.206896
 20
15844.976979
 30
0.0
 11
50324.997256
 21
15844.409349
 31
0.0
  0
LINE
  8
1
  6
CONTINUOUS
 62
     4
  5
1D8
 10
50324.602036
 20
15824.541249
 30
0.0
 11
50328.602116
 21
15825.245449
 31
0.0
  0
LINE
  8
1
  6
CONTINUOUS
 62
     4
  5
1D9
 10
50326.602076
 20
15814.406579
 30
0.0
 11
50322.352096
 21
15814.406579
 31
0.0
  0
LINE
  8
1
  6
CONTINUOUS
 62
     4
  5
1DA
 10
50324.602036
 20
15818.494719
 30
0.0
 11
50328.602116
 21
15819.203959
 31
0.0
  0
LINE
  8
1
  6
CONTINUOUS
 62
     4
  5
1DB
 10
50324.602036
 20
15821.508569
 30
0.0
 11
50328.602116
 21
15822.217809
 31
0.0
  0
LINE
  8
1
  6
CONTINUOUS
 62
     4
  5
1DC
 10
50328.206896
 20
15817.616289
 30
0.0
 11
50324.997256
 21
15817.048729
 31
0.0
  0
LINE
  8
1
  6
CONTINUOUS
 62
     4
  5
1DD
 10
50328.206896
 20
15820.630209
 30
0.0
 11
50324.997256
 21
15820.062649
 31
0.0
  0
LINE
  8
1
  6
CONTINUOUS
 62
     4
  5
1DE
 10
50328.206896
 20
15823.663799
 30
0.0
 11
50324.997256
 21
15823.096239
 31
0.0
  0
LINE
  8
1
  6
CONTINUOUS
 62
     4
  5
1DF
 10
50323.999056
 20
15814.406579
 30
0.0
 11
50325.202076
 21
15815.609529
 31
0.0
  0
LINE
  8
1
  6
CONTINUOUS
 62
     4
  5
1E0
 10
50323.999056
 20
15814.406579
 30
0.0
 11
50322.352096
 21
15814.406579
 31
0.0
  0
LINE
  8
1
  6
CONTINUOUS
 62
     4
  5
1E1
 10
50329.205096
 20
15814.406579
 30
0.0
 11
50328.002076
 21
15815.609529
 31
0.0
  0
LINE
  8
1
  6
CONTINUOUS
 62
     4
  5
1E2
 10
50329.205096
 20
15814.406579
 30
0.0
 11
50330.852056
 21
15814.406579
 31
0.0
  0
LINE
  8
1
  6
CONTINUOUS
 62
     4
  5
1E3
 10
50328.206896
 20
15816.089729
 30
0.0
 11
50324.997256
 21
15815.522239
 31
0.0
  0
LINE
  8
1
  6
CONTINUOUS
 62
     4
  5
1E4
 10
50325.995316
 20
15810.915539
 30
0.0
 11
50327.208836
 21
15810.915539
 31
0.0
  0
LINE
  8
1
  6
CONTINUOUS
 62
     4
  5
1E5
 10
50325.995316
 20
15810.406569
 30
0.0
 11
50325.995316
 21
15810.915539
 31
0.0
  0
LINE
  8
1
  6
CONTINUOUS
 62
     4
  5
1E6
 10
50327.208836
 20
15810.406569
 30
0.0
 11
50327.208836
 21
15810.915539
 31
0.0
  0
LINE
  8
1
  6
CONTINUOUS
 62
     4
  5
1E7
 10
50325.995316
 20
15810.406569
 30
0.0
 11
50327.208836
 21
15810.406569
 31
0.0
  0
LINE
  8
1
  6
CONTINUOUS
 62
     4
  5
1E8
 10
50324.602036
 20
15845.874869
 30
0.0
 11
50328.602116
 21
15846.584109
 31
0.0
  0
LINE
  8
1
  6
CONTINUOUS
 62
     4
  5
1E9
 10
50327.993396
 20
15849.529289
 30
0.0
 11
50325.108416
 21
15849.017729
 31
0.0
  0
LINE
  8
1
  6
CONTINUOUS
 62
     4
  5
1EA
 10
50328.206896
 20
15848.030029
 30
0.0
 11
50324.997256
 21
15847.462469
 31
0.0
  0
LINE
  8
1
  6
CONTINUOUS
 62
     4
  5
1EB
 10
50327.700516
 20
15850.993549
 30
0.0
 11
50325.423136
 21
15850.590909
 31
0.0
  0
LINE
  8
1
  6
CONTINUOUS
 62
     4
  5
1EC
 10
50385.223856
 20
15827.592619
 30
0.0
 11
50389.223796
 21
15828.287649
 31
0.0
  0
LINE
  8
1
  6
CONTINUOUS
 62
     4
  5
1ED
 10
50385.223856
 20
15830.628939
 30
0.0
 11
50389.223796
 21
15831.338179
 31
0.0
  0
LINE
  8
1
  6
CONTINUOUS
 62
     4
  5
1EE
 10
50385.223856
 20
15833.682059
 30
0.0
 11
50389.223796
 21
15834.391299
 31
0.0
  0
LINE
  8
1
  6
CONTINUOUS
 62
     4
  5
1EF
 10
50385.223856
 20
15836.735179
 30
0.0
 11
50389.223796
 21
15837.444349
 31
0.0
  0
LINE
  8
1
  6
CONTINUOUS
 62
     4
  5
1F0
 10
50385.223856
 20
15839.785639
 30
0.0
 11
50389.223796
 21
15840.480599
 31
0.0
  0
LINE
  8
1
  6
CONTINUOUS
 62
     4
  5
1F1
 10
50385.223856
 20
15842.821749
 30
0.0
 11
50389.223796
 21
15843.530989
 31
0.0
  0
LINE
  8
1
  6
CONTINUOUS
 62
     4
  5
1F2
 10
50388.828716
 20
15826.697459
 30
0.0
 11
50385.618936
 21
15826.129829
 31
0.0
  0
LINE
  8
1
  6
CONTINUOUS
 62
     4
  5
1F3
 10
50388.828716
 20
15829.730909
 30
0.0
 11
50385.618936
 21
15829.163349
 31
0.0
  0
LINE
  8
1
  6
CONTINUOUS
 62
     4
  5
1F4
 10
50388.828716
 20
15832.784029
 30
0.0
 11
50385.618936
 21
15832.216469
 31
0.0
  0
LINE
  8
1
  6
CONTINUOUS
 62
     4
  5
1F5
 10
50388.828716
 20
15835.837149
 30
0.0
 11
50385.618936
 21
15835.269659
 31
0.0
  0
LINE
  8
1
  6
CONTINUOUS
 62
     4
  5
1F6
 10
50388.828716
 20
15838.890339
 30
0.0
 11
50385.618936
 21
15838.322779
 31
0.0
  0
LINE
  8
1
  6
CONTINUOUS
 62
     4
  5
1F7
 10
50388.828716
 20
15841.923859
 30
0.0
 11
50385.618936
 21
15841.356299
 31
0.0
  0
LINE
  8
1
  6
CONTINUOUS
 62
     4
  5
1F8
 10
50388.828716
 20
15844.976979
 30
0.0
 11
50385.618936
 21
15844.409349
 31
0.0
  0
LINE
  8
1
  6
CONTINUOUS
 62
     4
  5
1F9
 10
50385.223856
 20
15824.541249
 30
0.0
 11
50389.223796
 21
15825.245449
 31
0.0
  0
LINE
  8
1
  6
CONTINUOUS
 62
     4
  5
1FA
 10
50387.223896
 20
15814.406579
 30
0.0
 11
50382.973776
 21
15814.406579
 31
0.0
  0
LINE
  8
1
  6
CONTINUOUS
 62
     4
  5
1FB
 10
50385.223856
 20
15818.494719
 30
0.0
 11
50389.223796
 21
15819.203959
 31
0.0
  0
LINE
  8
1
  6
CONTINUOUS
 62
     4
  5
1FC
 10
50385.223856
 20
15821.508569
 30
0.0
 11
50389.223796
 21
15822.217809
 31
0.0
  0
LINE
  8
1
  6
CONTINUOUS
 62
     4
  5
1FD
 10
50388.828716
 20
15817.616289
 30
0.0
 11
50385.618936
 21
15817.048729
 31
0.0
  0
LINE
  8
1
  6
CONTINUOUS
 62
     4
  5
1FE
 10
50388.828716
 20
15820.630209
 30
0.0
 11
50385.618936
 21
15820.062649
 31
0.0
  0
LINE
  8
1
  6
CONTINUOUS
 62
     4
  5
1FF
 10
50388.828716
 20
15823.663799
 30
0.0
 11
50385.618936
 21
15823.096239
 31
0.0
  0
LINE
  8
1
  6
CONTINUOUS
 62
     4
  5
200
 10
50384.620876
 20
15814.406579
 30
0.0
 11
50385.823896
 21
15815.609529
 31
0.0
  0
LINE
  8
1
  6
CONTINUOUS
 62
     4
  5
201
 10
50384.620876
 20
15814.406579
 30
0.0
 11
50382.973776
 21
15814.406579
 31
0.0
  0
LINE
  8
1
  6
CONTINUOUS
 62
     4
  5
202
 10
50389.826776
 20
15814.406579
 30
0.0
 11
50388.623896
 21
15815.609529
 31
0.0
  0
LINE
  8
1
  6
CONTINUOUS
 62
     4
  5
203
 10
50389.826776
 20
15814.406579
 30
0.0
 11
50391.473876
 21
15814.406579
 31
0.0
  0
LINE
  8
1
  6
CONTINUOUS
 62
     4
  5
204
 10
50388.828716
 20
15816.089729
 30
0.0
 11
50385.618936
 21
15815.522239
 31
0.0
  0
LINE
  8
1
  6
CONTINUOUS
 62
     4
  5
205
 10
50386.617136
 20
15810.915539
 30
0.0
 11
50387.830516
 21
15810.915539
 31
0.0
  0
LINE
  8
1
  6
CONTINUOUS
 62
     4
  5
206
 10
50386.617136
 20
15810.406569
 30
0.0
 11
50386.617136
 21
15810.915539
 31
0.0
  0
LINE
  8
1
  6
CONTINUOUS
 62
     4
  5
207
 10
50387.830516
 20
15810.406569
 30
0.0
 11
50387.830516
 21
15810.915539
 31
0.0
  0
LINE
  8
1
  6
CONTINUOUS
 62
     4
  5
208
 10
50386.617136
 20
15810.406569
 30
0.0
 11
50387.830516
 21
15810.406569
 31
0.0
  0
LINE
  8
1
  6
CONTINUOUS
 62
     4
  5
209
 10
50385.223856
 20
15845.874869
 30
0.0
 11
50389.223796
 21
15846.584109
 31
0.0
  0
LINE
  8
1
  6
CONTINUOUS
 62
     4
  5
20A
 10
50388.615076
 20
15849.529289
 30
0.0
 11
50385.730236
 21
15849.017729
 31
0.0
  0
LINE
  8
1
  6
CONTINUOUS
 62
     4
  5
20B
 10
50388.828716
 20
15848.030029
 30
0.0
 11
50385.618936
 21
15847.462469
 31
0.0
  0
LINE
  8
1
  6
CONTINUOUS
 62
     4
  5
20C
 10
50388.322336
 20
15850.993549
 30
0.0
 11
50386.044816
 21
15850.590909
 31
0.0
  0
LINE
  8
40
  6
CONTINUOUS
 62
     4
  5
20D
 10
50401.887916
 20
15820.406559
 30
0.0
 11
50401.887916
 21
15809.891019
 31
0.0
  0
LINE
  8
40
  6
CONTINUOUS
 62
     4
  5
20E
 10
50399.387936
 20
15807.774079
 30
0.0
 11
50399.387936
 21
15815.406599
 31
0.0
  0
LINE
  8
40
  6
CONTINUOUS
 62
     4
  5
20F
 10
50339.182896
 20
15801.406599
 30
0.0
 11
50374.713916
 21
15801.406599
 31
0.0
  0
LINE
  8
40
  6
CONTINUOUS
 62
     4
  5
210
 10
50342.912916
 20
15800.406579
 30
0.0
 11
50370.912916
 21
15800.406579
 31
0.0
  0
LINE
  8
40
  6
CONTINUOUS
 62
     4
  5
211
 10
50371.497276
 20
15799.406559
 30
0.0
 11
50342.396876
 21
15799.406559
 31
0.0
  0
LINE
  8
40
  6
CONTINUOUS
 62
     4
  5
212
 10
50371.058936
 20
15798.406469
 30
0.0
 11
50342.793776
 21
15798.406469
 31
0.0
  0
LINE
  8
12
  6
CONTINUOUS
 62
     4
  5
213
 10
50380.299916
 20
15815.406599
 30
0.0
 11
50401.912976
 21
15815.406599
 31
0.0
  0
LINE
  8
12
  6
CONTINUOUS
 62
     4
  5
214
 10
50314.412976
 20
15807.798859
 30
0.0
 11
50314.412976
 21
15815.406599
 31
0.0
  0
LINE
  8
12
  6
CONTINUOUS
 62
     4
  5
215
 10
50335.262336
 20
15802.418379
 30
0.0
 11
50335.262336
 21
15802.388839
 31
0.0
  0
LINE
  8
12
  6
CONTINUOUS
 62
     4
  5
216
 10
50333.544396
 20
15802.861619
 30
0.0
 11
50333.544396
 21
15815.406599
 31
0.0
  0
LINE
  8
12
  6
CONTINUOUS
 62
     4
  5
217
 10
50335.256176
 20
15802.513859
 30
0.0
 11
50333.631476
 21
15815.511879
 31
0.0
  0
LINE
  8
12
  6
CONTINUOUS
 62
     4
  5
218
 10
50378.582116
 20
15802.312959
 30
0.0
 11
50378.582116
 21
15802.283489
 31
0.0
  0
LINE
  8
12
  6
CONTINUOUS
 62
     4
  5
219
 10
50380.299916
 20
15802.756269
 30
0.0
 11
50380.299916
 21
15815.301319
 31
0.0
  0
LINE
  8
12
  6
CONTINUOUS
 62
     4
  5
21A
 10
50378.588276
 20
15802.408579
 30
0.0
 11
50380.212976
 21
15815.406599
 31
0.0
  0
LINE
  8
12
  6
CONTINUOUS
 62
     4
  5
21B
 10
50333.644636
 20
15815.406599
 30
0.0
 11
50314.412976
 21
15815.406599
 31
0.0
  0
LINE
  8
12
  6
CONTINUOUS
 62
     4
  5
21C
 10
50333.644636
 20
15814.406579
 30
0.0
 11
50314.412976
 21
15814.406579
 31
0.0
  0
LINE
  8
12
  6
CONTINUOUS
 62
     4
  5
21D
 10
50380.299916
 20
15814.406579
 30
0.0
 11
50401.912976
 21
15814.406579
 31
0.0
  0
LINE
  8
12
  6
CONTINUOUS
 62
     4
  5
21E
 10
50330.852056
 20
15814.406579
 30
0.0
 11
50322.352096
 21
15814.406579
 31
0.0
  0
LINE
  8
12
  6
CONTINUOUS
 62
     4
  5
21F
 10
50322.352096
 20
15814.406579
 30
0.0
 11
50322.352096
 21
15811.406589
 31
0.0
  0
LINE
  8
12
  6
CONTINUOUS
 62
     4
  5
220
 10
50330.852056
 20
15814.406579
 30
0.0
 11
50330.852056
 21
15811.406589
 31
0.0
  0
LINE
  8
12
  6
CONTINUOUS
 62
     4
  5
221
 10
50330.852056
 20
15811.406589
 30
0.0
 11
50330.852056
 21
15814.406579
 31
0.0
  0
LINE
  8
12
  6
CONTINUOUS
 62
     4
  5
222
 10
50322.352096
 20
15811.406589
 30
0.0
 11
50322.352096
 21
15814.406579
 31
0.0
  0
LINE
  8
12
  6
CONTINUOUS
 62
     4
  5
223
 10
50322.352096
 20
15811.406589
 30
0.0
 11
50330.852056
 21
15811.406589
 31
0.0
  0
ARC
  8
12
  6
CONTINUOUS
 62
     4
  5
224
 10
50326.602076
 20
15819.937839
 30
0.0
 40
9.53134
 50
243.51896
 51
296.48104
  0
LINE
  8
12
  6
CONTINUOUS
 62
     4
  5
225
 10
50328.002076
 20
15814.406579
 30
0.0
 11
50328.002076
 21
15845.406569
 31
0.0
  0
LINE
  8
12
  6
CONTINUOUS
 62
     4
  5
226
 10
50325.202076
 20
15814.406579
 30
0.0
 11
50325.202076
 21
15845.406569
 31
0.0
  0
LINE
  8
12
  6
CONTINUOUS
 62
     4
  5
227
 10
50328.002076
 20
15845.406569
 30
0.0
 11
50325.202076
 21
15845.406569
 31
0.0
  0
LINE
  8
12
  6
CONTINUOUS
 62
     4
  5
228
 10
50326.602076
 20
15852.406569
 30
0.0
 11
50325.202076
 21
15845.406569
 31
0.0
  0
LINE
  8
12
  6
CONTINUOUS
 62
     4
  5
229
 10
50326.602076
 20
15852.406569
 30
0.0
 11
50328.002076
 21
15845.406569
 31
0.0
  0
LINE
  8
12
  6
CENTER
 62
     4
  5
22A
 10
50326.602076
 20
15811.406589
 30
0.0
 11
50326.602076
 21
15852.406569
 31
0.0
  0
LINE
  8
12
  6
CENTER
 62
     4
  5
22B
 10
50326.602076
 20
15852.406569
 30
0.0
 11
50326.602076
 21
15812.899549
 31
0.0
  0
LINE
  8
12
  6
CONTINUOUS
 62
     4
  5
22C
 10
50391.473876
 20
15814.406579
 30
0.0
 11
50382.973776
 21
15814.406579
 31
0.0
  0
LINE
  8
12
  6
CONTINUOUS
 62
     4
  5
22D
 10
50382.973776
 20
15814.406579
 30
0.0
 11
50382.973776
 21
15811.406589
 31
0.0
  0
LINE
  8
12
  6
CONTINUOUS
 62
     4
  5
22E
 10
50391.473876
 20
15814.406579
 30
0.0
 11
50391.473876
 21
15811.406589
 31
0.0
  0
LINE
  8
12
  6
CONTINUOUS
 62
     4
  5
22F
 10
50391.473876
 20
15811.406589
 30
0.0
 11
50391.473876
 21
15814.406579
 31
0.0
  0
LINE
  8
12
  6
CONTINUOUS
 62
     4
  5
230
 10
50382.973776
 20
15811.406589
 30
0.0
 11
50382.973776
 21
15814.406579
 31
0.0
  0
LINE
  8
12
  6
CONTINUOUS
 62
     4
  5
231
 10
50382.973776
 20
15811.406589
 30
0.0
 11
50391.473876
 21
15811.406589
 31
0.0
  0
ARC
  8
12
  6
CONTINUOUS
 62
     4
  5
232
 10
50387.223896
 20
15819.937839
 30
0.0
 40
9.53134
 50
243.51896
 51
296.48104
  0
LINE
  8
12
  6
CONTINUOUS
 62
     4
  5
233
 10
50388.623896
 20
15814.406579
 30
0.0
 11
50388.623896
 21
15845.406569
 31
0.0
  0
LINE
  8
12
  6
CONTINUOUS
 62
     4
  5
234
 10
50385.823896
 20
15814.406579
 30
0.0
 11
50385.823896
 21
15845.406569
 31
0.0
  0
LINE
  8
12
  6
CONTINUOUS
 62
     4
  5
235
 10
50388.623896
 20
15845.406569
 30
0.0
 11
50385.823896
 21
15845.406569
 31
0.0
  0
LINE
  8
12
  6
CONTINUOUS
 62
     4
  5
236
 10
50387.223896
 20
15852.406569
 30
0.0
 11
50385.823896
 21
15845.406569
 31
0.0
  0
LINE
  8
12
  6
CONTINUOUS
 62
     4
  5
237
 10
50387.223896
 20
15852.406569
 30
0.0
 11
50388.623896
 21
15845.406569
 31
0.0
  0
LINE
  8
12
  6
CENTER
 62
     4
  5
238
 10
50387.223896
 20
15811.406589
 30
0.0
 11
50387.223896
 21
15852.406569
 31
0.0
  0
LINE
  8
12
  6
CENTER
 62
     4
  5
239
 10
50387.223896
 20
15852.406569
 30
0.0
 11
50387.223896
 21
15812.899549
 31
0.0
  0
LINE
  8
12
  6
CONTINUOUS
 62
     4
  5
23A
 10
50332.310576
 20
15814.653819
 30
0.0
 11
50320.810556
 21
15814.653819
 31
0.0
  0
LINE
  8
12
  6
CONTINUOUS
 62
     4
  5
23B
 10
50332.310576
 20
15815.453709
 30
0.0
 11
50320.810556
 21
15815.453709
 31
0.0
  0
LINE
  8
12
  6
CONTINUOUS
 62
     4
  5
23C
 10
50332.310576
 20
15814.653819
 30
0.0
 11
50332.310576
 21
15815.453709
 31
0.0
  0
LINE
  8
12
  6
CONTINUOUS
 62
     4
  5
23D
 10
50329.310656
 20
15814.653819
 30
0.0
 11
50329.310656
 21
15815.453709
 31
0.0
  0
LINE
  8
12
  6
CONTINUOUS
 62
     4
  5
23E
 10
50323.810616
 20
15814.653819
 30
0.0
 11
50323.810616
 21
15815.453709
 31
0.0
  0
LINE
  8
12
  6
CONTINUOUS
 62
     4
  5
23F
 10
50320.810556
 20
15814.653819
 30
0.0
 11
50320.810556
 21
15815.453709
 31
0.0
  0
LINE
  8
12
  6
CONTINUOUS
 62
     4
  5
240
 10
50392.928756
 20
15814.653819
 30
0.0
 11
50381.428736
 21
15814.653819
 31
0.0
  0
LINE
  8
12
  6
CONTINUOUS
 62
     4
  5
241
 10
50392.928756
 20
15815.453709
 30
0.0
 11
50381.428736
 21
15815.453709
 31
0.0
  0
LINE
  8
12
  6
CONTINUOUS
 62
     4
  5
242
 10
50392.928756
 20
15814.653819
 30
0.0
 11
50392.928756
 21
15815.453709
 31
0.0
  0
LINE
  8
12
  6
CONTINUOUS
 62
     4
  5
243
 10
50389.928696
 20
15814.653819
 30
0.0
 11
50389.928696
 21
15815.453709
 31
0.0
  0
LINE
  8
12
  6
CONTINUOUS
 62
     4
  5
244
 10
50384.428656
 20
15814.653819
 30
0.0
 11
50384.428656
 21
15815.453709
 31
0.0
  0
LINE
  8
12
  6
CONTINUOUS
 62
     4
  5
245
 10
50381.428736
 20
15814.653819
 30
0.0
 11
50381.428736
 21
15815.453709
 31
0.0
  0
LINE
  8
8
  6
CONTINUOUS
 62
     4
  5
246
 10
50373.913396
 20
15801.199959
 30
0.0
 11
50400.408956
 21
15808.037489
 31
0.0
  0
LINE
  8
8
  6
CONTINUOUS
 62
     4
  5
247
 10
50340.101156
 20
15801.169509
 30
0.0
 11
50313.370116
 21
15808.067869
 31
0.0
  0
ARC
  8
8
  6
CONTINUOUS
 62
     4
  5
248
 10
50338.945176
 20
15797.370609
 30
0.0
 40
4.00008
 50
360.0
 51
75.529706
  0
LINE
  8
50
  6
CENTER
 62
     4
  5
249
 10
50326.560636
 20
15814.653819
 30
0.0
 11
50326.560636
 21
15816.775799
 31
0.0
  0
LINE
  8
50
  6
CENTER
 62
     4
  5
24A
 10
50387.178676
 20
15814.653819
 30
0.0
 11
50387.178676
 21
15816.775799
 31
0.0
  0
ARC
  8
8
  6
CONTINUOUS
 62
     4
  5
24B
 10
50374.907396
 20
15797.319719
 30
0.0
 40
4.00008
 50
104.470294
 51
180.0
  0
LINE
  8
40
  6
CONTINUOUS
 62
     4
  5
24C
 10
49910.685489
 20
15800.406579
 30
0.0
 11
49941.508029
 21
15800.406579
 31
0.0
  0
LINE
  8
40
  6
CONTINUOUS
 62
     4
  5
24D
 10
49947.751469
 20
15802.406549
 30
0.0
 11
49904.470469
 21
15802.406549
 31
0.0
  0
LINE
  8
40
  6
CONTINUOUS
 62
     4
  5
24E
 10
49971.146309
 20
15820.406559
 30
0.0
 11
49971.146309
 21
15809.919649
 31
0.0
  0
LINE
  8
40
  6
CONTINUOUS
 62
     4
  5
24F
 10
49881.146329
 20
15820.406559
 30
0.0
 11
49881.146329
 21
15809.891019
 31
0.0
  0
LINE
  8
40
  6
CONTINUOUS
 62
     4
  5
250
 10
49881.892389
 20
15808.406599
 30
0.0
 11
49970.356849
 21
15808.406599
 31
0.0
  0
ARC
  8
40
  6
CONTINUOUS
 62
     4
  5
251
 10
49969.146409
 20
15810.022339
 30
0.0
 40
2.00004
 50
284.470295
 51
360.0
  0
ARC
  8
40
  6
CONTINUOUS
 62
     4
  5
252
 10
49883.148049
 20
15809.979289
 30
0.0
 40
2.00004
 50
180.0
 51
255.930352
  0
LINE
  8
1
  6
CONTINUOUS
 62
     4
  5
253
 10
49958.457269
 20
15827.592619
 30
0.0
 11
49954.457189
 21
15828.287649
 31
0.0
  0
LINE
  8
1
  6
CONTINUOUS
 62
     4
  5
254
 10
49958.457269
 20
15830.628939
 30
0.0
 11
49954.457189
 21
15831.338179
 31
0.0
  0
LINE
  8
1
  6
CONTINUOUS
 62
     4
  5
255
 10
49958.457269
 20
15833.682059
 30
0.0
 11
49954.457189
 21
15834.391299
 31
0.0
  0
LINE
  8
1
  6
CONTINUOUS
 62
     4
  5
256
 10
49958.457269
 20
15836.735179
 30
0.0
 11
49954.457189
 21
15837.444349
 31
0.0
  0
LINE
  8
1
  6
CONTINUOUS
 62
     4
  5
257
 10
49958.457269
 20
15839.785639
 30
0.0
 11
49954.457189
 21
15840.480599
 31
0.0
  0
LINE
  8
1
  6
CONTINUOUS
 62
     4
  5
258
 10
49958.457269
 20
15842.821749
 30
0.0
 11
49954.457189
 21
15843.530989
 31
0.0
  0
LINE
  8
1
  6
CONTINUOUS
 62
     4
  5
259
 10
49954.852409
 20
15826.697459
 30
0.0
 11
49958.062049
 21
15826.129829
 31
0.0
  0
LINE
  8
1
  6
CONTINUOUS
 62
     4
  5
25A
 10
49954.852409
 20
15829.730909
 30
0.0
 11
49958.062049
 21
15829.163349
 31
0.0
  0
LINE
  8
1
  6
CONTINUOUS
 62
     4
  5
25B
 10
49954.852409
 20
15832.784029
 30
0.0
 11
49958.062049
 21
15832.216469
 31
0.0
  0
LINE
  8
1
  6
CONTINUOUS
 62
     4
  5
25C
 10
49954.852409
 20
15835.837149
 30
0.0
 11
49958.062049
 21
15835.269659
 31
0.0
  0
LINE
  8
1
  6
CONTINUOUS
 62
     4
  5
25D
 10
49954.852409
 20
15838.890339
 30
0.0
 11
49958.062049
 21
15838.322779
 31
0.0
  0
LINE
  8
1
  6
CONTINUOUS
 62
     4
  5
25E
 10
49954.852409
 20
15841.923859
 30
0.0
 11
49958.062049
 21
15841.356299
 31
0.0
  0
LINE
  8
1
  6
CONTINUOUS
 62
     4
  5
25F
 10
49954.852409
 20
15844.976979
 30
0.0
 11
49958.062049
 21
15844.409349
 31
0.0
  0
LINE
  8
1
  6
CONTINUOUS
 62
     4
  5
260
 10
49958.457269
 20
15824.541249
 30
0.0
 11
49954.457189
 21
15825.245449
 31
0.0
  0
LINE
  8
1
  6
CONTINUOUS
 62
     4
  5
261
 10
49956.457229
 20
15814.406579
 30
0.0
 11
49960.707209
 21
15814.406579
 31
0.0
  0
LINE
  8
1
  6
CONTINUOUS
 62
     4
  5
262
 10
49958.457269
 20
15818.494719
 30
0.0
 11
49954.457189
 21
15819.203959
 31
0.0
  0
LINE
  8
1
  6
CONTINUOUS
 62
     4
  5
263
 10
49958.457269
 20
15821.508569
 30
0.0
 11
49954.457189
 21
15822.217809
 31
0.0
  0
LINE
  8
1
  6
CONTINUOUS
 62
     4
  5
264
 10
49954.852409
 20
15817.616289
 30
0.0
 11
49958.062049
 21
15817.048729
 31
0.0
  0
LINE
  8
1
  6
CONTINUOUS
 62
     4
  5
265
 10
49954.852409
 20
15820.630209
 30
0.0
 11
49958.062049
 21
15820.062649
 31
0.0
  0
LINE
  8
1
  6
CONTINUOUS
 62
     4
  5
266
 10
49954.852409
 20
15823.663799
 30
0.0
 11
49958.062049
 21
15823.096239
 31
0.0
  0
LINE
  8
1
  6
CONTINUOUS
 62
     4
  5
267
 10
49959.060249
 20
15814.406579
 30
0.0
 11
49957.857229
 21
15815.609529
 31
0.0
  0
LINE
  8
1
  6
CONTINUOUS
 62
     4
  5
268
 10
49959.060249
 20
15814.406579
 30
0.0
 11
49960.707209
 21
15814.406579
 31
0.0
  0
LINE
  8
1
  6
CONTINUOUS
 62
     4
  5
269
 10
49953.854209
 20
15814.406579
 30
0.0
 11
49955.057229
 21
15815.609529
 31
0.0
  0
LINE
  8
1
  6
CONTINUOUS
 62
     4
  5
26A
 10
49953.854209
 20
15814.406579
 30
0.0
 11
49952.207249
 21
15814.406579
 31
0.0
  0
LINE
  8
1
  6
CONTINUOUS
 62
     4
  5
26B
 10
49954.852409
 20
15816.089729
 30
0.0
 11
49958.062049
 21
15815.522239
 31
0.0
  0
LINE
  8
1
  6
CONTINUOUS
 62
     4
  5
26C
 10
49957.063989
 20
15810.915539
 30
0.0
 11
49955.850469
 21
15810.915539
 31
0.0
  0
LINE
  8
1
  6
CONTINUOUS
 62
     4
  5
26D
 10
49957.063989
 20
15810.406569
 30
0.0
 11
49957.063989
 21
15810.915539
 31
0.0
  0
LINE
  8
1
  6
CONTINUOUS
 62
     4
  5
26E
 10
49955.850469
 20
15810.406569
 30
0.0
 11
49955.850469
 21
15810.915539
 31
0.0
  0
LINE
  8
1
  6
CONTINUOUS
 62
     4
  5
26F
 10
49957.063989
 20
15810.406569
 30
0.0
 11
49955.850469
 21
15810.406569
 31
0.0
  0
LINE
  8
1
  6
CONTINUOUS
 62
     4
  5
270
 10
49958.457269
 20
15845.874869
 30
0.0
 11
49954.457189
 21
15846.584109
 31
0.0
  0
LINE
  8
1
  6
CONTINUOUS
 62
     4
  5
271
 10
49955.065909
 20
15849.529289
 30
0.0
 11
49957.950889
 21
15849.017729
 31
0.0
  0
LINE
  8
1
  6
CONTINUOUS
 62
     4
  5
272
 10
49954.852409
 20
15848.030029
 30
0.0
 11
49958.062049
 21
15847.462469
 31
0.0
  0
LINE
  8
1
  6
CONTINUOUS
 62
     4
  5
273
 10
49955.358789
 20
15850.993549
 30
0.0
 11
49957.636169
 21
15850.590909
 31
0.0
  0
LINE
  8
1
  6
CONTINUOUS
 62
     4
  5
274
 10
49897.835449
 20
15827.592619
 30
0.0
 11
49893.835509
 21
15828.287649
 31
0.0
  0
LINE
  8
1
  6
CONTINUOUS
 62
     4
  5
275
 10
49897.835449
 20
15830.628939
 30
0.0
 11
49893.835509
 21
15831.338179
 31
0.0
  0
LINE
  8
1
  6
CONTINUOUS
 62
     4
  5
276
 10
49897.835449
 20
15833.682059
 30
0.0
 11
49893.835509
 21
15834.391299
 31
0.0
  0
LINE
  8
1
  6
CONTINUOUS
 62
     4
  5
277
 10
49897.835449
 20
15836.735179
 30
0.0
 11
49893.835509
 21
15837.444349
 31
0.0
  0
LINE
  8
1
  6
CONTINUOUS
 62
     4
  5
278
 10
49897.835449
 20
15839.785639
 30
0.0
 11
49893.835509
 21
15840.480599
 31
0.0
  0
LINE
  8
1
  6
CONTINUOUS
 62
     4
  5
279
 10
49897.835449
 20
15842.821749
 30
0.0
 11
49893.835509
 21
15843.530989
 31
0.0
  0
LINE
  8
1
  6
CONTINUOUS
 62
     4
  5
27A
 10
49894.230589
 20
15826.697459
 30
0.0
 11
49897.440369
 21
15826.129829
 31
0.0
  0
LINE
  8
1
  6
CONTINUOUS
 62
     4
  5
27B
 10
49894.230589
 20
15829.730909
 30
0.0
 11
49897.440369
 21
15829.163349
 31
0.0
  0
LINE
  8
1
  6
CONTINUOUS
 62
     4
  5
27C
 10
49894.230589
 20
15832.784029
 30
0.0
 11
49897.440369
 21
15832.216469
 31
0.0
  0
LINE
  8
1
  6
CONTINUOUS
 62
     4
  5
27D
 10
49894.230589
 20
15835.837149
 30
0.0
 11
49897.440369
 21
15835.269659
 31
0.0
  0
LINE
  8
1
  6
CONTINUOUS
 62
     4
  5
27E
 10
49894.230589
 20
15838.890339
 30
0.0
 11
49897.440369
 21
15838.322779
 31
0.0
  0
LINE
  8
1
  6
CONTINUOUS
 62
     4
  5
27F
 10
49894.230589
 20
15841.923859
 30
0.0
 11
49897.440369
 21
15841.356299
 31
0.0
  0
LINE
  8
1
  6
CONTINUOUS
 62
     4
  5
280
 10
49894.230589
 20
15844.976979
 30
0.0
 11
49897.440369
 21
15844.409349
 31
0.0
  0
LINE
  8
1
  6
CONTINUOUS
 62
     4
  5
281
 10
49897.835449
 20
15824.541249
 30
0.0
 11
49893.835509
 21
15825.245449
 31
0.0
  0
LINE
  8
1
  6
CONTINUOUS
 62
     4
  5
282
 10
49895.835409
 20
15814.406579
 30
0.0
 11
49900.085529
 21
15814.406579
 31
0.0
  0
LINE
  8
1
  6
CONTINUOUS
 62
     4
  5
283
 10
49897.835449
 20
15818.494719
 30
0.0
 11
49893.835509
 21
15819.203959
 31
0.0
  0
LINE
  8
1
  6
CONTINUOUS
 62
     4
  5
284
 10
49897.835449
 20
15821.508569
 30
0.0
 11
49893.835509
 21
15822.217809
 31
0.0
  0
LINE
  8
1
  6
CONTINUOUS
 62
     4
  5
285
 10
49894.230589
 20
15817.616289
 30
0.0
 11
49897.440369
 21
15817.048729
 31
0.0
  0
LINE
  8
1
  6
CONTINUOUS
 62
     4
  5
286
 10
49894.230589
 20
15820.630209
 30
0.0
 11
49897.440369
 21
15820.062649
 31
0.0
  0
LINE
  8
1
  6
CONTINUOUS
 62
     4
  5
287
 10
49894.230589
 20
15823.663799
 30
0.0
 11
49897.440369
 21
15823.096239
 31
0.0
  0
LINE
  8
1
  6
CONTINUOUS
 62
     4
  5
288
 10
49898.438429
 20
15814.406579
 30
0.0
 11
49897.235409
 21
15815.609529
 31
0.0
  0
LINE
  8
1
  6
CONTINUOUS
 62
     4
  5
289
 10
49898.438429
 20
15814.406579
 30
0.0
 11
49900.085529
 21
15814.406579
 31
0.0
  0
LINE
  8
1
  6
CONTINUOUS
 62
     4
  5
28A
 10
49893.232529
 20
15814.406579
 30
0.0
 11
49894.435409
 21
15815.609529
 31
0.0
  0
LINE
  8
1
  6
CONTINUOUS
 62
     4
  5
28B
 10
49893.232529
 20
15814.406579
 30
0.0
 11
49891.585429
 21
15814.406579
 31
0.0
  0
LINE
  8
1
  6
CONTINUOUS
 62
     4
  5
28C
 10
49894.230589
 20
15816.089729
 30
0.0
 11
49897.440369
 21
15815.522239
 31
0.0
  0
LINE
  8
1
  6
CONTINUOUS
 62
     4
  5
28D
 10
49896.442169
 20
15810.915539
 30
0.0
 11
49895.228789
 21
15810.915539
 31
0.0
  0
LINE
  8
1
  6
CONTINUOUS
 62
     4
  5
28E
 10
49896.442169
 20
15810.406569
 30
0.0
 11
49896.442169
 21
15810.915539
 31
0.0
  0
LINE
  8
1
  6
CONTINUOUS
 62
     4
  5
28F
 10
49895.228789
 20
15810.406569
 30
0.0
 11
49895.228789
 21
15810.915539
 31
0.0
  0
LINE
  8
1
  6
CONTINUOUS
 62
     4
  5
290
 10
49896.442169
 20
15810.406569
 30
0.0
 11
49895.228789
 21
15810.406569
 31
0.0
  0
LINE
  8
1
  6
CONTINUOUS
 62
     4
  5
291
 10
49897.835449
 20
15845.874869
 30
0.0
 11
49893.835509
 21
15846.584109
 31
0.0
  0
LINE
  8
1
  6
CONTINUOUS
 62
     4
  5
292
 10
49894.444229
 20
15849.529289
 30
0.0
 11
49897.329069
 21
15849.017729
 31
0.0
  0
LINE
  8
1
  6
CONTINUOUS
 62
     4
  5
293
 10
49894.230589
 20
15848.030029
 30
0.0
 11
49897.440369
 21
15847.462469
 31
0.0
  0
LINE
  8
1
  6
CONTINUOUS
 62
     4
  5
294
 10
49894.736969
 20
15850.993549
 30
0.0
 11
49897.014489
 21
15850.590909
 31
0.0
  0
LINE
  8
40
  6
CONTINUOUS
 62
     4
  5
295
 10
49881.171389
 20
15820.406559
 30
0.0
 11
49881.171389
 21
15809.891019
 31
0.0
  0
LINE
  8
40
  6
CONTINUOUS
 62
     4
  5
296
 10
49883.671369
 20
15807.774079
 30
0.0
 11
49883.671369
 21
15815.406599
 31
0.0
  0
LINE
  8
40
  6
CONTINUOUS
 62
     4
  5
297
 10
49943.876409
 20
15801.406599
 30
0.0
 11
49908.345389
 21
15801.406599
 31
0.0
  0
LINE
  8
40
  6
CONTINUOUS
 62
     4
  5
298
 10
49940.146389
 20
15800.406579
 30
0.0
 11
49912.146389
 21
15800.406579
 31
0.0
  0
LINE
  8
40
  6
CONTINUOUS
 62
     4
  5
299
 10
49911.562029
 20
15799.406559
 30
0.0
 11
49940.662429
 21
15799.406559
 31
0.0
  0
LINE
  8
40
  6
CONTINUOUS
 62
     4
  5
29A
 10
49912.000369
 20
15798.406469
 30
0.0
 11
49940.265529
 21
15798.406469
 31
0.0
  0
LINE
  8
12
  6
CONTINUOUS
 62
     4
  5
29B
 10
49902.759389
 20
15815.406599
 30
0.0
 11
49881.146329
 21
15815.406599
 31
0.0
  0
LINE
  8
12
  6
CONTINUOUS
 62
     4
  5
29C
 10
49968.646329
 20
15807.798859
 30
0.0
 11
49968.646329
 21
15815.406599
 31
0.0
  0
LINE
  8
12
  6
CONTINUOUS
 62
     4
  5
29D
 10
49947.796969
 20
15802.418379
 30
0.0
 11
49947.796969
 21
15802.388839
 31
0.0
  0
LINE
  8
12
  6
CONTINUOUS
 62
     4
  5
29E
 10
49949.514909
 20
15802.861619
 30
0.0
 11
49949.514909
 21
15815.406599
 31
0.0
  0
LINE
  8
12
  6
CONTINUOUS
 62
     4
  5
29F
 10
49947.803129
 20
15802.513859
 30
0.0
 11
49949.427829
 21
15815.511879
 31
0.0
  0
LINE
  8
12
  6
CONTINUOUS
 62
     4
  5
2A0
 10
49904.477189
 20
15802.312959
 30
0.0
 11
49904.477189
 21
15802.283489
 31
0.0
  0
LINE
  8
12
  6
CONTINUOUS
 62
     4
  5
2A1
 10
49902.759389
 20
15802.756269
 30
0.0
 11
49902.759389
 21
15815.301319
 31
0.0
  0
LINE
  8
12
  6
CONTINUOUS
 62
     4
  5
2A2
 10
49904.471029
 20
15802.408579
 30
0.0
 11
49902.846329
 21
15815.406599
 31
0.0
  0
LINE
  8
12
  6
CONTINUOUS
 62
     4
  5
2A3
 10
49949.414669
 20
15815.406599
 30
0.0
 11
49968.646329
 21
15815.406599
 31
0.0
  0
LINE
  8
12
  6
CONTINUOUS
 62
     4
  5
2A4
 10
49949.414669
 20
15814.406579
 30
0.0
 11
49968.646329
 21
15814.406579
 31
0.0
  0
LINE
  8
12
  6
CONTINUOUS
 62
     4
  5
2A5
 10
49902.759389
 20
15814.406579
 30
0.0
 11
49881.146329
 21
15814.406579
 31
0.0
  0
LINE
  8
12
  6
CONTINUOUS
 62
     4
  5
2A6
 10
49952.207249
 20
15814.406579
 30
0.0
 11
49960.707209
 21
15814.406579
 31
0.0
  0
LINE
  8
12
  6
CONTINUOUS
 62
     4
  5
2A7
 10
49960.707209
 20
15814.406579
 30
0.0
 11
49960.707209
 21
15811.406589
 31
0.0
  0
LINE
  8
12
  6
CONTINUOUS
 62
     4
  5
2A8
 10
49952.207249
 20
15814.406579
 30
0.0
 11
49952.207249
 21
15811.406589
 31
0.0
  0
LINE
  8
12
  6
CONTINUOUS
 62
     4
  5
2A9
 10
49952.207249
 20
15811.406589
 30
0.0
 11
49952.207249
 21
15814.406579
 31
0.0
  0
LINE
  8
12
  6
CONTINUOUS
 62
     4
  5
2AA
 10
49960.707209
 20
15811.406589
 30
0.0
 11
49960.707209
 21
15814.406579
 31
0.0
  0
LINE
  8
12
  6
CONTINUOUS
 62
     4
  5
2AB
 10
49960.707209
 20
15811.406589
 30
0.0
 11
49952.207249
 21
15811.406589
 31
0.0
  0
ARC
  8
12
  6
CONTINUOUS
 62
     4
  5
2AC
 10
49956.457229
 20
15819.937839
 30
0.0
 40
9.53134
 50
243.51896
 51
296.48104
  0
LINE
  8
12
  6
CONTINUOUS
 62
     4
  5
2AD
 10
49955.057229
 20
15814.406579
 30
0.0
 11
49955.057229
 21
15845.406569
 31
0.0
  0
LINE
  8
12
  6
CONTINUOUS
 62
     4
  5
2AE
 10
49957.857229
 20
15814.406579
 30
0.0
 11
49957.857229
 21
15845.406569
 31
0.0
  0
LINE
  8
12
  6
CONTINUOUS
 62
     4
  5
2AF
 10
49955.057229
 20
15845.406569
 30
0.0
 11
49957.857229
 21
15845.406569
 31
0.0
  0
LINE
  8
12
  6
CONTINUOUS
 62
     4
  5
2B0
 10
49956.457229
 20
15852.406569
 30
0.0
 11
49957.857229
 21
15845.406569
 31
0.0
  0
LINE
  8
12
  6
CONTINUOUS
 62
     4
  5
2B1
 10
49956.457229
 20
15852.406569
 30
0.0
 11
49955.057229
 21
15845.406569
 31
0.0
  0
LINE
  8
12
  6
CENTER
 62
     4
  5
2B2
 10
49956.457229
 20
15811.406589
 30
0.0
 11
49956.457229
 21
15852.406569
 31
0.0
  0
LINE
  8
12
  6
CENTER
 62
     4
  5
2B3
 10
49956.457229
 20
15852.406569
 30
0.0
 11
49956.457229
 21
15812.899549
 31
0.0
  0
LINE
  8
12
  6
CONTINUOUS
 62
     4
  5
2B4
 10
49891.585429
 20
15814.406579
 30
0.0
 11
49900.085529
 21
15814.406579
 31
0.0
  0
LINE
  8
12
  6
CONTINUOUS
 62
     4
  5
2B5
 10
49900.085529
 20
15814.406579
 30
0.0
 11
49900.085529
 21
15811.406589
 31
0.0
  0
LINE
  8
12
  6
CONTINUOUS
 62
     4
  5
2B6
 10
49891.585429
 20
15814.406579
 30
0.0
 11
49891.585429
 21
15811.406589
 31
0.0
  0
LINE
  8
12
  6
CONTINUOUS
 62
     4
  5
2B7
 10
49891.585429
 20
15811.406589
 30
0.0
 11
49891.585429
 21
15814.406579
 31
0.0
  0
LINE
  8
12
  6
CONTINUOUS
 62
     4
  5
2B8
 10
49900.085529
 20
15811.406589
 30
0.0
 11
49900.085529
 21
15814.406579
 31
0.0
  0
LINE
  8
12
  6
CONTINUOUS
 62
     4
  5
2B9
 10
49900.085529
 20
15811.406589
 30
0.0
 11
49891.585429
 21
15811.406589
 31
0.0
  0
ARC
  8
12
  6
CONTINUOUS
 62
     4
  5
2BA
 10
49895.835409
 20
15819.937839
 30
0.0
 40
9.53134
 50
243.51896
 51
296.48104
  0
LINE
  8
12
  6
CONTINUOUS
 62
     4
  5
2BB
 10
49894.435409
 20
15814.406579
 30
0.0
 11
49894.435409
 21
15845.406569
 31
0.0
  0
LINE
  8
12
  6
CONTINUOUS
 62
     4
  5
2BC
 10
49897.235409
 20
15814.406579
 30
0.0
 11
49897.235409
 21
15845.406569
 31
0.0
  0
LINE
  8
12
  6
CONTINUOUS
 62
     4
  5
2BD
 10
49894.435409
 20
15845.406569
 30
0.0
 11
49897.235409
 21
15845.406569
 31
0.0
  0
LINE
  8
12
  6
CONTINUOUS
 62
     4
  5
2BE
 10
49895.835409
 20
15852.406569
 30
0.0
 11
49897.235409
 21
15845.406569
 31
0.0
  0
LINE
  8
12
  6
CONTINUOUS
 62
     4
  5
2BF
 10
49895.835409
 20
15852.406569
 30
0.0
 11
49894.435409
 21
15845.406569
 31
0.0
  0
LINE
  8
12
  6
CENTER
 62
     4
  5
2C0
 10
49895.835409
 20
15811.406589
 30
0.0
 11
49895.835409
 21
15852.406569
 31
0.0
  0
LINE
  8
12
  6
CENTER
 62
     4
  5
2C1
 10
49895.835409
 20
15852.406569
 30
0.0
 11
49895.835409
 21
15812.899549
 31
0.0
  0
LINE
  8
12
  6
CONTINUOUS
 62
     4
  5
2C2
 10
49950.748729
 20
15814.653819
 30
0.0
 11
49962.248749
 21
15814.653819
 31
0.0
  0
LINE
  8
12
  6
CONTINUOUS
 62
     4
  5
2C3
 10
49950.748729
 20
15815.453709
 30
0.0
 11
49962.248749
 21
15815.453709
 31
0.0
  0
LINE
  8
12
  6
CONTINUOUS
 62
     4
  5
2C4
 10
49950.748729
 20
15814.653819
 30
0.0
 11
49950.748729
 21
15815.453709
 31
0.0
  0
LINE
  8
12
  6
CONTINUOUS
 62
     4
  5
2C5
 10
49953.748649
 20
15814.653819
 30
0.0
 11
49953.748649
 21
15815.453709
 31
0.0
  0
LINE
  8
12
  6
CONTINUOUS
 62
     4
  5
2C6
 10
49959.248689
 20
15814.653819
 30
0.0
 11
49959.248689
 21
15815.453709
 31
0.0
  0
LINE
  8
12
  6
CONTINUOUS
 62
     4
  5
2C7
 10
49962.248749
 20
15814.653819
 30
0.0
 11
49962.248749
 21
15815.453709
 31
0.0
  0
LINE
  8
12
  6
CONTINUOUS
 62
     4
  5
2C8
 10
49890.130549
 20
15814.653819
 30
0.0
 11
49901.630569
 21
15814.653819
 31
0.0
  0
LINE
  8
12
  6
CONTINUOUS
 62
     4
  5
2C9
 10
49890.130549
 20
15815.453709
 30
0.0
 11
49901.630569
 21
15815.453709
 31
0.0
  0
LINE
  8
12
  6
CONTINUOUS
 62
     4
  5
2CA
 10
49890.130549
 20
15814.653819
 30
0.0
 11
49890.130549
 21
15815.453709
 31
0.0
  0
LINE
  8
12
  6
CONTINUOUS
 62
     4
  5
2CB
 10
49893.130609
 20
15814.653819
 30
0.0
 11
49893.130609
 21
15815.453709
 31
0.0
  0
LINE
  8
12
  6
CONTINUOUS
 62
     4
  5
2CC
 10
49898.630649
 20
15814.653819
 30
0.0
 11
49898.630649
 21
15815.453709
 31
0.0
  0
LINE
  8
12
  6
CONTINUOUS
 62
     4
  5
2CD
 10
49901.630569
 20
15814.653819
 30
0.0
 11
49901.630569
 21
15815.453709
 31
0.0
  0
LINE
  8
8
  6
CONTINUOUS
 62
     4
  5
2CE
 10
49909.145909
 20
15801.199959
 30
0.0
 11
49882.650349
 21
15808.037489
 31
0.0
  0
LINE
  8
8
  6
CONTINUOUS
 62
     4
  5
2CF
 10
49942.958149
 20
15801.169509
 30
0.0
 11
49969.689189
 21
15808.067869
 31
0.0
  0
ARC
  8
8
  6
CONTINUOUS
 62
     4
  5
2D0
 10
49944.114129
 20
15797.370609
 30
0.0
 40
4.00008
 50
104.470294
 51
180.0
  0
LINE
  8
50
  6
CENTER
 62
     4
  5
2D1
 10
49956.498669
 20
15814.653819
 30
0.0
 11
49956.498669
 21
15816.775799
 31
0.0
  0
LINE
  8
50
  6
CENTER
 62
     4
  5
2D2
 10
49895.880629
 20
15814.653819
 30
0.0
 11
49895.880629
 21
15816.775799
 31
0.0
  0
ARC
  8
8
  6
CONTINUOUS
 62
     4
  5
2D3
 10
49908.151909
 20
15797.319719
 30
0.0
 40
4.00008
 50
360.0
 51
75.529706
  0
LINE
  8
40
  6
DOT
 62
     3
  5
2D4
 10
50349.412976
 20
15764.406349
 30
0.0
 11
50364.412996
 21
15764.406349
 31
0.0
  0
LINE
  8
40
  6
DOT
 62
     3
  5
2D5
 10
50349.412976
 20
15764.406349
 30
0.0
 11
50349.412976
 21
15770.406469
 31
0.0
  0
LINE
  8
40
  6
DOT
 62
     3
  5
2D6
 10
50364.412996
 20
15764.406349
 30
0.0
 11
50364.412996
 21
15770.406469
 31
0.0
  0
LINE
  8
40
  6
CONTINUOUS
 62
     4
  5
2D7
 10
50370.912916
 20
15770.406329
 30
0.0
 11
50370.912916
 21
15792.990662
 31
0.0
  0
LINE
  8
40
  6
CONTINUOUS
 62
     4
  5
2D8
 10
50342.912916
 20
15770.406329
 30
0.0
 11
50342.912916
 21
15792.990662
 31
0.0
  0
LINE
  8
40
  6
CONTINUOUS
 62
     4
  5
2D9
 10
50370.912916
 20
15770.406469
 30
0.0
 11
50342.912916
 21
15770.406469
 31
0.0
  0
LINE
  8
40
  6
CONTINUOUS
 62
     4
  5
2DA
 10
49940.146389
 20
15770.406329
 30
0.0
 11
49940.146389
 21
15792.990662
 31
0.0
  0
LINE
  8
7
  6
CONTINUOUS
 62
     4
  5
2DB
 10
49912.146389
 20
15800.456538
 30
0.0
 11
49912.146389
 21
15770.406329
 31
0.0
  0
LINE
  8
40
  6
CONTINUOUS
 62
     4
  5
2DC
 10
49912.146389
 20
15770.406329
 30
0.0
 11
49912.146389
 21
15792.990662
 31
0.0
  0
LINE
  8
40
  6
CONTINUOUS
 62
     4
  5
2DD
 10
49912.146389
 20
15770.406469
 30
0.0
 11
49940.146389
 21
15770.406469
 31
0.0
  0
LINE
  8
7
  6
CONTINUOUS
 62
     4
  5
2DE
 10
50380.929652
 20
15755.381224
 30
0.0
 11
50380.929652
 21
15770.406329
 31
0.0
  0
LINE
  8
7
  6
CONTINUOUS
 62
     4
  5
2DF
 10
49902.129652
 20
15770.406329
 30
0.0
 11
50380.929652
 21
15770.406329
 31
0.0
  0
ARC
  8
7
  6
CONTINUOUS
 62
     4
  5
2E0
 10
50370.912916
 20
15755.381224
 30
0.0
 40
10.016736
 50
270.0
 51
360.0
  0
LINE
  8
40
  6
DOT
 62
     3
  5
2E1
 10
49933.646329
 20
15764.406349
 30
0.0
 11
49918.646309
 21
15764.406349
 31
0.0
  0
LINE
  8
40
  6
DOT
 62
     3
  5
2E2
 10
49933.646329
 20
15764.406349
 30
0.0
 11
49933.646329
 21
15770.406469
 31
0.0
  0
LINE
  8
40
  6
DOT
 62
     3
  5
2E3
 10
49918.646309
 20
15764.406349
 30
0.0
 11
49918.646309
 21
15770.406469
 31
0.0
  0
LINE
  8
7
  6
CONTINUOUS
 62
     4
  5
2E4
 10
49912.146389
 20
15745.364488
 30
0.0
 11
50370.912916
 21
15745.364488
 31
0.0
  0
ARC
  8
7
  6
CONTINUOUS
 62
     4
  5
2E5
 10
49912.146389
 20
15755.381224
 30
0.0
 40
10.016736
 50
180.0
 51
270.0
  0
LINE
  8
7
  6
CONTINUOUS
 62
     4
  5
2E6
 10
49902.129652
 20
15755.381224
 30
0.0
 11
49902.129652
 21
15770.406329
 31
0.0
  0
LINE
  8
5
  6
CONTINUOUS
 62
     3
  5
2E7
 10
50023.132192
 20
15745.364488
 30
0.0
 11
49936.529652
 21
15595.364488
 31
0.0
  0
TEXT
  8
5
  6
CONTINUOUS
 62
     3
  5
2E8
 10
49930.146329
 20
16191.906559
 30
0.0
 40
90.0
  1
2,200
 41
0.6
  7

 72
     5
 11
50200.146329
 21
16191.906559
 31
0.0
  0
TEXT
  8
5
  6
CONTINUOUS
 62
     3
  5
2E9
 10
51525.146329
 20
14164.406559
 30
0.0
 40
90.0
  1
3,200
 50
90.0
 41
0.6
  7

 72
     5
 11
51525.146329
 21
14434.406559
 31
0.0
  0
TEXT
  8
5
  6
CONTINUOUS
 62
     3
  5
2EA
 10
51425.146329
 20
13120.656559
 30
0.0
 40
90.0
  1
1,202.5
 50
90.0
 41
0.571429
  7

 72
     5
 11
51425.146329
 21
13480.656559
 31
0.0
  0
TEXT
  8
5
  6
CONTINUOUS
 62
     3
  5
2EB
 10
51425.146329
 20
14219.406559
 30
0.0
 40
90.0
  1
815
 50
90.0
 41
0.666667
  7

 72
     5
 11
51425.146329
 21
14399.406559
 31
0.0
  0
TEXT
  8
5
  6
CONTINUOUS
 62
     3
  5
2EC
 10
51425.146329
 20
15128.156559
 30
0.0
 40
90.0
  1
1,182.5
 50
90.0
 41
0.571429
  7

 72
     5
 11
51425.146329
 21
15488.156559
 31
0.0
  0
TEXT
  8
5
  6
CONTINUOUS
 62
     3
  5
2ED
 10
48672.646329
 20
14164.406559
 30
0.0
 40
90.0
  1
3,200
 50
90.0
 41
0.6
  7

 72
     5
 11
48672.646329
 21
14434.406559
 31
0.0
  0
TEXT
  8
5
  6
CONTINUOUS
 62
     3
  5
2EE
 10
48772.646329
 20
13098.406559
 30
0.0
 40
90.0
  1
1,070
 50
90.0
 41
0.6
  7

 72
     5
 11
48772.646329
 21
13368.406559
 31
0.0
  0
TEXT
  8
5
  6
CONTINUOUS
 62
     3
  5
2EF
 10
48772.646329
 20
15320.156559
 30
0.0
 40
90.0
  1
980
 50
90.0
 41
0.666667
  7

 72
     5
 11
48772.646329
 21
15500.156559
 31
0.0
  0
TEXT
  8
5
  6
CONTINUOUS
 62
     3
  5
2F0
 10
48772.646329
 20
14209.156559
 30
0.0
 40
90.0
  1
1,150
 50
90.0
 41
0.6
  7

 72
     5
 11
48772.646329
 21
14479.156559
 31
0.0
  0
TEXT
  8
5
  6
CONTINUOUS
 62
     3
  5
2F1
 10
49930.146329
 20
12425.906559
 30
0.0
 40
90.0
  1
2,200
 41
0.6
  7

 72
     5
 11
50200.146329
 21
12425.906559
 31
0.0
  0
TEXT
  8
5
  6
CONTINUOUS
 62
     3
  5
2F2
 10
50357.146329
 20
12525.906559
 30
0.0
 40
90.0
  1
1,350
 41
0.6
  7

 72
     5
 11
50627.146329
 21
12525.906559
 31
0.0
  0
TEXT
  8
5
  6
CONTINUOUS
 62
     3
  5
2F3
 10
48927.146329
 20
12525.906559
 30
0.0
 40
90.0
  1
100
 41
0.666667
  7

 72
     5
 11
49107.146329
 21
12525.906559
 31
0.0
  0
TEXT
  8
5
  6
CONTINUOUS
 62
     3
  5
2F4
 10
49354.146329
 20
12525.906559
 30
0.0
 40
90.0
  1
750
 41
0.666667
  7

 72
     5
 11
49534.146329
 21
12525.906559
 31
0.0
  0
TEXT
  8
5
  6
CONTINUOUS
 62
     3
  5
2F5
 10
49986.529652
 20
15595.364488
 30
0.0
 40
90.0
  1
テスリックス
 41
0.837
  7

 72
     5
 11
50526.529652
 21
15595.364488
 31
0.0
  0
LINE
  8
5
  6
CONTINUOUS
 62
     3
  5
2F6
 10
49936.529652
 20
15595.364488
 30
0.0
 11
50515.298696
 21
15595.364488
 31
0.0
  0
LINE
  8
3
  6
CONTINUOUS
 62
     6
  5
2F7
 10
50819.037894
 20
8984.531539
 30
0.0
 11
50269.437886
 21
8984.531539
 31
0.0
  0
LINE
  8
3
  6
CONTINUOUS
 62
     6
  5
2F8
 10
50891.037895
 20
8654.931534
 30
0.0
 11
50811.037894
 21
8654.931534
 31
0.0
  0
LINE
  8
3
  6
CONTINUOUS
 62
     6
  5
2F9
 10
51022.237897
 20
9358.131545
 30
0.0
 11
50832.237895
 21
9358.131545
 31
0.0
  0
LINE
  8
3
  6
CONTINUOUS
 62
     6
  5
2FA
 10
50819.037894
 20
9036.53154
 30
0.0
 11
50819.037894
 21
8984.531539
 31
0.0
  0
LINE
  8
3
  6
CONTINUOUS
 62
     6
  5
2FB
 10
50263.437886
 20
9003.731539
 30
0.0
 11
50709.437893
 21
9003.731539
 31
0.0
  0
LINE
  8
3
  6
CONTINUOUS
 62
     6
  5
2FC
 10
50819.037894
 20
8989.731539
 30
0.0
 11
51018.237897
 21
8989.731539
 31
0.0
  0
LINE
  8
3
  6
CONTINUOUS
 62
     6
  5
2FD
 10
50709.437893
 20
9036.53154
 30
0.0
 11
50709.437893
 21
8984.531539
 31
0.0
  0
LINE
  8
3
  6
CONTINUOUS
 62
     6
  5
2FE
 10
50819.037894
 20
9036.53154
 30
0.0
 11
50641.437892
 21
9036.53154
 31
0.0
  0
LINE
  8
3
  6
CONTINUOUS
 62
     6
  5
2FF
 10
50471.437889
 20
8624.931534
 30
0.0
 11
50471.837889
 21
8649.731534
 31
0.0
  0
LINE
  8
3
  6
CONTINUOUS
 62
     6
  5
300
 10
50471.837889
 20
8649.731534
 30
0.0
 11
50472.637889
 21
8674.531535
 31
0.0
  0
LINE
  8
3
  6
CONTINUOUS
 62
     6
  5
301
 10
50472.637889
 20
8674.531535
 30
0.0
 11
50473.837889
 21
8699.731535
 31
0.0
  0
LINE
  8
3
  6
CONTINUOUS
 62
     6
  5
302
 10
50473.837889
 20
8699.731535
 30
0.0
 11
50475.037889
 21
8724.531535
 31
0.0
  0
LINE
  8
3
  6
CONTINUOUS
 62
     6
  5
303
 10
50475.037889
 20
8724.531535
 30
0.0
 11
50476.237889
 21
8749.731536
 31
0.0
  0
LINE
  8
3
  6
CONTINUOUS
 62
     6
  5
304
 10
50476.237889
 20
8749.731536
 30
0.0
 11
50477.837889
 21
8773.331536
 31
0.0
  0
ARC
  8
3
  6
CONTINUOUS
 62
     6
  5
305
 10
50331.037887
 20
8982.131539
 30
0.0
 40
60.000001
 50
177.62
 51
211.08
  0
ARC
  8
3
  6
CONTINUOUS
 62
     6
  5
306
 10
50355.037887
 20
8652.131534
 30
0.0
 40
200.000003
 50
63.23
 51
68.24
  0
ARC
  8
3
  6
CONTINUOUS
 62
     6
  5
307
 10
50417.837888
 20
8777.331536
 30
0.0
 40
60.000001
 50
356.1
 51
63.23
  0
ARC
  8
3
  6
CONTINUOUS
 62
     6
  5
308
 10
50427.037888
 20
8599.331533
 30
0.0
 40
600.000009
 50
2.46
 51
13.08
  0
LINE
  8
3
  6
CONTINUOUS
 62
     6
  5
309
 10
50993.837897
 20
8989.331539
 30
0.0
 11
50984.637897
 21
8966.531539
 31
0.0
  0
LINE
  8
3
  6
CONTINUOUS
 62
     6
  5
30A
 10
50984.637897
 20
8966.531539
 30
0.0
 11
50975.037897
 21
8943.731539
 31
0.0
  0
LINE
  8
3
  6
CONTINUOUS
 62
     6
  5
30B
 10
50975.037897
 20
8943.731539
 30
0.0
 11
50964.237896
 21
8920.931538
 31
0.0
  0
LINE
  8
3
  6
CONTINUOUS
 62
     6
  5
30C
 10
50964.237896
 20
8920.931538
 30
0.0
 11
50952.637896
 21
8898.531538
 31
0.0
  0
LINE
  8
3
  6
CONTINUOUS
 62
     6
  5
30D
 10
50952.637896
 20
8898.531538
 30
0.0
 11
50940.637896
 21
8876.931538
 31
0.0
  0
LINE
  8
3
  6
CONTINUOUS
 62
     6
  5
30E
 10
50940.637896
 20
8876.931538
 30
0.0
 11
50932.237896
 21
8862.531537
 31
0.0
  0
ARC
  8
3
  6
CONTINUOUS
 62
     6
  5
30F
 10
50859.037895
 20
8684.931535
 30
0.0
 40
160.000002
 50
18.17
 51
58.58
  0
ARC
  8
3
  6
CONTINUOUS
 62
     6
  5
310
 10
50958.237896
 20
8847.331537
 30
0.0
 40
30.0
 50
149.15
 51
238.58
  0
ARC
  8
3
  6
CONTINUOUS
 62
     6
  5
311
 10
50299.437887
 20
8963.731539
 30
0.0
 40
400.000006
 50
336.56
 51
352.94
  0
ARC
  8
3
  6
CONTINUOUS
 62
     6
  5
312
 10
50391.437888
 20
8670.531535
 30
0.0
 40
500.000007
 50
358.21
 51
9.62
  0
ARC
  8
3
  6
CONTINUOUS
 62
     6
  5
313
 10
50687.437892
 20
8720.531535
 30
0.0
 40
200.000003
 50
9.62
 51
24.37
  0
ARC
  8
3
  6
CONTINUOUS
 62
     6
  5
314
 10
51310.637902
 20
8670.531535
 30
0.0
 40
500.000007
 50
170.39
 51
181.8
  0
ARC
  8
3
  6
CONTINUOUS
 62
     6
  5
315
 10
50851.037895
 20
8794.931536
 30
0.0
 40
20.0
 50
24.37
 51
155.64
  0
ARC
  8
3
  6
CONTINUOUS
 62
     6
  5
316
 10
51015.037897
 20
8720.531535
 30
0.0
 40
200.000003
 50
155.64
 51
170.39
  0
LINE
  8
3
  6
CONTINUOUS
 62
     6
  5
317
 10
50351.837887
 20
9028.13154
 30
0.0
 11
50376.637888
 21
9030.13154
 31
0.0
  0
LINE
  8
3
  6
CONTINUOUS
 62
     6
  5
318
 10
50376.637888
 20
9030.13154
 30
0.0
 11
50401.437888
 21
9031.73154
 31
0.0
  0
LINE
  8
3
  6
CONTINUOUS
 62
     6
  5
319
 10
50401.437888
 20
9031.73154
 30
0.0
 11
50426.637888
 21
9032.93154
 31
0.0
  0
LINE
  8
3
  6
CONTINUOUS
 62
     6
  5
31A
 10
50426.637888
 20
9032.93154
 30
0.0
 11
50451.437889
 21
9033.73154
 31
0.0
  0
LINE
  8
3
  6
CONTINUOUS
 62
     6
  5
31B
 10
50451.437889
 20
9033.73154
 30
0.0
 11
50464.637889
 21
9034.13154
 31
0.0
  0
ARC
  8
3
  6
CONTINUOUS
 62
     6
  5
31C
 10
50392.637888
 20
8530.531532
 30
0.0
 40
500.000007
 50
94.7
 51
100.85
  0
ARC
  8
3
  6
CONTINUOUS
 62
     6
  5
31D
 10
50321.037887
 20
8903.331538
 30
0.0
 40
120.000002
 50
100.85
 51
109.02
  0
ARC
  8
3
  6
CONTINUOUS
 62
     6
  5
31E
 10
50295.037887
 20
8978.531539
 30
0.0
 40
40.000001
 50
109.02
 51
141.74
  0
LINE
  8
3
  6
CONTINUOUS
 62
     6
  5
31F
 10
50806.237894
 20
9036.13154
 30
0.0
 11
50806.237894
 21
9061.33154
 31
0.0
  0
LINE
  8
3
  6
CONTINUOUS
 62
     6
  5
320
 10
50806.237894
 20
9061.33154
 30
0.0
 11
50806.637894
 21
9086.131541
 31
0.0
  0
LINE
  8
3
  6
CONTINUOUS
 62
     6
  5
321
 10
50806.637894
 20
9086.131541
 30
0.0
 11
50807.437894
 21
9111.331541
 31
0.0
  0
LINE
  8
3
  6
CONTINUOUS
 62
     6
  5
322
 10
50807.437894
 20
9111.331541
 30
0.0
 11
50808.637894
 21
9136.131541
 31
0.0
  0
LINE
  8
3
  6
CONTINUOUS
 62
     6
  5
323
 10
50808.637894
 20
9136.131541
 30
0.0
 11
50810.237894
 21
9161.331542
 31
0.0
  0
LINE
  8
3
  6
CONTINUOUS
 62
     6
  5
324
 10
50810.237894
 20
9161.331542
 30
0.0
 11
50811.837894
 21
9186.131542
 31
0.0
  0
LINE
  8
3
  6
CONTINUOUS
 62
     6
  5
325
 10
50811.837894
 20
9186.131542
 30
0.0
 11
50813.837894
 21
9211.331543
 31
0.0
  0
LINE
  8
3
  6
CONTINUOUS
 62
     6
  5
326
 10
50813.837894
 20
9211.331543
 30
0.0
 11
50816.237894
 21
9236.131543
 31
0.0
  0
LINE
  8
3
  6
CONTINUOUS
 62
     6
  5
327
 10
50816.237894
 20
9236.131543
 30
0.0
 11
50824.637894
 21
9310.531544
 31
0.0
  0
LINE
  8
3
  6
CONTINUOUS
 62
     6
  5
328
 10
50825.037894
 20
9310.531544
 30
0.0
 11
50829.037894
 21
9335.331544
 31
0.0
  0
LINE
  8
3
  6
CONTINUOUS
 62
     6
  5
329
 10
50837.037895
 20
9384.531545
 30
0.0
 11
50829.037894
 21
9335.331544
 31
0.0
  0
LINE
  8
3
  6
CONTINUOUS
 62
     6
  5
32A
 10
50837.037895
 20
9384.531545
 30
0.0
 11
50837.037895
 21
9384.931545
 31
0.0
  0
ARC
  8
3
  6
CONTINUOUS
 62
     6
  5
32B
 10
50305.837887
 20
8967.731539
 30
0.0
 40
40.000001
 50
116.04
 51
154.95
  0
LINE
  8
3
  6
CONTINUOUS
 62
     6
  5
32C
 10
50464.637889
 20
9034.13154
 30
0.0
 11
50489.837889
 21
9034.93154
 31
0.0
  0
LINE
  8
3
  6
CONTINUOUS
 62
     6
  5
32D
 10
50489.837889
 20
9034.93154
 30
0.0
 11
50514.63789
 21
9035.33154
 31
0.0
  0
LINE
  8
3
  6
CONTINUOUS
 62
     6
  5
32E
 10
50514.63789
 20
9035.33154
 30
0.0
 11
50539.83789
 21
9035.73154
 31
0.0
  0
LINE
  8
3
  6
CONTINUOUS
 62
     6
  5
32F
 10
50539.83789
 20
9035.73154
 30
0.0
 11
50564.637891
 21
9036.13154
 31
0.0
  0
LINE
  8
3
  6
CONTINUOUS
 62
     6
  5
330
 10
50564.637891
 20
9036.13154
 30
0.0
 11
50589.837891
 21
9036.13154
 31
0.0
  0
LINE
  8
3
  6
CONTINUOUS
 62
     6
  5
331
 10
50589.837891
 20
9036.13154
 30
0.0
 11
50614.637891
 21
9036.13154
 31
0.0
  0
LINE
  8
3
  6
CONTINUOUS
 62
     6
  5
332
 10
50614.637891
 20
9036.13154
 30
0.0
 11
50639.837892
 21
9036.13154
 31
0.0
  0
LINE
  8
3
  6
CONTINUOUS
 62
     6
  5
333
 10
50639.837892
 20
9036.13154
 30
0.0
 11
50641.437892
 21
9036.53154
 31
0.0
  0
ARC
  8
3
  6
CONTINUOUS
 62
     6
  5
334
 10
50577.037891
 20
9208.931543
 30
0.0
 40
400.000006
 50
230.77
 51
248.24
  0
ARC
  8
3
  6
CONTINUOUS
 62
     6
  5
335
 10
50450.637889
 20
9054.13154
 30
0.0
 40
200.000003
 50
211.08
 51
230.77
  0
LINE
  8
3
  6
CONTINUOUS
 62
     6
  5
336
 10
51019.037897
 20
9408.931546
 30
0.0
 11
51020.637897
 21
9384.131545
 31
0.0
  0
LINE
  8
3
  6
CONTINUOUS
 62
     6
  5
337
 10
51020.637897
 20
9384.131545
 30
0.0
 11
51022.237897
 21
9358.931545
 31
0.0
  0
LINE
  8
3
  6
CONTINUOUS
 62
     6
  5
338
 10
51022.237897
 20
9358.931545
 30
0.0
 11
51023.037897
 21
9334.131544
 31
0.0
  0
LINE
  8
3
  6
CONTINUOUS
 62
     6
  5
339
 10
51023.037897
 20
9334.131544
 30
0.0
 11
51024.237897
 21
9308.931544
 31
0.0
  0
LINE
  8
3
  6
CONTINUOUS
 62
     6
  5
33A
 10
51024.237897
 20
9308.931544
 30
0.0
 11
51025.037897
 21
9284.131544
 31
0.0
  0
LINE
  8
3
  6
CONTINUOUS
 62
     6
  5
33B
 10
51025.037897
 20
9284.131544
 30
0.0
 11
51025.437897
 21
9258.931543
 31
0.0
  0
LINE
  8
3
  6
CONTINUOUS
 62
     6
  5
33C
 10
51025.437897
 20
9258.931543
 30
0.0
 11
51025.837897
 21
9234.131543
 31
0.0
  0
LINE
  8
3
  6
CONTINUOUS
 62
     6
  5
33D
 10
51025.837897
 20
9234.131543
 30
0.0
 11
51025.837897
 21
9208.931543
 31
0.0
  0
LINE
  8
3
  6
CONTINUOUS
 62
     6
  5
33E
 10
51025.837897
 20
9208.931543
 30
0.0
 11
51025.837897
 21
9184.131542
 31
0.0
  0
LINE
  8
3
  6
CONTINUOUS
 62
     6
  5
33F
 10
51025.837897
 20
9184.131542
 30
0.0
 11
51025.437897
 21
9158.931542
 31
0.0
  0
LINE
  8
3
  6
CONTINUOUS
 62
     6
  5
340
 10
51025.437897
 20
9158.931542
 30
0.0
 11
51025.037897
 21
9134.131541
 31
0.0
  0
LINE
  8
3
  6
CONTINUOUS
 62
     6
  5
341
 10
51025.037897
 20
9134.131541
 30
0.0
 11
51024.237897
 21
9108.931541
 31
0.0
  0
LINE
  8
3
  6
CONTINUOUS
 62
     6
  5
342
 10
51024.237897
 20
9108.931541
 30
0.0
 11
51023.437897
 21
9084.131541
 31
0.0
  0
LINE
  8
3
  6
CONTINUOUS
 62
     6
  5
343
 10
51023.437897
 20
9084.131541
 30
0.0
 11
51022.237897
 21
9058.93154
 31
0.0
  0
LINE
  8
3
  6
CONTINUOUS
 62
     6
  5
344
 10
51022.237897
 20
9058.93154
 30
0.0
 11
51021.037897
 21
9034.13154
 31
0.0
  0
LINE
  8
3
  6
CONTINUOUS
 62
     6
  5
345
 10
51021.037897
 20
9034.13154
 30
0.0
 11
51019.437897
 21
9009.33154
 31
0.0
  0
LINE
  8
3
  6
CONTINUOUS
 62
     6
  5
346
 10
51019.437897
 20
9009.33154
 30
0.0
 11
51018.237897
 21
8989.731539
 31
0.0
  0
ARC
  8
3
  6
CONTINUOUS
 62
     6
  5
347
 10
51046.237898
 20
9240.931543
 30
0.0
 40
170.000003
 50
99.28
 51
116.72
  0
ARC
  8
3
  6
CONTINUOUS
 62
     6
  5
348
 10
50931.437896
 20
8934.931538
 30
0.0
 40
460.000007
 50
85.21
 51
101.86
  0
LINE
  8
52
  6
CONTINUOUS
 62
     6
  5
349
 10
51014.436555
 20
8721.654127
 30
0.0
 11
51017.867108
 21
8725.08468
 31
0.0
  0
LINE
  8
22
  6
CONTINUOUS
 62
     5
  5
34A
 10
51045.146329
 20
11125.08468
 30
0.0
 11
49026.146329
 21
11125.08468
 31
0.0
  0
LINE
  8
22
  6
CONTINUOUS
 62
     5
  5
34B
 10
49026.146329
 20
11125.08468
 30
0.0
 11
49026.146329
 21
8625.08468
 31
0.0
  0
LINE
  8
22
  6
CONTINUOUS
 62
     5
  5
34C
 10
51045.146329
 20
8625.08468
 30
0.0
 11
49026.146329
 21
8625.08468
 31
0.0
  0
LINE
  8
22
  6
CONTINUOUS
 62
     5
  5
34D
 10
51045.146329
 20
11125.08468
 30
0.0
 11
51045.146329
 21
8625.08468
 31
0.0
  0
LINE
  8
10
  6
CONTINUOUS
 62
     5
  5
34E
 10
49504.146329
 20
8625.08468
 30
0.0
 11
49504.146329
 21
11125.08468
 31
0.0
  0
LINE
  8
10
  6
CONTINUOUS
 62
     5
  5
34F
 10
49544.146329
 20
8625.08468
 30
0.0
 11
49544.146329
 21
11125.08468
 31
0.0
  0
LINE
  8
5
  6
CONTINUOUS
 62
     3
  5
350
 10
49695.146322
 20
8625.08468
 30
0.0
 11
49895.146322
 21
8625.08468
 31
0.0
  0
CIRCLE
  8
5
  6
CONTINUOUS
 62
     3
  5
351
 10
49695.146322
 20
8625.08468
 30
0.0
 40
7.5
  0
CIRCLE
  8
5
  6
CONTINUOUS
 62
     3
  5
352
 10
49795.146322
 20
8625.08468
 30
0.0
 40
7.5
  0
LINE
  8
5
  6
CONTINUOUS
 62
     3
  5
353
 10
51045.146329
 20
9920.084687
 30
0.0
 11
51045.146329
 21
9720.084687
 31
0.0
  0
CIRCLE
  8
5
  6
CONTINUOUS
 62
     3
  5
354
 10
51045.146329
 20
9920.084687
 30
0.0
 40
7.5
  0
CIRCLE
  8
5
  6
CONTINUOUS
 62
     3
  5
355
 10
51045.146329
 20
9820.084687
 30
0.0
 40
7.5
  0
ARC
  8
80
  6
CONTINUOUS
 62
     4
  5
356
 10
49950.646322
 20
9509.784684
 30
0.0
 40
7.7
 50
30.0
 51
210.0
  0
ARC
  8
80
  6
CONTINUOUS
 62
     4
  5
357
 10
49950.646322
 20
9509.784684
 30
0.0
 40
6.8
 50
30.0
 51
210.0
  0
LINE
  8
80
  6
CONTINUOUS
 62
     4
  5
358
 10
49960.746322
 20
9507.484684
 30
0.0
 11
49957.246322
 21
9513.584684
 31
0.0
  0
LINE
  8
80
  6
CONTINUOUS
 62
     4
  5
359
 10
49956.446322
 20
9513.084684
 30
0.0
 11
49959.646322
 21
9507.684684
 31
0.0
  0
ARC
  8
80
  6
CONTINUOUS
 62
     4
  5
35A
 10
49933.146322
 20
9540.084684
 30
0.0
 40
41.800001
 50
290.63
 51
309.02
  0
LINE
  8
80
  6
CONTINUOUS
 62
     4
  5
35B
 10
49944.746322
 20
9506.384684
 30
0.0
 11
49947.846322
 21
9500.984684
 31
0.0
  0
LINE
  8
80
  6
CONTINUOUS
 62
     4
  5
35C
 10
49947.446322
 20
9499.884684
 30
0.0
 11
49943.946322
 21
9505.884684
 31
0.0
  0
ARC
  8
80
  6
CONTINUOUS
 62
     4
  5
35D
 10
49898.146321
 20
9540.084684
 30
0.0
 40
7.7
 50
270.0
 51
90.0
  0
ARC
  8
80
  6
CONTINUOUS
 62
     4
  5
35E
 10
49898.146321
 20
9540.084684
 30
0.0
 40
6.8
 50
270.0
 51
90.0
  0
LINE
  8
80
  6
CONTINUOUS
 62
     4
  5
35F
 10
49891.146321
 20
9532.484684
 30
0.0
 11
49898.146321
 21
9532.484684
 31
0.0
  0
LINE
  8
80
  6
CONTINUOUS
 62
     4
  5
360
 10
49898.146321
 20
9533.384684
 30
0.0
 11
49891.846321
 21
9533.384684
 31
0.0
  0
ARC
  8
80
  6
CONTINUOUS
 62
     4
  5
361
 10
49933.146322
 20
9540.084684
 30
0.0
 40
41.800001
 50
170.63
 51
189.02
  0
LINE
  8
80
  6
CONTINUOUS
 62
     4
  5
362
 10
49898.146321
 20
9546.884684
 30
0.0
 11
49891.946321
 21
9546.884684
 31
0.0
  0
LINE
  8
80
  6
CONTINUOUS
 62
     4
  5
363
 10
49891.146321
 20
9547.784684
 30
0.0
 11
49898.146321
 21
9547.784684
 31
0.0
  0
ARC
  8
80
  6
CONTINUOUS
 62
     4
  5
364
 10
49950.646322
 20
9570.384685
 30
0.0
 40
7.7
 50
150.0
 51
330.0
  0
ARC
  8
80
  6
CONTINUOUS
 62
     4
  5
365
 10
49950.646322
 20
9570.384685
 30
0.0
 40
6.8
 50
150.0
 51
330.0
  0
LINE
  8
80
  6
CONTINUOUS
 62
     4
  5
366
 10
49947.546322
 20
9580.284685
 30
0.0
 11
49944.046322
 21
9574.184685
 31
0.0
  0
LINE
  8
80
  6
CONTINUOUS
 62
     4
  5
367
 10
49944.846322
 20
9573.784685
 30
0.0
 11
49947.946322
 21
9579.184685
 31
0.0
  0
ARC
  8
80
  6
CONTINUOUS
 62
     4
  5
368
 10
49933.146322
 20
9540.084684
 30
0.0
 40
41.800001
 50
50.63
 51
69.02
  0
LINE
  8
80
  6
CONTINUOUS
 62
     4
  5
369
 10
49956.546322
 20
9566.984685
 30
0.0
 11
49959.646322
 21
9572.384685
 31
0.0
  0
LINE
  8
80
  6
CONTINUOUS
 62
     4
  5
36A
 10
49960.846322
 20
9572.584685
 30
0.0
 11
49957.346322
 21
9566.584685
 31
0.0
  0
ARC
  8
80
  6
CONTINUOUS
 62
     4
  5
36B
 10
49950.646322
 20
9209.784679
 30
0.0
 40
7.7
 50
30.0
 51
210.0
  0
ARC
  8
80
  6
CONTINUOUS
 62
     4
  5
36C
 10
49950.646322
 20
9209.784679
 30
0.0
 40
6.8
 50
30.0
 51
210.0
  0
LINE
  8
80
  6
CONTINUOUS
 62
     4
  5
36D
 10
49960.746322
 20
9207.484679
 30
0.0
 11
49957.246322
 21
9213.584679
 31
0.0
  0
LINE
  8
80
  6
CONTINUOUS
 62
     4
  5
36E
 10
49956.446322
 20
9213.084679
 30
0.0
 11
49959.646322
 21
9207.684679
 31
0.0
  0
ARC
  8
80
  6
CONTINUOUS
 62
     4
  5
36F
 10
49933.146322
 20
9240.08468
 30
0.0
 40
41.800001
 50
290.63
 51
309.02
  0
LINE
  8
80
  6
CONTINUOUS
 62
     4
  5
370
 10
49944.746322
 20
9206.384679
 30
0.0
 11
49947.846322
 21
9200.984679
 31
0.0
  0
LINE
  8
80
  6
CONTINUOUS
 62
     4
  5
371
 10
49947.446322
 20
9199.884679
 30
0.0
 11
49943.946322
 21
9205.884679
 31
0.0
  0
ARC
  8
80
  6
CONTINUOUS
 62
     4
  5
372
 10
49898.146321
 20
9240.08468
 30
0.0
 40
7.7
 50
270.0
 51
90.0
  0
ARC
  8
80
  6
CONTINUOUS
 62
     4
  5
373
 10
49898.146321
 20
9240.08468
 30
0.0
 40
6.8
 50
270.0
 51
90.0
  0
LINE
  8
80
  6
CONTINUOUS
 62
     4
  5
374
 10
49891.146321
 20
9232.48468
 30
0.0
 11
49898.146321
 21
9232.48468
 31
0.0
  0
LINE
  8
80
  6
CONTINUOUS
 62
     4
  5
375
 10
49898.146321
 20
9233.38468
 30
0.0
 11
49891.846321
 21
9233.38468
 31
0.0
  0
ARC
  8
80
  6
CONTINUOUS
 62
     4
  5
376
 10
49933.146322
 20
9240.08468
 30
0.0
 40
41.800001
 50
170.63
 51
189.02
  0
LINE
  8
80
  6
CONTINUOUS
 62
     4
  5
377
 10
49898.146321
 20
9246.88468
 30
0.0
 11
49891.946321
 21
9246.88468
 31
0.0
  0
LINE
  8
80
  6
CONTINUOUS
 62
     4
  5
378
 10
49891.146321
 20
9247.78468
 30
0.0
 11
49898.146321
 21
9247.78468
 31
0.0
  0
ARC
  8
80
  6
CONTINUOUS
 62
     4
  5
379
 10
49950.646322
 20
9270.38468
 30
0.0
 40
7.7
 50
150.0
 51
330.0
  0
ARC
  8
80
  6
CONTINUOUS
 62
     4
  5
37A
 10
49950.646322
 20
9270.38468
 30
0.0
 40
6.8
 50
150.0
 51
330.0
  0
LINE
  8
80
  6
CONTINUOUS
 62
     4
  5
37B
 10
49947.546322
 20
9280.28468
 30
0.0
 11
49944.046322
 21
9274.18468
 31
0.0
  0
LINE
  8
80
  6
CONTINUOUS
 62
     4
  5
37C
 10
49944.846322
 20
9273.78468
 30
0.0
 11
49947.946322
 21
9279.18468
 31
0.0
  0
ARC
  8
80
  6
CONTINUOUS
 62
     4
  5
37D
 10
49933.146322
 20
9240.08468
 30
0.0
 40
41.800001
 50
50.63
 51
69.02
  0
LINE
  8
80
  6
CONTINUOUS
 62
     4
  5
37E
 10
49956.546322
 20
9266.98468
 30
0.0
 11
49959.646322
 21
9272.38468
 31
0.0
  0
LINE
  8
80
  6
CONTINUOUS
 62
     4
  5
37F
 10
49960.846322
 20
9272.58468
 30
0.0
 11
49957.346322
 21
9266.58468
 31
0.0
  0
ARC
  8
80
  6
CONTINUOUS
 62
     4
  5
380
 10
50349.646328
 20
9570.384685
 30
0.0
 40
7.7
 50
210.0
 51
30.0
  0
ARC
  8
80
  6
CONTINUOUS
 62
     4
  5
381
 10
50349.646328
 20
9570.384685
 30
0.0
 40
6.8
 50
210.0
 51
30.0
  0
LINE
  8
80
  6
CONTINUOUS
 62
     4
  5
382
 10
50339.546328
 20
9572.684685
 30
0.0
 11
50343.046328
 21
9566.584685
 31
0.0
  0
LINE
  8
80
  6
CONTINUOUS
 62
     4
  5
383
 10
50343.846328
 20
9567.084685
 30
0.0
 11
50340.646328
 21
9572.484685
 31
0.0
  0
ARC
  8
80
  6
CONTINUOUS
 62
     4
  5
384
 10
50367.146328
 20
9540.084684
 30
0.0
 40
41.800001
 50
110.63
 51
129.02
  0
LINE
  8
80
  6
CONTINUOUS
 62
     4
  5
385
 10
50355.546328
 20
9573.784685
 30
0.0
 11
50352.446328
 21
9579.184685
 31
0.0
  0
LINE
  8
80
  6
CONTINUOUS
 62
     4
  5
386
 10
50352.846328
 20
9580.284685
 30
0.0
 11
50356.346328
 21
9574.284685
 31
0.0
  0
ARC
  8
80
  6
CONTINUOUS
 62
     4
  5
387
 10
50402.146329
 20
9540.084684
 30
0.0
 40
7.7
 50
90.0
 51
270.0
  0
ARC
  8
80
  6
CONTINUOUS
 62
     4
  5
388
 10
50402.146329
 20
9540.084684
 30
0.0
 40
6.8
 50
90.0
 51
270.0
  0
LINE
  8
80
  6
CONTINUOUS
 62
     4
  5
389
 10
50409.146329
 20
9547.684684
 30
0.0
 11
50402.146329
 21
9547.684684
 31
0.0
  0
LINE
  8
80
  6
CONTINUOUS
 62
     4
  5
38A
 10
50402.146329
 20
9546.784684
 30
0.0
 11
50408.446329
 21
9546.784684
 31
0.0
  0
ARC
  8
80
  6
CONTINUOUS
 62
     4
  5
38B
 10
50367.146328
 20
9540.084684
 30
0.0
 40
41.800001
 50
350.63
 51
9.02
  0
LINE
  8
80
  6
CONTINUOUS
 62
     4
  5
38C
 10
50402.146329
 20
9533.284684
 30
0.0
 11
50408.346329
 21
9533.284684
 31
0.0
  0
LINE
  8
80
  6
CONTINUOUS
 62
     4
  5
38D
 10
50409.146329
 20
9532.384684
 30
0.0
 11
50402.146329
 21
9532.384684
 31
0.0
  0
ARC
  8
80
  6
CONTINUOUS
 62
     4
  5
38E
 10
50349.646328
 20
9509.784684
 30
0.0
 40
7.7
 50
330.0
 51
150.0
  0
ARC
  8
80
  6
CONTINUOUS
 62
     4
  5
38F
 10
50349.646328
 20
9509.784684
 30
0.0
 40
6.8
 50
330.0
 51
150.0
  0
LINE
  8
80
  6
CONTINUOUS
 62
     4
  5
390
 10
50352.746328
 20
9499.884684
 30
0.0
 11
50356.246328
 21
9505.984684
 31
0.0
  0
LINE
  8
80
  6
CONTINUOUS
 62
     4
  5
391
 10
50355.446328
 20
9506.384684
 30
0.0
 11
50352.346328
 21
9500.984684
 31
0.0
  0
ARC
  8
80
  6
CONTINUOUS
 62
     4
  5
392
 10
50367.146328
 20
9540.084684
 30
0.0
 40
41.800001
 50
230.63
 51
249.02
  0
LINE
  8
80
  6
CONTINUOUS
 62
     4
  5
393
 10
50343.746328
 20
9513.184684
 30
0.0
 11
50340.646328
 21
9507.784684
 31
0.0
  0
LINE
  8
80
  6
CONTINUOUS
 62
     4
  5
394
 10
50339.446328
 20
9507.584684
 30
0.0
 11
50342.946328
 21
9513.584684
 31
0.0
  0
ARC
  8
80
  6
CONTINUOUS
 62
     4
  5
395
 10
50349.646328
 20
9270.38468
 30
0.0
 40
7.7
 50
210.0
 51
30.0
  0
ARC
  8
80
  6
CONTINUOUS
 62
     4
  5
396
 10
50349.646328
 20
9270.38468
 30
0.0
 40
6.8
 50
210.0
 51
30.0
  0
LINE
  8
80
  6
CONTINUOUS
 62
     4
  5
397
 10
50339.546328
 20
9272.68468
 30
0.0
 11
50343.046328
 21
9266.58468
 31
0.0
  0
LINE
  8
80
  6
CONTINUOUS
 62
     4
  5
398
 10
50343.846328
 20
9267.08468
 30
0.0
 11
50340.646328
 21
9272.48468
 31
0.0
  0
ARC
  8
80
  6
CONTINUOUS
 62
     4
  5
399
 10
50367.146328
 20
9240.08468
 30
0.0
 40
41.800001
 50
110.63
 51
129.02
  0
LINE
  8
80
  6
CONTINUOUS
 62
     4
  5
39A
 10
50355.546328
 20
9273.78468
 30
0.0
 11
50352.446328
 21
9279.18468
 31
0.0
  0
LINE
  8
80
  6
CONTINUOUS
 62
     4
  5
39B
 10
50352.846328
 20
9280.28468
 30
0.0
 11
50356.346328
 21
9274.28468
 31
0.0
  0
ARC
  8
80
  6
CONTINUOUS
 62
     4
  5
39C
 10
50402.146329
 20
9240.08468
 30
0.0
 40
7.7
 50
90.0
 51
270.0
  0
ARC
  8
80
  6
CONTINUOUS
 62
     4
  5
39D
 10
50402.146329
 20
9240.08468
 30
0.0
 40
6.8
 50
90.0
 51
270.0
  0
LINE
  8
80
  6
CONTINUOUS
 62
     4
  5
39E
 10
50409.146329
 20
9247.68468
 30
0.0
 11
50402.146329
 21
9247.68468
 31
0.0
  0
LINE
  8
80
  6
CONTINUOUS
 62
     4
  5
39F
 10
50402.146329
 20
9246.78468
 30
0.0
 11
50408.446329
 21
9246.78468
 31
0.0
  0
ARC
  8
80
  6
CONTINUOUS
 62
     4
  5
3A0
 10
50367.146328
 20
9240.08468
 30
0.0
 40
41.800001
 50
350.63
 51
9.02
  0
LINE
  8
80
  6
CONTINUOUS
 62
     4
  5
3A1
 10
50402.146329
 20
9233.28468
 30
0.0
 11
50408.346329
 21
9233.28468
 31
0.0
  0
LINE
  8
80
  6
CONTINUOUS
 62
     4
  5
3A2
 10
50409.146329
 20
9232.38468
 30
0.0
 11
50402.146329
 21
9232.38468
 31
0.0
  0
ARC
  8
80
  6
CONTINUOUS
 62
     4
  5
3A3
 10
50349.646328
 20
9209.784679
 30
0.0
 40
7.7
 50
330.0
 51
150.0
  0
ARC
  8
80
  6
CONTINUOUS
 62
     4
  5
3A4
 10
50349.646328
 20
9209.784679
 30
0.0
 40
6.8
 50
330.0
 51
150.0
  0
LINE
  8
80
  6
CONTINUOUS
 62
     4
  5
3A5
 10
50352.746328
 20
9199.884679
 30
0.0
 11
50356.246328
 21
9205.984679
 31
0.0
  0
LINE
  8
80
  6
CONTINUOUS
 62
     4
  5
3A6
 10
50355.446328
 20
9206.384679
 30
0.0
 11
50352.346328
 21
9200.984679
 31
0.0
  0
ARC
  8
80
  6
CONTINUOUS
 62
     4
  5
3A7
 10
50367.146328
 20
9240.08468
 30
0.0
 40
41.800001
 50
230.63
 51
249.02
  0
LINE
  8
80
  6
CONTINUOUS
 62
     4
  5
3A8
 10
50343.746328
 20
9213.184679
 30
0.0
 11
50340.646328
 21
9207.784679
 31
0.0
  0
LINE
  8
80
  6
CONTINUOUS
 62
     4
  5
3A9
 10
50339.446328
 20
9207.584679
 30
0.0
 11
50342.946328
 21
9213.584679
 31
0.0
  0
ARC
  8
80
  6
CONTINUOUS
 62
     4
  5
3AA
 10
49933.146322
 20
9240.08468
 30
0.0
 40
45.000001
 50
119.87
 51
240.13
  0
ARC
  8
80
  6
DIVIDE
 62
     4
  5
3AB
 10
49933.146322
 20
9240.08468
 30
0.0
 40
42.700001
 50
121.61
 51
238.39
  0
ARC
  8
80
  6
DIVIDE
 62
     4
  5
3AC
 10
49933.146322
 20
9240.08468
 30
0.0
 40
42.700001
 50
278.62
 51
340.29
  0
ARC
  8
80
  6
DIVIDE
 62
     4
  5
3AD
 10
49933.146322
 20
9240.08468
 30
0.0
 40
42.700001
 50
19.71
 51
81.38
  0
ARC
  8
80
  6
CONTINUOUS
 62
     4
  5
3AE
 10
49933.146322
 20
9240.08468
 30
0.0
 40
45.000001
 50
278.18
 51
341.32
  0
ARC
  8
80
  6
CONTINUOUS
 62
     4
  5
3AF
 10
49933.146322
 20
9240.08468
 30
0.0
 40
45.000001
 50
18.68
 51
81.82
  0
ARC
  8
80
  6
DIVIDE
 62
     4
  5
3B0
 10
49933.146322
 20
9540.084684
 30
0.0
 40
42.700001
 50
121.61
 51
238.39
  0
ARC
  8
80
  6
CONTINUOUS
 62
     4
  5
3B1
 10
49933.146322
 20
9540.084684
 30
0.0
 40
45.000001
 50
119.87
 51
240.13
  0
ARC
  8
80
  6
DIVIDE
 62
     4
  5
3B2
 10
49933.146322
 20
9540.084684
 30
0.0
 40
42.700001
 50
278.62
 51
340.29
  0
ARC
  8
80
  6
DIVIDE
 62
     4
  5
3B3
 10
49933.146322
 20
9540.084684
 30
0.0
 40
42.700001
 50
19.71
 51
81.38
  0
ARC
  8
80
  6
CONTINUOUS
 62
     4
  5
3B4
 10
49933.146322
 20
9540.084684
 30
0.0
 40
45.000001
 50
278.18
 51
341.32
  0
ARC
  8
80
  6
CONTINUOUS
 62
     4
  5
3B5
 10
49933.146322
 20
9540.084684
 30
0.0
 40
45.000001
 50
18.68
 51
81.82
  0
ARC
  8
80
  6
DIVIDE
 62
     4
  5
3B6
 10
50367.146328
 20
9540.084684
 30
0.0
 40
42.700001
 50
199.71
 51
261.38
  0
ARC
  8
80
  6
CONTINUOUS
 62
     4
  5
3B7
 10
50367.146328
 20
9540.084684
 30
0.0
 40
45.000001
 50
198.68
 51
261.82
  0
ARC
  8
80
  6
CONTINUOUS
 62
     4
  5
3B8
 10
50367.146328
 20
9540.084684
 30
0.0
 40
45.000001
 50
299.87
 51
60.13
  0
ARC
  8
80
  6
CONTINUOUS
 62
     4
  5
3B9
 10
50367.146328
 20
9540.084684
 30
0.0
 40
45.000001
 50
98.18
 51
161.32
  0
ARC
  8
80
  6
DIVIDE
 62
     4
  5
3BA
 10
50367.146328
 20
9540.084684
 30
0.0
 40
42.700001
 50
301.61
 51
58.39
  0
ARC
  8
80
  6
DIVIDE
 62
     4
  5
3BB
 10
50367.146328
 20
9540.084684
 30
0.0
 40
42.700001
 50
98.62
 51
160.29
  0
ARC
  8
80
  6
CONTINUOUS
 62
     4
  5
3BC
 10
50367.146328
 20
9240.08468
 30
0.0
 40
45.000001
 50
198.68
 51
261.82
  0
ARC
  8
80
  6
DIVIDE
 62
     4
  5
3BD
 10
50367.146328
 20
9240.08468
 30
0.0
 40
42.700001
 50
199.71
 51
261.38
  0
ARC
  8
80
  6
DIVIDE
 62
     4
  5
3BE
 10
50367.146328
 20
9240.08468
 30
0.0
 40
42.700001
 50
301.61
 51
58.39
  0
ARC
  8
80
  6
DIVIDE
 62
     4
  5
3BF
 10
50367.146328
 20
9240.08468
 30
0.0
 40
42.700001
 50
98.62
 51
160.29
  0
ARC
  8
80
  6
CONTINUOUS
 62
     4
  5
3C0
 10
50367.146328
 20
9240.08468
 30
0.0
 40
45.000001
 50
299.87
 51
60.13
  0
ARC
  8
80
  6
CONTINUOUS
 62
     4
  5
3C1
 10
50367.146328
 20
9240.08468
 30
0.0
 40
45.000001
 50
98.18
 51
161.32
  0
CIRCLE
  8
80
  6
CONTINUOUS
 62
     4
  5
3C2
 10
49898.146321
 20
9540.084684
 30
0.0
 40
4.0
  0
CIRCLE
  8
80
  6
CONTINUOUS
 62
     4
  5
3C3
 10
49898.146321
 20
9540.084684
 30
0.0
 40
4.4
  0
CIRCLE
  8
80
  6
CONTINUOUS
 62
     4
  5
3C4
 10
49950.646322
 20
9509.784684
 30
0.0
 40
4.0
  0
CIRCLE
  8
80
  6
CONTINUOUS
 62
     4
  5
3C5
 10
49950.646322
 20
9509.784684
 30
0.0
 40
4.4
  0
CIRCLE
  8
80
  6
CONTINUOUS
 62
     4
  5
3C6
 10
49950.646322
 20
9570.384685
 30
0.0
 40
4.0
  0
CIRCLE
  8
80
  6
CONTINUOUS
 62
     4
  5
3C7
 10
49950.646322
 20
9570.384685
 30
0.0
 40
4.4
  0
CIRCLE
  8
80
  6
CONTINUOUS
 62
     4
  5
3C8
 10
49898.146321
 20
9240.08468
 30
0.0
 40
4.0
  0
CIRCLE
  8
80
  6
CONTINUOUS
 62
     4
  5
3C9
 10
49898.146321
 20
9240.08468
 30
0.0
 40
4.4
  0
CIRCLE
  8
80
  6
CONTINUOUS
 62
     4
  5
3CA
 10
49950.646322
 20
9270.38468
 30
0.0
 40
4.0
  0
CIRCLE
  8
80
  6
CONTINUOUS
 62
     4
  5
3CB
 10
49950.646322
 20
9270.38468
 30
0.0
 40
4.4
  0
CIRCLE
  8
80
  6
CONTINUOUS
 62
     4
  5
3CC
 10
49950.646322
 20
9209.784679
 30
0.0
 40
4.0
  0
CIRCLE
  8
80
  6
CONTINUOUS
 62
     4
  5
3CD
 10
49950.646322
 20
9209.784679
 30
0.0
 40
4.4
  0
CIRCLE
  8
80
  6
CONTINUOUS
 62
     4
  5
3CE
 10
50349.646328
 20
9209.784679
 30
0.0
 40
4.4
  0
CIRCLE
  8
80
  6
CONTINUOUS
 62
     4
  5
3CF
 10
50349.646328
 20
9209.784679
 30
0.0
 40
4.0
  0
CIRCLE
  8
80
  6
CONTINUOUS
 62
     4
  5
3D0
 10
50349.646328
 20
9270.38468
 30
0.0
 40
4.0
  0
CIRCLE
  8
80
  6
CONTINUOUS
 62
     4
  5
3D1
 10
50349.646328
 20
9270.38468
 30
0.0
 40
4.4
  0
CIRCLE
  8
80
  6
CONTINUOUS
 62
     4
  5
3D2
 10
50402.146329
 20
9240.08468
 30
0.0
 40
4.0
  0
CIRCLE
  8
80
  6
CONTINUOUS
 62
     4
  5
3D3
 10
50402.146329
 20
9240.08468
 30
0.0
 40
4.4
  0
CIRCLE
  8
80
  6
CONTINUOUS
 62
     4
  5
3D4
 10
50349.646328
 20
9509.784684
 30
0.0
 40
4.4
  0
CIRCLE
  8
80
  6
CONTINUOUS
 62
     4
  5
3D5
 10
50349.646328
 20
9509.784684
 30
0.0
 40
4.0
  0
CIRCLE
  8
80
  6
CONTINUOUS
 62
     4
  5
3D6
 10
50349.646328
 20
9570.384685
 30
0.0
 40
4.0
  0
CIRCLE
  8
80
  6
CONTINUOUS
 62
     4
  5
3D7
 10
50349.646328
 20
9570.384685
 30
0.0
 40
4.4
  0
CIRCLE
  8
80
  6
CONTINUOUS
 62
     4
  5
3D8
 10
50402.146329
 20
9540.084684
 30
0.0
 40
4.0
  0
CIRCLE
  8
80
  6
CONTINUOUS
 62
     4
  5
3D9
 10
50402.146329
 20
9540.084684
 30
0.0
 40
4.4
  0
ARC
  8
80
  6
CONTINUOUS
 62
     4
  5
3DA
 10
50344.546328
 20
9659.484686
 30
0.0
 40
45.000001
 50
360.0
 51
90.0
  0
ARC
  8
80
  6
CONTINUOUS
 62
     4
  5
3DB
 10
49955.746322
 20
9659.484686
 30
0.0
 40
45.000001
 50
90.0
 51
180.0
  0
ARC
  8
80
  6
CONTINUOUS
 62
     4
  5
3DC
 10
49957.546322
 20
9657.684686
 30
0.0
 40
18.0
 50
90.0
 51
180.0
  0
ARC
  8
80
  6
CONTINUOUS
 62
     4
  5
3DD
 10
50342.746328
 20
9657.684686
 30
0.0
 40
18.0
 50
360.0
 51
90.0
  0
POINT
  8
80
  6
CONTINUOUS
 62
     4
  5
3DE
 10
50150.146325
 20
9225.68468
 30
0.0
 50
57.29578
  0
LINE
  8
80
  6
CONTINUOUS
 62
     4
  5
3DF
 10
50107.546325
 20
9225.68468
 30
0.0
 11
50192.746326
 21
9225.68468
 31
0.0
  0
LINE
  8
80
  6
CONTINUOUS
 62
     4
  5
3E0
 10
50107.546325
 20
9254.48468
 30
0.0
 11
50192.746326
 21
9254.48468
 31
0.0
  0
LINE
  8
80
  6
CONTINUOUS
 62
     4
  5
3E1
 10
50107.546325
 20
9525.684684
 30
0.0
 11
50192.746326
 21
9525.684684
 31
0.0
  0
LINE
  8
80
  6
CONTINUOUS
 62
     4
  5
3E2
 10
50107.546325
 20
9554.484684
 30
0.0
 11
50192.746326
 21
9554.484684
 31
0.0
  0
LINE
  8
80
  6
CONTINUOUS
 62
     4
  5
3E3
 10
50210.746326
 20
9572.484685
 30
0.0
 11
50210.746326
 21
9657.684686
 31
0.0
  0
LINE
  8
80
  6
CONTINUOUS
 62
     4
  5
3E4
 10
50089.546324
 20
9572.484685
 30
0.0
 11
50089.546324
 21
9657.684686
 31
0.0
  0
ARC
  8
80
  6
CONTINUOUS
 62
     4
  5
3E5
 10
50192.746326
 20
9207.684679
 30
0.0
 40
18.0
 50
360.0
 51
90.0
  0
ARC
  8
80
  6
CONTINUOUS
 62
     4
  5
3E6
 10
50192.746326
 20
9272.48468
 30
0.0
 40
18.0
 50
270.0
 51
360.0
  0
ARC
  8
80
  6
CONTINUOUS
 62
     4
  5
3E7
 10
50107.546325
 20
9207.684679
 30
0.0
 40
18.0
 50
90.0
 51
180.0
  0
ARC
  8
80
  6
CONTINUOUS
 62
     4
  5
3E8
 10
50107.546325
 20
9272.48468
 30
0.0
 40
18.0
 50
180.0
 51
270.0
  0
ARC
  8
80
  6
CONTINUOUS
 62
     4
  5
3E9
 10
50192.746326
 20
9507.684684
 30
0.0
 40
18.0
 50
360.0
 51
90.0
  0
ARC
  8
80
  6
CONTINUOUS
 62
     4
  5
3EA
 10
50107.546325
 20
9572.484685
 30
0.0
 40
18.0
 50
180.0
 51
270.0
  0
ARC
  8
80
  6
CONTINUOUS
 62
     4
  5
3EB
 10
50107.546325
 20
9507.684684
 30
0.0
 40
18.0
 50
90.0
 51
180.0
  0
ARC
  8
80
  6
CONTINUOUS
 62
     4
  5
3EC
 10
50192.746326
 20
9572.484685
 30
0.0
 40
18.0
 50
270.0
 51
360.0
  0
LINE
  8
80
  6
CONTINUOUS
 62
     4
  5
3ED
 10
50060.746324
 20
9572.484685
 30
0.0
 11
50060.746324
 21
9657.684686
 31
0.0
  0
ARC
  8
80
  6
CONTINUOUS
 62
     4
  5
3EE
 10
50042.746324
 20
9207.684679
 30
0.0
 40
18.0
 50
360.0
 51
90.0
  0
ARC
  8
80
  6
CONTINUOUS
 62
     4
  5
3EF
 10
50042.746324
 20
9272.48468
 30
0.0
 40
18.0
 50
270.0
 51
360.0
  0
ARC
  8
80
  6
CONTINUOUS
 62
     4
  5
3F0
 10
50042.746324
 20
9572.484685
 30
0.0
 40
18.0
 50
270.0
 51
360.0
  0
ARC
  8
80
  6
CONTINUOUS
 62
     4
  5
3F1
 10
50042.746324
 20
9507.684684
 30
0.0
 40
18.0
 50
360.0
 51
90.0
  0
LINE
  8
80
  6
CONTINUOUS
 62
     4
  5
3F2
 10
50239.546326
 20
9572.484685
 30
0.0
 11
50239.546326
 21
9657.684686
 31
0.0
  0
ARC
  8
80
  6
CONTINUOUS
 62
     4
  5
3F3
 10
50257.546327
 20
9207.684679
 30
0.0
 40
18.0
 50
90.0
 51
180.0
  0
ARC
  8
80
  6
CONTINUOUS
 62
     4
  5
3F4
 10
50257.546327
 20
9272.48468
 30
0.0
 40
18.0
 50
180.0
 51
270.0
  0
ARC
  8
80
  6
CONTINUOUS
 62
     4
  5
3F5
 10
50257.546327
 20
9572.484685
 30
0.0
 40
18.0
 50
180.0
 51
270.0
  0
ARC
  8
80
  6
CONTINUOUS
 62
     4
  5
3F6
 10
50257.546327
 20
9507.684684
 30
0.0
 40
18.0
 50
90.0
 51
180.0
  0
LINE
  8
80
  6
CONTINUOUS
 62
     4
  5
3F7
 10
50210.746326
 20
9272.48468
 30
0.0
 11
50210.746326
 21
9357.684682
 31
0.0
  0
LINE
  8
80
  6
CONTINUOUS
 62
     4
  5
3F8
 10
50210.746326
 20
9422.484683
 30
0.0
 11
50210.746326
 21
9507.684684
 31
0.0
  0
LINE
  8
80
  6
CONTINUOUS
 62
     4
  5
3F9
 10
50089.546324
 20
9422.484683
 30
0.0
 11
50089.546324
 21
9507.684684
 31
0.0
  0
LINE
  8
80
  6
CONTINUOUS
 62
     4
  5
3FA
 10
50089.546324
 20
9272.48468
 30
0.0
 11
50089.546324
 21
9357.684682
 31
0.0
  0
LINE
  8
80
  6
CONTINUOUS
 62
     4
  5
3FB
 10
50060.746324
 20
9422.484683
 30
0.0
 11
50060.746324
 21
9507.684684
 31
0.0
  0
LINE
  8
80
  6
CONTINUOUS
 62
     4
  5
3FC
 10
50060.746324
 20
9272.48468
 30
0.0
 11
50060.746324
 21
9357.684682
 31
0.0
  0
LINE
  8
80
  6
CONTINUOUS
 62
     4
  5
3FD
 10
50239.546326
 20
9422.484683
 30
0.0
 11
50239.546326
 21
9507.684684
 31
0.0
  0
LINE
  8
80
  6
CONTINUOUS
 62
     4
  5
3FE
 10
50239.546326
 20
9272.48468
 30
0.0
 11
50239.546326
 21
9357.684682
 31
0.0
  0
LINE
  8
80
  6
CONTINUOUS
 62
     4
  5
3FF
 10
50042.746324
 20
9375.684682
 30
0.0
 11
49957.546322
 21
9375.684682
 31
0.0
  0
LINE
  8
80
  6
CONTINUOUS
 62
     4
  5
400
 10
50042.746324
 20
9404.484682
 30
0.0
 11
49957.146322
 21
9404.484682
 31
0.0
  0
LINE
  8
80
  6
CONTINUOUS
 62
     4
  5
401
 10
50257.546327
 20
9375.684682
 30
0.0
 11
50342.746328
 21
9375.684682
 31
0.0
  0
LINE
  8
80
  6
CONTINUOUS
 62
     4
  5
402
 10
50257.546327
 20
9404.484682
 30
0.0
 11
50343.146328
 21
9404.484682
 31
0.0
  0
LINE
  8
80
  6
CONTINUOUS
 62
     4
  5
403
 10
50107.546325
 20
9375.684682
 30
0.0
 11
50192.746326
 21
9375.684682
 31
0.0
  0
LINE
  8
80
  6
CONTINUOUS
 62
     4
  5
404
 10
50107.546325
 20
9404.484682
 30
0.0
 11
50193.046326
 21
9404.484682
 31
0.0
  0
ARC
  8
80
  6
CONTINUOUS
 62
     4
  5
405
 10
50192.746326
 20
9357.684682
 30
0.0
 40
18.0
 50
360.0
 51
90.0
  0
ARC
  8
80
  6
CONTINUOUS
 62
     4
  5
406
 10
50192.746326
 20
9422.484683
 30
0.0
 40
18.0
 50
270.0
 51
360.0
  0
ARC
  8
80
  6
CONTINUOUS
 62
     4
  5
407
 10
50107.546325
 20
9357.684682
 30
0.0
 40
18.0
 50
90.0
 51
180.0
  0
ARC
  8
80
  6
CONTINUOUS
 62
     4
  5
408
 10
50107.546325
 20
9422.484683
 30
0.0
 40
18.0
 50
180.0
 51
270.0
  0
ARC
  8
80
  6
CONTINUOUS
 62
     4
  5
409
 10
50042.746324
 20
9357.684682
 30
0.0
 40
18.0
 50
360.0
 51
90.0
  0
ARC
  8
80
  6
CONTINUOUS
 62
     4
  5
40A
 10
50042.746324
 20
9422.484683
 30
0.0
 40
18.0
 50
270.0
 51
360.0
  0
ARC
  8
80
  6
CONTINUOUS
 62
     4
  5
40B
 10
50257.546327
 20
9357.684682
 30
0.0
 40
18.0
 50
90.0
 51
180.0
  0
ARC
  8
80
  6
CONTINUOUS
 62
     4
  5
40C
 10
50257.546327
 20
9422.484683
 30
0.0
 40
18.0
 50
180.0
 51
270.0
  0
LINE
  8
80
  6
CONTINUOUS
 62
     4
  5
40D
 10
50210.746326
 20
9122.484678
 30
0.0
 11
50210.746326
 21
9207.684679
 31
0.0
  0
LINE
  8
80
  6
CONTINUOUS
 62
     4
  5
40E
 10
50089.546324
 20
9122.484678
 30
0.0
 11
50089.546324
 21
9207.684679
 31
0.0
  0
LINE
  8
80
  6
CONTINUOUS
 62
     4
  5
40F
 10
50060.746324
 20
9122.484678
 30
0.0
 11
50060.746324
 21
9207.684679
 31
0.0
  0
LINE
  8
80
  6
CONTINUOUS
 62
     4
  5
410
 10
50239.546326
 20
9122.484678
 30
0.0
 11
50239.546326
 21
9207.684679
 31
0.0
  0
LINE
  8
80
  6
CONTINUOUS
 62
     4
  5
411
 10
50257.546327
 20
9225.68468
 30
0.0
 11
50342.746328
 21
9225.68468
 31
0.0
  0
LINE
  8
80
  6
CONTINUOUS
 62
     4
  5
412
 10
50257.546327
 20
9254.48468
 30
0.0
 11
50342.746328
 21
9254.48468
 31
0.0
  0
LINE
  8
80
  6
CONTINUOUS
 62
     4
  5
413
 10
50257.546327
 20
9525.684684
 30
0.0
 11
50342.746328
 21
9525.684684
 31
0.0
  0
LINE
  8
80
  6
CONTINUOUS
 62
     4
  5
414
 10
50257.546327
 20
9554.484684
 30
0.0
 11
50342.746328
 21
9554.484684
 31
0.0
  0
LINE
  8
80
  6
CONTINUOUS
 62
     4
  5
415
 10
50042.746324
 20
9554.484684
 30
0.0
 11
49957.546322
 21
9554.484684
 31
0.0
  0
LINE
  8
80
  6
CONTINUOUS
 62
     4
  5
416
 10
50042.746324
 20
9525.684684
 30
0.0
 11
49957.546322
 21
9525.684684
 31
0.0
  0
LINE
  8
80
  6
CONTINUOUS
 62
     4
  5
417
 10
50042.746324
 20
9254.48468
 30
0.0
 11
49957.546322
 21
9254.48468
 31
0.0
  0
LINE
  8
80
  6
CONTINUOUS
 62
     4
  5
418
 10
50042.746324
 20
9225.68468
 30
0.0
 11
49957.546322
 21
9225.68468
 31
0.0
  0
LINE
  8
80
  6
CONTINUOUS
 62
     4
  5
419
 10
49955.746322
 20
9704.484687
 30
0.0
 11
50344.546328
 21
9704.484687
 31
0.0
  0
LINE
  8
80
  6
CONTINUOUS
 62
     4
  5
41A
 10
50042.746324
 20
9675.684686
 30
0.0
 11
49957.546322
 21
9675.684686
 31
0.0
  0
LINE
  8
80
  6
CONTINUOUS
 62
     4
  5
41B
 10
50257.546327
 20
9675.684686
 30
0.0
 11
50342.746328
 21
9675.684686
 31
0.0
  0
LINE
  8
80
  6
CONTINUOUS
 62
     4
  5
41C
 10
50107.546325
 20
9675.684686
 30
0.0
 11
50192.746326
 21
9675.684686
 31
0.0
  0
ARC
  8
80
  6
CONTINUOUS
 62
     4
  5
41D
 10
50192.746326
 20
9657.684686
 30
0.0
 40
18.0
 50
360.0
 51
90.0
  0
ARC
  8
80
  6
CONTINUOUS
 62
     4
  5
41E
 10
50107.546325
 20
9657.684686
 30
0.0
 40
18.0
 50
90.0
 51
180.0
  0
ARC
  8
80
  6
CONTINUOUS
 62
     4
  5
41F
 10
50042.746324
 20
9657.684686
 30
0.0
 40
18.0
 50
360.0
 51
90.0
  0
ARC
  8
80
  6
CONTINUOUS
 62
     4
  5
420
 10
50257.546327
 20
9657.684686
 30
0.0
 40
18.0
 50
90.0
 51
180.0
  0
LINE
  8
80
  6
CONTINUOUS
 62
     4
  5
421
 10
49939.546322
 20
9272.48468
 30
0.0
 11
49939.546322
 21
9357.684682
 31
0.0
  0
LINE
  8
80
  6
CONTINUOUS
 62
     4
  5
422
 10
49939.546322
 20
9422.484683
 30
0.0
 11
49939.546322
 21
9507.684684
 31
0.0
  0
ARC
  8
80
  6
CONTINUOUS
 62
     4
  5
423
 10
49957.546322
 20
9357.684682
 30
0.0
 40
18.0
 50
90.0
 51
180.0
  0
ARC
  8
80
  6
CONTINUOUS
 62
     4
  5
424
 10
49957.546322
 20
9422.484683
 30
0.0
 40
18.0
 50
180.0
 51
270.0
  0
LINE
  8
80
  6
CONTINUOUS
 62
     4
  5
425
 10
49910.746322
 20
9120.684678
 30
0.0
 11
49910.746322
 21
9659.484686
 31
0.0
  0
ARC
  8
80
  6
CONTINUOUS
 62
     4
  5
426
 10
49957.546322
 20
9507.684684
 30
0.0
 40
18.0
 50
90.0
 51
180.0
  0
ARC
  8
80
  6
CONTINUOUS
 62
     4
  5
427
 10
49957.546322
 20
9572.484685
 30
0.0
 40
18.0
 50
180.0
 51
270.0
  0
LINE
  8
80
  6
CONTINUOUS
 62
     4
  5
428
 10
49939.546322
 20
9572.484685
 30
0.0
 11
49939.546322
 21
9657.684686
 31
0.0
  0
LINE
  8
80
  6
CONTINUOUS
 62
     4
  5
429
 10
50389.546329
 20
9120.684678
 30
0.0
 11
50389.546329
 21
9659.484686
 31
0.0
  0
LINE
  8
80
  6
CONTINUOUS
 62
     4
  5
42A
 10
50360.746328
 20
9572.484685
 30
0.0
 11
50360.746328
 21
9657.684686
 31
0.0
  0
ARC
  8
80
  6
CONTINUOUS
 62
     4
  5
42B
 10
50342.746328
 20
9572.484685
 30
0.0
 40
18.0
 50
270.0
 51
360.0
  0
ARC
  8
80
  6
CONTINUOUS
 62
     4
  5
42C
 10
50342.746328
 20
9507.684684
 30
0.0
 40
18.0
 50
360.0
 51
90.0
  0
LINE
  8
80
  6
CONTINUOUS
 62
     4
  5
42D
 10
50360.746328
 20
9272.48468
 30
0.0
 11
50360.746328
 21
9357.684682
 31
0.0
  0
LINE
  8
80
  6
CONTINUOUS
 62
     4
  5
42E
 10
50360.746328
 20
9422.484683
 30
0.0
 11
50360.746328
 21
9507.684684
 31
0.0
  0
ARC
  8
80
  6
CONTINUOUS
 62
     4
  5
42F
 10
50342.746328
 20
9357.684682
 30
0.0
 40
18.0
 50
360.0
 51
90.0
  0
ARC
  8
80
  6
CONTINUOUS
 62
     4
  5
430
 10
50342.746328
 20
9422.484683
 30
0.0
 40
18.0
 50
270.0
 51
360.0
  0
ARC
  8
80
  6
CONTINUOUS
 62
     4
  5
431
 10
50342.746328
 20
9207.684679
 30
0.0
 40
18.0
 50
360.0
 51
90.0
  0
ARC
  8
80
  6
CONTINUOUS
 62
     4
  5
432
 10
50342.746328
 20
9272.48468
 30
0.0
 40
18.0
 50
270.0
 51
360.0
  0
ARC
  8
80
  6
CONTINUOUS
 62
     4
  5
433
 10
49957.546322
 20
9272.48468
 30
0.0
 40
18.0
 50
180.0
 51
270.0
  0
ARC
  8
80
  6
CONTINUOUS
 62
     4
  5
434
 10
49957.546322
 20
9207.684679
 30
0.0
 40
18.0
 50
90.0
 51
180.0
  0
LINE
  8
80
  6
CONTINUOUS
 62
     4
  5
435
 10
49939.546322
 20
9122.484678
 30
0.0
 11
49939.546322
 21
9207.684679
 31
0.0
  0
ARC
  8
80
  6
CONTINUOUS
 62
     4
  5
436
 10
49955.746322
 20
9120.684678
 30
0.0
 40
45.000001
 50
180.0
 51
270.0
  0
ARC
  8
80
  6
CONTINUOUS
 62
     4
  5
437
 10
50344.546328
 20
9120.684678
 30
0.0
 40
45.000001
 50
270.0
 51
360.0
  0
ARC
  8
80
  6
CONTINUOUS
 62
     4
  5
438
 10
49957.546322
 20
9122.484678
 30
0.0
 40
18.0
 50
180.0
 51
270.0
  0
ARC
  8
80
  6
CONTINUOUS
 62
     4
  5
439
 10
50342.746328
 20
9122.484678
 30
0.0
 40
18.0
 50
270.0
 51
360.0
  0
LINE
  8
80
  6
CONTINUOUS
 62
     4
  5
43A
 10
49955.746322
 20
9075.684677
 30
0.0
 11
50344.546328
 21
9075.684677
 31
0.0
  0
LINE
  8
80
  6
CONTINUOUS
 62
     4
  5
43B
 10
49957.546322
 20
9104.484678
 30
0.0
 11
50042.746324
 21
9104.484678
 31
0.0
  0
LINE
  8
80
  6
CONTINUOUS
 62
     4
  5
43C
 10
50342.746328
 20
9104.484678
 30
0.0
 11
50257.546327
 21
9104.484678
 31
0.0
  0
ARC
  8
80
  6
CONTINUOUS
 62
     4
  5
43D
 10
50192.746326
 20
9122.484678
 30
0.0
 40
18.0
 50
270.0
 51
360.0
  0
ARC
  8
80
  6
CONTINUOUS
 62
     4
  5
43E
 10
50107.546325
 20
9122.484678
 30
0.0
 40
18.0
 50
180.0
 51
270.0
  0
LINE
  8
80
  6
CONTINUOUS
 62
     4
  5
43F
 10
50192.746326
 20
9104.484678
 30
0.0
 11
50107.546325
 21
9104.484678
 31
0.0
  0
ARC
  8
80
  6
CONTINUOUS
 62
     4
  5
440
 10
50042.746324
 20
9122.484678
 30
0.0
 40
18.0
 50
270.0
 51
360.0
  0
ARC
  8
80
  6
CONTINUOUS
 62
     4
  5
441
 10
50257.546327
 20
9122.484678
 30
0.0
 40
18.0
 50
180.0
 51
270.0
  0
LINE
  8
80
  6
CONTINUOUS
 62
     4
  5
442
 10
50360.746328
 20
9122.484678
 30
0.0
 11
50360.746328
 21
9207.684679
 31
0.0
  0
LINE
  8
5
  6
CENTER
 62
     3
  5
443
 10
49925.146322
 20
9090.084678
 30
0.0
 11
49925.146322
 21
9690.084687
 31
0.0
  0
LINE
  8
5
  6
CENTER
 62
     3
  5
444
 10
50375.146329
 20
9090.084678
 30
0.0
 11
49925.146322
 21
9090.084678
 31
0.0
  0
LINE
  8
5
  6
CENTER
 62
     3
  5
445
 10
50375.146329
 20
9090.084678
 30
0.0
 11
50375.146329
 21
9690.084687
 31
0.0
  0
LINE
  8
5
  6
CENTER
 62
     3
  5
446
 10
49925.146322
 20
9690.084687
 30
0.0
 11
50375.146329
 21
9690.084687
 31
0.0
  0
LINE
  8
5
  6
CENTER
 62
     3
  5
447
 10
49925.146322
 20
9540.084687
 30
0.0
 11
50375.146329
 21
9540.084687
 31
0.0
  0
LINE
  8
5
  6
CENTER
 62
     3
  5
448
 10
49925.146322
 20
9390.084687
 30
0.0
 11
50375.146329
 21
9390.084687
 31
0.0
  0
LINE
  8
5
  6
CENTER
 62
     3
  5
449
 10
49925.146322
 20
9240.084687
 30
0.0
 11
50375.146329
 21
9240.084687
 31
0.0
  0
LINE
  8
5
  6
CENTER
 62
     3
  5
44A
 10
50075.146322
 20
9090.084678
 30
0.0
 11
50075.146322
 21
9690.084687
 31
0.0
  0
LINE
  8
5
  6
CENTER
 62
     3
  5
44B
 10
50225.146322
 20
9090.084678
 30
0.0
 11
50225.146322
 21
9690.084687
 31
0.0
  0
CIRCLE
  8
5
  6
CONTINUOUS
 62
     3
  5
44C
 10
49925.146322
 20
9920.084687
 30
0.0
 40
7.5
  0
CIRCLE
  8
5
  6
CONTINUOUS
 62
     3
  5
44D
 10
49925.146322
 20
9820.084687
 30
0.0
 40
7.5
  0
CIRCLE
  8
5
  6
CONTINUOUS
 62
     3
  5
44E
 10
50375.146329
 20
9820.084687
 30
0.0
 40
7.5
  0
CIRCLE
  8
5
  6
CONTINUOUS
 62
     3
  5
44F
 10
49695.146322
 20
9690.084687
 30
0.0
 40
7.5
  0
CIRCLE
  8
5
  6
CONTINUOUS
 62
     3
  5
450
 10
49795.146322
 20
9090.084678
 30
0.0
 40
7.5
  0
CIRCLE
  8
5
  6
CONTINUOUS
 62
     3
  5
451
 10
49795.146322
 20
9690.084687
 30
0.0
 40
7.5
  0
LINE
  8
5
  6
CONTINUOUS
 62
     3
  5
452
 10
49795.146322
 20
9090.084678
 30
0.0
 11
49795.146322
 21
9690.084687
 31
0.0
  0
LINE
  8
5
  6
CONTINUOUS
 62
     3
  5
453
 10
49925.146322
 20
9820.084687
 30
0.0
 11
50375.146329
 21
9820.084687
 31
0.0
  0
LINE
  8
5
  6
CONTINUOUS
 62
     3
  5
454
 10
50375.146329
 20
9820.084687
 30
0.0
 11
50375.146329
 21
9720.084687
 31
0.0
  0
LINE
  8
5
  6
CONTINUOUS
 62
     3
  5
455
 10
50375.146329
 20
9820.084687
 30
0.0
 11
51045.146329
 21
9820.084687
 31
0.0
  0
LINE
  8
5
  6
CONTINUOUS
 62
     3
  5
456
 10
49925.146322
 20
9920.084687
 30
0.0
 11
51045.146329
 21
9920.084687
 31
0.0
  0
LINE
  8
5
  6
CONTINUOUS
 62
     3
  5
457
 10
49925.146322
 20
9920.084687
 30
0.0
 11
49925.146322
 21
9720.084687
 31
0.0
  0
LINE
  8
5
  6
CONTINUOUS
 62
     3
  5
458
 10
49695.146322
 20
9690.084687
 30
0.0
 11
49895.146322
 21
9690.084687
 31
0.0
  0
LINE
  8
5
  6
CONTINUOUS
 62
     3
  5
459
 10
49695.146322
 20
9690.084687
 30
0.0
 11
49695.146322
 21
8625.08468
 31
0.0
  0
LINE
  8
5
  6
CONTINUOUS
 62
     3
  5
45A
 10
49795.146322
 20
9090.084678
 30
0.0
 11
49895.146322
 21
9090.084678
 31
0.0
  0
LINE
  8
5
  6
CONTINUOUS
 62
     3
  5
45B
 10
49795.146322
 20
8625.08468
 30
0.0
 11
49795.146322
 21
9090.084678
 31
0.0
  0
TEXT
  8
5
  6
CONTINUOUS
 62
     3
  5
45C
 10
49795.146322
 20
9300.084682
 30
0.0
 40
90.0
  1
600
 50
90.0
 41
0.666667
  7

 72
     5
 11
49795.146322
 21
9480.084682
 31
0.0
  0
TEXT
  8
5
  6
CONTINUOUS
 62
     3
  5
45D
 10
50060.146325
 20
9820.084687
 30
0.0
 40
90.0
  1
450
 41
0.666667
  7

 72
     5
 11
50240.146325
 21
9820.084687
 31
0.0
  0
TEXT
  8
5
  6
CONTINUOUS
 62
     3
  5
45E
 10
50617.846332
 20
9820.084687
 30
0.0
 40
90.0
  1
670
 41
0.666667
  7

 72
     5
 11
50797.846332
 21
9820.084687
 31
0.0
  0
TEXT
  8
5
  6
CONTINUOUS
 62
     3
  5
45F
 10
50347.846329
 20
9920.084687
 30
0.0
 40
90.0
  1
1,120
 41
0.6
  7

 72
     5
 11
50617.846329
 21
9920.084687
 31
0.0
  0
TEXT
  8
5
  6
CONTINUOUS
 62
     3
  5
460
 10
49695.146322
 20
9022.284683
 30
0.0
 40
90.0
  1
1,065
 50
90.0
 41
0.6
  7

 72
     5
 11
49695.146322
 21
9292.284683
 31
0.0
  0
TEXT
  8
5
  6
CONTINUOUS
 62
     3
  5
461
 10
49795.146322
 20
8767.284679
 30
0.0
 40
90.0
  1
465
 50
90.0
 41
0.666667
  7

 72
     5
 11
49795.146322
 21
8947.284679
 31
0.0
  0
TEXT
  8
5
  6
CONTINUOUS
 62
     3
  5
462
 10
50479.43343
 20
9619.454584
 30
0.0
 40
90.0
  1
テスリックス
 41
0.837
  7

 72
     5
 11
51019.43343
 21
9619.454584
 31
0.0
  0
LINE
  8
5
  6
CONTINUOUS
 62
     3
  5
463
 10
50429.43343
 20
9619.454584
 30
0.0
 11
51017.828529
 21
9619.454584
 31
0.0
  0
LINE
  8
5
  6
CONTINUOUS
 62
     3
  5
464
 10
50429.43343
 20
9619.454584
 30
0.0
 11
50381.493481
 21
9536.420156
 31
0.0
  0
LINE
  8
22
  6
CONTINUOUS
 62
     2
  5
465
 10
49504.146329
 20
8685.08468
 30
0.0
 11
49026.146329
 21
8685.08468
 31
0.0
  0
LINE
  8
22
  6
CONTINUOUS
 62
     2
  5
466
 10
51045.146329
 20
8685.08468
 30
0.0
 11
51020.878278
 21
8685.08468
 31
0.0
  0
LINE
  8
22
  6
CONTINUOUS
 62
     2
  5
467
 10
50473.14042
 20
8685.08468
 30
0.0
 11
49544.146329
 21
8685.08468
 31
0.0
  0
TEXT
  8
5
  6
CONTINUOUS
 62
     3
  5
468
 10
49944.756797
 20
12176.952119
 30
0.0
 40
135.0
  1
平面図
 41
0.837
  7

 72
     5
 11
50349.756797
 21
12176.952119
 31
0.0
  0
LINE
  8
5
  6
CENTER
 62
     2
  5
469
 10
49525.146329
 20
14919.406559
 30
0.0
 11
49525.146329
 21
15899.406559
 31
0.0
  0
LINE
  8
10
  6
CONTINUOUS
 62
     5
  5
46A
 10
49505.146329
 20
14939.406559
 30
0.0
 11
49505.146329
 21
15820.406559
 31
0.0
  0
LINE
  8
10
  6
CONTINUOUS
 62
     5
  5
46B
 10
49545.146329
 20
15820.406559
 30
0.0
 11
49545.146329
 21
14939.406559
 31
0.0
  0
CIRCLE
  8
5
  6
CONTINUOUS
 62
     3
  5
46C
 10
49525.146329
 20
16091.906559
 30
0.0
 40
7.5
  0
LINE
  8
5
  6
CONTINUOUS
 62
     3
  5
46D
 10
48965.146329
 20
16091.906559
 30
0.0
 11
49525.146329
 21
16091.906559
 31
0.0
  0
TEXT
  8
5
  6
CONTINUOUS
 62
     3
  5
46E
 10
49155.146329
 20
16091.906559
 30
0.0
 40
90.0
  1
560
 41
0.666667
  7

 72
     5
 11
49335.146329
 21
16091.906559
 31
0.0
  0
LINE
  8
5
  6
CONTINUOUS
 62
     3
  5
46F
 10
49525.146329
 20
16091.906559
 30
0.0
 11
49525.146329
 21
15991.906559
 31
0.0
  0
LINE
  8
5
  6
CONTINUOUS
 62
     3
  5
470
 10
49525.146329
 20
16091.906559
 30
0.0
 11
51165.146329
 21
16091.906559
 31
0.0
  0
TEXT
  8
5
  6
CONTINUOUS
 62
     3
  5
471
 10
50210.146329
 20
16091.906559
 30
0.0
 40
90.0
  1
1,640
 41
0.6
  7

 72
     5
 11
50480.146329
 21
16091.906559
 31
0.0
  0
TEXT
  8
5
  6
CONTINUOUS
 62
     3
  5
472
 10
49752.272974
 20
8349.437707
 30
0.0
 40
135.0
  1
テスリックス
 41
0.837
  7

 72
     5
 11
50562.272974
 21
8349.437707
 31
0.0
  0
TEXT
  8
5
  6
CONTINUOUS
 62
     3
  5
473
 10
49752.272974
 20
8214.437707
 30
0.0
 40
135.0
  1
取付側展開図
 41
0.837
  7

 72
     5
 11
50562.272974
 21
8214.437707
 31
0.0
  0
ENDSEC
  0
EOF
