  0
SECTION
  2
HEADER
  9
$ACADVER
  1
AC1009
  9
$INSBASE
 10
0.0
 20
0.0
 30
0.0
  9
$EXTMIN
 10
47497.37205
 20
7998.498579
 30
0.0
  9
$EXTMAX
 10
50417.37205
 20
13624.530601
 30
0.0
  9
$LIMMIN
 10
46887.147718
 20
7820.98695
  9
$LIMMAX
 10
51087.147718
 20
13760.98695
  9
$ORTHOMODE
 70
     0
  9
$REGENMODE
 70
     1
  9
$FILLMODE
 70
     1
  9
$QTEXTMODE
 70
     0
  9
$MIRRTEXT
 70
     1
  9
$DRAGMODE
 70
     2
  9
$LTSCALE
 40
20.0
  9
$OSMODE
 70
     0
  9
$ATTMODE
 70
     1
  9
$TEXTSIZE
 40
0.2
  9
$TRACEWID
 40
0.05
  9
$TEXTSTYLE
  7
STANDARD
  9
$CLAYER
  8
0
  9
$CELTYPE
  6
CONTINUOUS
  9
$CECOLOR
 62
   256
  9
$DIMSCALE
 40
1.0
  9
$DIMASZ
 40
0.18
  9
$DIMEXO
 40
0.0625
  9
$DIMDLI
 40
0.38
  9
$DIMRND
 40
0.0
  9
$DIMDLE
 40
0.0
  9
$DIMEXE
 40
0.18
  9
$DIMTP
 40
0.0
  9
$DIMTM
 40
0.0
  9
$DIMTXT
 40
0.18
  9
$DIMCEN
 40
0.09
  9
$DIMTSZ
 40
0.0
  9
$DIMTOL
 70
     0
  9
$DIMLIM
 70
     0
  9
$DIMTIH
 70
     1
  9
$DIMTOH
 70
     1
  9
$DIMSE1
 70
     0
  9
$DIMSE2
 70
     0
  9
$DIMTAD
 70
     0
  9
$DIMZIN
 70
     0
  9
$DIMBLK
  1

  9
$DIMASO
 70
     1
  9
$DIMSHO
 70
     1
  9
$DIMPOST
  1

  9
$DIMAPOST
  1

  9
$DIMALT
 70
     0
  9
$DIMALTD
 70
     2
  9
$DIMALTF
 40
25.4
  9
$DIMLFAC
 40
1.0
  9
$DIMTOFL
 70
     0
  9
$DIMTVP
 40
0.0
  9
$DIMTIX
 70
     0
  9
$DIMSOXD
 70
     0
  9
$DIMSAH
 70
     0
  9
$DIMBLK1
  1

  9
$DIMBLK2
  1

  9
$DIMSTYLE
  2
STANDARD
  9
$DIMCLRD
 70
     0
  9
$DIMCLRE
 70
     0
  9
$DIMCLRT
 70
     0
  9
$DIMTFAC
 40
1.0
  9
$DIMGAP
 40
0.09
  9
$LUNITS
 70
     2
  9
$LUPREC
 70
     4
  9
$AXISMODE
 70
     0
  9
$AXISUNIT
 10
0.0
 20
0.0
  9
$SKETCHINC
 40
0.1
  9
$FILLETRAD
 40
0.0
  9
$AUNITS
 70
     0
  9
$AUPREC
 70
     0
  9
$MENU
  1
acad
  9
$ELEVATION
 40
0.0
  9
$PELEVATION
 40
0.0
  9
$THICKNESS
 40
0.0
  9
$LIMCHECK
 70
     0
  9
$BLIPMODE
 70
     1
  9
$CHAMFERA
 40
0.0
  9
$CHAMFERB
 40
0.0
  9
$SKPOLY
 70
     0
  9
$TDCREATE
 40
0.000000000
  9
$TDUPDATE
 40
0.000000000
  9
$TDINDWG
 40
0.0000000000
  9
$TDUSRTIMER
 40
0.0000000000
  9
$USRTIMER
 70
     1
  9
$ANGBASE
 50
0.0
  9
$ANGDIR
 70
     0
  9
$PDMODE
 70
     0
  9
$PDSIZE
 40
0.0
  9
$PLINEWID
 40
0.0
  9
$COORDS
 70
     0
  9
$SPLFRAME
 70
     0
  9
$SPLINETYPE
 70
     6
  9
$SPLINESEGS
 70
     8
  9
$ATTDIA
 70
     0
  9
$ATTREQ
 70
     1
  9
$HANDLING
 70
     1
  9
$HANDSEED
  5
463
  9
$SURFTAB1
 70
     6
  9
$SURFTAB2
 70
     6
  9
$SURFTYPE
 70
     6
  9
$SURFU
 70
     6
  9
$SURFV
 70
     6
  9
$UCSNAME
  2

  9
$UCSORG
 10
0.0
 20
0.0
 30
0.0
  9
$UCSXDIR
 10
1.0
 20
0.0
 30
0.0
  9
$UCSYDIR
 10
0.0
 20
1.0
 30
0.0
  9
$PUCSNAME
  2

  9
$PUCSORG
 10
0.0
 20
0.0
 30
0.0
  9
$PUCSXDIR
 10
1.0
 20
0.0
 30
0.0
  9
$PUCSYDIR
 10
0.0
 20
1.0
 30
0.0
  9
$USERI1
 70
     0
  9
$USERI2
 70
     0
  9
$USERI3
 70
     0
  9
$USERI4
 70
     0
  9
$USERI5
 70
     0
  9
$USERR1
 40
0.0
  9
$USERR2
 40
0.0
  9
$USERR3
 40
0.0
  9
$USERR4
 40
0.0
  9
$USERR5
 40
0.0
  9
$WORLDVIEW
 70
     1
  9
$SHADEDGE
 70
     3
  9
$SHADEDIF
 70
    70
  9
$TILEMODE
 70
     1
  9
$MAXACTVP
 70
    16
  9
$PINSBASE
 10
0.0
 20
0.0
 30
0.0
  9
$PLIMCHECK
 70
     0
  9
$PEXTMIN
 10
1.000000E+20
 20
1.000000E+20
 30
1.000000E+20
  9
$PEXTMAX
 10
-1.000000E+20
 20
-1.000000E+20
 30
-1.000000E+20
  9
$PLIMMIN
 10
0.0
 20
0.0
  9
$PLIMMAX
 10
12.0
 20
9.0
  9
$UNITMODE
 70
     0
  9
$VISRETAIN
 70
     0
  9
$PLINEGEN
 70
     1
  9
$PSLTSCALE
 70
     0
  9
$TREEDEPTH
 70
  3020
  9
$DWGCODEPAGE
  3
dos932
  0
ENDSEC
  0
SECTION
  2
TABLES
  0
TABLE
  2
VPORT
 70
     1
  0
VPORT
  2
*ACTIVE
 70
     0
 10
0.0
 20
0.0
 11
1.0
 21
1.0
 12
48987.147718
 22
10790.98695
 13
0.0
 23
0.0
 14
1000.0
 24
1000.0
 15
1000.0
 25
1000.0
 16
0.0
 26
0.0
 36
1.0
 17
0.0
 27
0.0
 37
0.0
 40
5940.0
 41
0.707071
 42
50.0
 43
0.0
 44
0.0
 50
0.0
 51
0.0
 71
     0
 72
   100
 73
     1
 74
     1
 75
     0
 76
     0
 77
     0
 78
     0
  0
ENDTAB
  0
TABLE
  2
LTYPE
 70
     9
  0
LTYPE
  2
CONTINUOUS
 70
    64
  3
Solid line
 72
    65
 73
     0
 40
0.0
  0
LTYPE
  2
HIDDEN
 70
    64
  3
__ __ __ __ __ __ __ __ __ __ __ __ __ __ __ __
 72
    65
 73
     5
 40
8.0
 49
1.0
 49
-2.0
 49
2.0
 49
-2.0
 49
1.0
  0
LTYPE
  2
DOT
 70
    64
  3
. . . . . . . . . . . . . . . . . . . . . . . .
 72
    65
 73
     3
 40
1.6
 49
0.4
 49
-0.8
 49
0.4
  0
LTYPE
  2
CENTER
 70
    64
  3
____ _ ____ _ ____ _ ____ _ ____ _ ____ _ ____ 
 72
    65
 73
     5
 40
12.0
 49
5.0
 49
-0.8
 49
0.4
 49
-0.8
 49
5.0
  0
LTYPE
  2
DIVIDE
 70
    64
  3
____ . . ____ . . ____ . . ____ . . ____ . . __
 72
    65
 73
     7
 40
13.2
 49
5.0
 49
-0.8
 49
0.4
 49
-0.8
 49
0.4
 49
-0.8
 49
5.0
  0
LTYPE
  2
DASHED1
 70
     0
  3
Solid Line
 72
    65
 73
     2
 40
2.5
 49
1.25
 49
-1.25
  0
LTYPE
  2
DASHED3
 70
     0
  3
Solid Line
 72
    65
 73
     2
 40
5.0
 49
3.75
 49
-1.25
  0
LTYPE
  2
CENTER1
 70
     0
  3
Solid Line
 72
    65
 73
     4
 40
10.0
 49
6.25
 49
-1.25
 49
1.25
 49
-1.25
  0
LTYPE
  2
PHANTOM1
 70
     0
  3
Solid Line
 72
    65
 73
     6
 40
9.5
 49
3.25
 49
-1.25
 49
1.25
 49
-1.25
 49
1.25
 49
-1.25
  0
ENDTAB
  0
TABLE
  2
LAYER
 70
    27
  0
LAYER
  2
0
 70
     0
 62
     7
  6
CONTINUOUS
  0
LAYER
  2
1
 70
     0
 62
     1
  6
CONTINUOUS
  0
LAYER
  2
2
 70
     0
 62
     1
  6
CONTINUOUS
  0
LAYER
  2
3
 70
     0
 62
     1
  6
CONTINUOUS
  0
LAYER
  2
4
 70
     0
 62
     1
  6
CONTINUOUS
  0
LAYER
  2
5
 70
     0
 62
     1
  6
CONTINUOUS
  0
LAYER
  2
6
 70
     0
 62
     1
  6
CONTINUOUS
  0
LAYER
  2
7
 70
     0
 62
     1
  6
CONTINUOUS
  0
LAYER
  2
8
 70
     0
 62
     1
  6
CONTINUOUS
  0
LAYER
  2
9
 70
     0
 62
     1
  6
CONTINUOUS
  0
LAYER
  2
10
 70
     0
 62
     1
  6
CONTINUOUS
  0
LAYER
  2
11
 70
     0
 62
     1
  6
CONTINUOUS
  0
LAYER
  2
12
 70
     0
 62
     1
  6
CONTINUOUS
  0
LAYER
  2
13
 70
     0
 62
     1
  6
CONTINUOUS
  0
LAYER
  2
14
 70
     0
 62
     1
  6
CONTINUOUS
  0
LAYER
  2
15
 70
     0
 62
     1
  6
CONTINUOUS
  0
LAYER
  2
16
 70
     0
 62
     1
  6
CONTINUOUS
  0
LAYER
  2
20
 70
     0
 62
     1
  6
CONTINUOUS
  0
LAYER
  2
21
 70
     0
 62
     1
  6
CONTINUOUS
  0
LAYER
  2
22
 70
     0
 62
     1
  6
CONTINUOUS
  0
LAYER
  2
40
 70
     0
 62
     1
  6
CONTINUOUS
  0
LAYER
  2
50
 70
     0
 62
     1
  6
CONTINUOUS
  0
LAYER
  2
54
 70
     0
 62
     1
  6
CONTINUOUS
  0
LAYER
  2
55
 70
     0
 62
     1
  6
CONTINUOUS
  0
LAYER
  2
70
 70
     0
 62
     1
  6
CONTINUOUS
  0
LAYER
  2
80
 70
     0
 62
     1
  6
CONTINUOUS
  0
LAYER
  2
100
 70
     0
 62
     1
  6
CONTINUOUS
  0
ENDTAB
  0
TABLE
  2
STYLE
 70
     3
  0
STYLE
  2
STANDARD
 70
     0
 40
0.0
 41
1.0
 50
0.0
 71
     0
 42
0.0
  3
txt
  4

  0
STYLE
  2

 70
     0
 40
1000.0
 41
1.0
 50
0.0
 71
     0
 42
1000.0
  3
txt
  4
extfont
  0
STYLE
  2

 70
     0
 40
1000.0
 41
1.0
 50
0.0
 71
     0
 42
1000.0
  3
txt
  4
extfont
  0
ENDTAB
  0
TABLE
  2
VIEW
 70
     0
  0
ENDTAB
  0
TABLE
  2
UCS
 70
     0
  0
ENDTAB
  0
TABLE
  2
APPID
 70
     1
  0
APPID
  2
ACAD
 70
     0
  0
ENDTAB
  0
TABLE
  2
DIMSTYLE
 70
     1
  0
DIMSTYLE
  2
STANDARD
 70
     0
  3

  4

  5

  6

  7

 40
1.0
 41
0.18
 42
0.0625
 43
0.38
 44
0.18
 45
0.0
 46
0.0
 47
0.0
 48
0.0
 71
     0
 72
     0
 73
     1
 74
     1
 75
     0
 76
     0
 77
     0
 78
     0
140
0.18
141
0.09
142
0.0
143
25.4
144
1.0
145
0.0
146
1.0
147
0.09
170
     0
171
     2
172
     0
173
     0
174
     0
175
     0
176
     0
177
     0
178
     0
  0
ENDTAB
  0
ENDSEC
  0
SECTION
  2
BLOCKS
  0
ENDSEC
  0
SECTION
  2
ENTITIES
  0
LINE
  8
70
  6
CONTINUOUS
 62
     2
  5
102
 10
49263.37205
 20
11209.530601
 30
0.0
 11
50013.37205
 21
11209.530601
 31
0.0
  0
LINE
  8
21
  6
CONTINUOUS
 62
     2
  5
103
 10
47952.37205
 20
12139.530601
 30
0.0
 11
47952.37205
 21
12169.530601
 31
0.0
  0
LINE
  8
21
  6
CONTINUOUS
 62
     2
  5
104
 10
47952.37205
 20
12169.530601
 30
0.0
 11
47942.37205
 21
12169.530601
 31
0.0
  0
LINE
  8
21
  6
CONTINUOUS
 62
     2
  5
105
 10
47882.37205
 20
12139.530601
 30
0.0
 11
47882.37205
 21
12169.530601
 31
0.0
  0
LINE
  8
21
  6
CONTINUOUS
 62
     2
  5
106
 10
47882.37205
 20
12169.530601
 30
0.0
 11
47892.37205
 21
12169.530601
 31
0.0
  0
LINE
  8
21
  6
CONTINUOUS
 62
     2
  5
107
 10
47952.37205
 20
12139.530601
 30
0.0
 11
47882.37205
 21
12139.530601
 31
0.0
  0
LINE
  8
21
  6
CONTINUOUS
 62
     2
  5
108
 10
47952.37205
 20
11249.530601
 30
0.0
 11
47952.37205
 21
11219.530601
 31
0.0
  0
LINE
  8
21
  6
CONTINUOUS
 62
     2
  5
109
 10
47952.37205
 20
11219.530601
 30
0.0
 11
47942.37205
 21
11219.530601
 31
0.0
  0
LINE
  8
21
  6
CONTINUOUS
 62
     2
  5
10A
 10
47882.37205
 20
11249.530601
 30
0.0
 11
47882.37205
 21
11219.530601
 31
0.0
  0
LINE
  8
21
  6
CONTINUOUS
 62
     2
  5
10B
 10
47882.37205
 20
11219.530601
 30
0.0
 11
47892.37205
 21
11219.530601
 31
0.0
  0
LINE
  8
21
  6
CONTINUOUS
 62
     2
  5
10C
 10
47952.37205
 20
11249.530601
 30
0.0
 11
47882.37205
 21
11249.530601
 31
0.0
  0
LINE
  8
10
  6
CONTINUOUS
 62
     5
  5
10D
 10
49238.37205
 20
11180.530601
 30
0.0
 11
49238.37205
 21
11115.530601
 31
0.0
  0
LINE
  8
12
  6
CONTINUOUS
 62
     5
  5
10E
 10
49388.37205
 20
12219.530601
 30
0.0
 11
49388.37205
 21
12179.530601
 31
0.0
  0
LINE
  8
12
  6
CONTINUOUS
 62
     5
  5
10F
 10
49388.37205
 20
12179.530601
 30
0.0
 11
48439.87205
 21
12179.530601
 31
0.0
  0
LINE
  8
12
  6
CONTINUOUS
 62
     5
  5
110
 10
48439.87205
 20
12219.530601
 30
0.0
 11
49388.37205
 21
12219.530601
 31
0.0
  0
LINE
  8
12
  6
CONTINUOUS
 62
     5
  5
111
 10
49938.37205
 20
12179.530601
 30
0.0
 11
50038.37205
 21
12179.530601
 31
0.0
  0
LINE
  8
12
  6
CONTINUOUS
 62
     5
  5
112
 10
49938.37205
 20
12219.530601
 30
0.0
 11
50038.37205
 21
12219.530601
 31
0.0
  0
LINE
  8
12
  6
CONTINUOUS
 62
     5
  5
113
 10
49938.37205
 20
12219.530601
 30
0.0
 11
49938.37205
 21
12179.530601
 31
0.0
  0
LINE
  8
20
  6
CONTINUOUS
 62
     5
  5
114
 10
47987.37205
 20
12884.530601
 30
0.0
 11
48387.37205
 21
12884.530601
 31
0.0
  0
LINE
  8
20
  6
CONTINUOUS
 62
     5
  5
115
 10
48387.37205
 20
12484.530601
 30
0.0
 11
47987.37205
 21
12484.530601
 31
0.0
  0
LINE
  8
20
  6
CONTINUOUS
 62
     5
  5
116
 10
47987.37205
 20
12484.530601
 30
0.0
 11
47987.37205
 21
12884.530601
 31
0.0
  0
LINE
  8
20
  6
CONTINUOUS
 62
     5
  5
117
 10
48387.37205
 20
12884.530601
 30
0.0
 11
48387.37205
 21
12484.530601
 31
0.0
  0
LINE
  8
10
  6
CONTINUOUS
 62
     5
  5
118
 10
48047.37205
 20
11209.530601
 30
0.0
 11
47967.37205
 21
11209.530601
 31
0.0
  0
LINE
  8
20
  6
CONTINUOUS
 62
     5
  5
119
 10
50038.37205
 20
11219.530601
 30
0.0
 11
50038.37205
 21
11103.030601
 31
0.0
  0
LINE
  8
10
  6
CONTINUOUS
 62
     5
  5
11A
 10
48439.87205
 20
13090.030601
 30
0.0
 11
48439.87205
 21
13097.030601
 31
0.0
  0
LINE
  8
10
  6
CONTINUOUS
 62
     5
  5
11B
 10
50038.37205
 20
13090.030601
 30
0.0
 11
50038.37205
 21
13097.030601
 31
0.0
  0
LINE
  8
10
  6
CONTINUOUS
 62
     5
  5
11C
 10
48005.37205
 20
12154.530601
 30
0.0
 11
47967.37205
 21
12154.530601
 31
0.0
  0
LINE
  8
10
  6
CONTINUOUS
 62
     5
  5
11D
 10
48047.37205
 20
12179.530601
 30
0.0
 11
47952.37205
 21
12179.530601
 31
0.0
  0
LINE
  8
10
  6
CONTINUOUS
 62
     5
  5
11E
 10
47952.37205
 20
12179.530601
 30
0.0
 11
47952.37205
 21
12154.530601
 31
0.0
  0
LINE
  8
10
  6
CONTINUOUS
 62
     5
  5
11F
 10
48037.37205
 20
11209.530601
 30
0.0
 11
48047.37205
 21
11209.530601
 31
0.0
  0
LINE
  8
10
  6
CONTINUOUS
 62
     5
  5
120
 10
47952.37205
 20
11209.530601
 30
0.0
 11
47952.37205
 21
11234.530601
 31
0.0
  0
LINE
  8
10
  6
CONTINUOUS
 62
     5
  5
121
 10
48037.37205
 20
11209.530601
 30
0.0
 11
47952.37205
 21
11209.530601
 31
0.0
  0
LINE
  8
20
  6
CONTINUOUS
 62
     5
  5
122
 10
49238.37205
 20
11209.530601
 30
0.0
 11
49238.37205
 21
11180.530601
 31
0.0
  0
LINE
  8
20
  6
CONTINUOUS
 62
     5
  5
123
 10
49238.37205
 20
11115.530601
 30
0.0
 11
49238.37205
 21
11103.030601
 31
0.0
  0
LINE
  8
15
  6
CONTINUOUS
 62
     5
  5
124
 10
47882.37205
 20
11249.530601
 30
0.0
 11
47952.37205
 21
11249.530601
 31
0.0
  0
LINE
  8
15
  6
CONTINUOUS
 62
     5
  5
125
 10
47882.37205
 20
12139.530601
 30
0.0
 11
47952.37205
 21
12139.530601
 31
0.0
  0
LINE
  8
15
  6
CONTINUOUS
 62
     5
  5
126
 10
50013.37205
 20
11103.030601
 30
0.0
 11
50013.37205
 21
11215.530601
 31
0.0
  0
LINE
  8
15
  6
CONTINUOUS
 62
     5
  5
127
 10
49263.37205
 20
11103.030601
 30
0.0
 11
49263.37205
 21
11215.530601
 31
0.0
  0
LINE
  8
15
  6
CONTINUOUS
 62
     5
  5
128
 10
47787.37205
 20
12164.530601
 30
0.0
 11
47777.37205
 21
12164.530601
 31
0.0
  0
LINE
  8
15
  6
CONTINUOUS
 62
     5
  5
129
 10
47777.37205
 20
11224.530601
 30
0.0
 11
47787.37205
 21
11224.530601
 31
0.0
  0
LINE
  8
10
  6
CONTINUOUS
 62
     5
  5
12A
 10
50038.37205
 20
13090.030601
 30
0.0
 11
48439.87205
 21
13090.030601
 31
0.0
  0
LINE
  8
20
  6
CONTINUOUS
 62
     5
  5
12B
 10
50013.37205
 20
11219.530601
 30
0.0
 11
50013.37205
 21
11093.030601
 31
0.0
  0
LINE
  8
10
  6
CONTINUOUS
 62
     5
  5
12C
 10
48047.37205
 20
11234.530601
 30
0.0
 11
47952.37205
 21
11234.530601
 31
0.0
  0
LINE
  8
10
  6
CONTINUOUS
 62
     5
  5
12D
 10
48047.37205
 20
11209.530601
 30
0.0
 11
48047.37205
 21
11234.530601
 31
0.0
  0
LINE
  8
10
  6
CONTINUOUS
 62
     5
  5
12E
 10
49238.37205
 20
11209.530601
 30
0.0
 11
48047.37205
 21
11209.530601
 31
0.0
  0
LINE
  8
20
  6
CONTINUOUS
 62
     5
  5
12F
 10
50038.37205
 20
11219.530601
 30
0.0
 11
50013.37205
 21
11219.530601
 31
0.0
  0
LINE
  8
20
  6
CONTINUOUS
 62
     5
  5
130
 10
50013.37205
 20
11093.030601
 30
0.0
 11
50038.37205
 21
11093.030601
 31
0.0
  0
LINE
  8
10
  6
CONTINUOUS
 62
     5
  5
131
 10
50179.87205
 20
11103.030601
 30
0.0
 11
50038.37205
 21
11103.030601
 31
0.0
  0
LINE
  8
10
  6
CONTINUOUS
 62
     5
  5
132
 10
50179.87205
 20
11115.530601
 30
0.0
 11
50179.87205
 21
11103.030601
 31
0.0
  0
LINE
  8
20
  6
CONTINUOUS
 62
     5
  5
133
 10
50038.37205
 20
11103.030601
 30
0.0
 11
50038.37205
 21
11093.030601
 31
0.0
  0
LINE
  8
20
  6
CONTINUOUS
 62
     5
  5
134
 10
49263.37205
 20
11219.530601
 30
0.0
 11
49263.37205
 21
11093.030601
 31
0.0
  0
LINE
  8
20
  6
CONTINUOUS
 62
     5
  5
135
 10
49238.37205
 20
11219.530601
 30
0.0
 11
49263.37205
 21
11219.530601
 31
0.0
  0
LINE
  8
20
  6
CONTINUOUS
 62
     5
  5
136
 10
49238.37205
 20
11093.030601
 30
0.0
 11
49263.37205
 21
11093.030601
 31
0.0
  0
LINE
  8
20
  6
CONTINUOUS
 62
     5
  5
137
 10
49238.37205
 20
11219.530601
 30
0.0
 11
49238.37205
 21
11209.530601
 31
0.0
  0
LINE
  8
20
  6
CONTINUOUS
 62
     5
  5
138
 10
49238.37205
 20
11093.030601
 30
0.0
 11
49238.37205
 21
11103.030601
 31
0.0
  0
LINE
  8
12
  6
CONTINUOUS
 62
     5
  5
139
 10
50038.37205
 20
11219.530601
 30
0.0
 11
50038.37205
 21
13090.030601
 31
0.0
  0
LINE
  8
10
  6
CONTINUOUS
 62
     5
  5
13A
 10
48047.37205
 20
12179.530601
 30
0.0
 11
48047.37205
 21
12154.530601
 31
0.0
  0
LINE
  8
10
  6
CONTINUOUS
 62
     5
  5
13B
 10
48047.37205
 20
12154.530601
 30
0.0
 11
47952.37205
 21
12154.530601
 31
0.0
  0
LINE
  8
10
  6
CONTINUOUS
 62
     5
  5
13C
 10
48439.87205
 20
12179.530601
 30
0.0
 11
48047.37205
 21
12179.530601
 31
0.0
  0
LINE
  8
10
  6
CONTINUOUS
 62
     5
  5
13D
 10
48439.87205
 20
12179.530601
 30
0.0
 11
48439.87205
 21
13090.030601
 31
0.0
  0
LINE
  8
10
  6
CONTINUOUS
 62
     5
  5
13E
 10
50179.87205
 20
13234.530601
 30
0.0
 11
50167.37205
 21
13234.530601
 31
0.0
  0
LINE
  8
10
  6
CONTINUOUS
 62
     5
  5
13F
 10
50179.87205
 20
11115.530601
 30
0.0
 11
50179.87205
 21
13234.530601
 31
0.0
  0
LINE
  8
10
  6
CONTINUOUS
 62
     5
  5
140
 10
47882.37205
 20
11234.530601
 30
0.0
 11
47817.37205
 21
11234.530601
 31
0.0
  0
LINE
  8
10
  6
CONTINUOUS
 62
     5
  5
141
 10
47787.37205
 20
11234.530601
 30
0.0
 11
47867.37205
 21
11234.530601
 31
0.0
  0
LINE
  8
10
  6
CONTINUOUS
 62
     5
  5
142
 10
47882.37205
 20
12154.530601
 30
0.0
 11
47817.37205
 21
12154.530601
 31
0.0
  0
LINE
  8
10
  6
CONTINUOUS
 62
     5
  5
143
 10
47787.37205
 20
12154.530601
 30
0.0
 11
47867.37205
 21
12154.530601
 31
0.0
  0
LINE
  8
10
  6
CONTINUOUS
 62
     5
  5
144
 10
47787.37205
 20
11103.030601
 30
0.0
 11
47787.37205
 21
11234.530601
 31
0.0
  0
LINE
  8
10
  6
CONTINUOUS
 62
     5
  5
145
 10
49238.37205
 20
11103.030601
 30
0.0
 11
47787.37205
 21
11103.030601
 31
0.0
  0
LINE
  8
15
  6
CONTINUOUS
 62
     6
  5
146
 10
50013.37205
 20
11159.280601
 30
0.0
 11
49263.37205
 21
11159.280601
 31
0.0
  0
LINE
  8
15
  6
CONTINUOUS
 62
     6
  5
147
 10
49638.37205
 20
11271.780601
 30
0.0
 11
49638.37205
 21
11046.780601
 31
0.0
  0
ARC
  8
15
  6
CONTINUOUS
 62
     6
  5
148
 10
50013.37205
 20
11215.530601
 30
0.0
 40
750.0
 50
90.0
 51
180.0
  0
LINE
  8
15
  6
CONTINUOUS
 62
     6
  5
149
 10
50013.37205
 20
11215.530601
 30
0.0
 11
50013.37205
 21
11965.530601
 31
0.0
  0
LINE
  8
3
  6
CONTINUOUS
 62
     6
  5
14A
 10
48628.836796
 20
12179.530601
 30
0.0
 11
48628.836796
 21
11207.236226
 31
0.0
  0
LINE
  8
3
  6
CONTINUOUS
 62
     6
  5
14B
 10
48362.631796
 20
11386.241346
 30
0.0
 11
48406.039796
 21
11390.875346
 31
0.0
  0
LINE
  8
3
  6
CONTINUOUS
 62
     6
  5
14C
 10
48406.039796
 20
11390.875346
 30
0.0
 11
48448.128796
 21
11404.635346
 31
0.0
  0
LINE
  8
3
  6
CONTINUOUS
 62
     6
  5
14D
 10
48448.128796
 20
11404.635346
 30
0.0
 11
48487.620796
 21
11427.104346
 31
0.0
  0
LINE
  8
3
  6
CONTINUOUS
 62
     6
  5
14E
 10
48487.620796
 20
11427.104346
 30
0.0
 11
48523.314796
 21
11457.598346
 31
0.0
  0
LINE
  8
3
  6
CONTINUOUS
 62
     6
  5
14F
 10
48201.948796
 20
11457.598346
 30
0.0
 11
48237.642796
 21
11427.104346
 31
0.0
  0
LINE
  8
3
  6
CONTINUOUS
 62
     6
  5
150
 10
48237.642796
 20
11427.104346
 30
0.0
 11
48277.133796
 21
11404.635346
 31
0.0
  0
LINE
  8
3
  6
CONTINUOUS
 62
     6
  5
151
 10
48277.133796
 20
11404.635346
 30
0.0
 11
48319.223796
 21
11390.875346
 31
0.0
  0
LINE
  8
3
  6
CONTINUOUS
 62
     6
  5
152
 10
48319.223796
 20
11390.875346
 30
0.0
 11
48362.631796
 21
11386.241346
 31
0.0
  0
LINE
  8
3
  6
CONTINUOUS
 62
     6
  5
153
 10
48523.314796
 20
11457.598346
 30
0.0
 11
48554.125796
 21
11495.191346
 31
0.0
  0
LINE
  8
3
  6
CONTINUOUS
 62
     6
  5
154
 10
48554.125796
 20
11495.191346
 30
0.0
 11
48579.118796
 21
11538.741346
 31
0.0
  0
LINE
  8
3
  6
CONTINUOUS
 62
     6
  5
155
 10
48579.118796
 20
11538.741346
 30
0.0
 11
48597.533796
 21
11586.925346
 31
0.0
  0
LINE
  8
3
  6
CONTINUOUS
 62
     6
  5
156
 10
48597.533796
 20
11586.925346
 30
0.0
 11
48608.811796
 21
11638.279346
 31
0.0
  0
LINE
  8
3
  6
CONTINUOUS
 62
     6
  5
157
 10
48127.728796
 20
11795.558346
 30
0.0
 11
48116.450796
 21
11744.204346
 31
0.0
  0
LINE
  8
3
  6
CONTINUOUS
 62
     6
  5
158
 10
48116.450796
 20
11744.204346
 30
0.0
 11
48112.653796
 21
11691.241346
 31
0.0
  0
LINE
  8
3
  6
CONTINUOUS
 62
     6
  5
159
 10
48112.653796
 20
11691.241346
 30
0.0
 11
48116.450796
 21
11638.279346
 31
0.0
  0
LINE
  8
3
  6
CONTINUOUS
 62
     6
  5
15A
 10
48116.450796
 20
11638.279346
 30
0.0
 11
48127.728796
 21
11586.925346
 31
0.0
  0
LINE
  8
3
  6
CONTINUOUS
 62
     6
  5
15B
 10
48127.728796
 20
11586.925346
 30
0.0
 11
48146.143796
 21
11538.741346
 31
0.0
  0
LINE
  8
3
  6
CONTINUOUS
 62
     6
  5
15C
 10
48146.143796
 20
11538.741346
 30
0.0
 11
48171.137796
 21
11495.191346
 31
0.0
  0
LINE
  8
3
  6
CONTINUOUS
 62
     6
  5
15D
 10
48171.137796
 20
11495.191346
 30
0.0
 11
48201.948796
 21
11457.598346
 31
0.0
  0
LINE
  8
3
  6
CONTINUOUS
 62
     6
  5
15E
 10
48237.642796
 20
11955.379346
 30
0.0
 11
48201.948796
 21
11924.885346
 31
0.0
  0
LINE
  8
3
  6
CONTINUOUS
 62
     6
  5
15F
 10
48406.039796
 20
11991.608346
 30
0.0
 11
48362.631796
 21
11996.241346
 31
0.0
  0
LINE
  8
3
  6
CONTINUOUS
 62
     6
  5
160
 10
48362.631796
 20
11996.241346
 30
0.0
 11
48319.223796
 21
11991.608346
 31
0.0
  0
LINE
  8
3
  6
CONTINUOUS
 62
     6
  5
161
 10
48319.223796
 20
11991.608346
 30
0.0
 11
48277.133796
 21
11977.848346
 31
0.0
  0
LINE
  8
3
  6
CONTINUOUS
 62
     6
  5
162
 10
48277.133796
 20
11977.848346
 30
0.0
 11
48237.642796
 21
11955.379346
 31
0.0
  0
LINE
  8
3
  6
CONTINUOUS
 62
     6
  5
163
 10
48201.948796
 20
11924.885346
 30
0.0
 11
48171.137796
 21
11887.292346
 31
0.0
  0
LINE
  8
3
  6
CONTINUOUS
 62
     6
  5
164
 10
48171.137796
 20
11887.292346
 30
0.0
 11
48146.143796
 21
11843.741346
 31
0.0
  0
LINE
  8
3
  6
CONTINUOUS
 62
     6
  5
165
 10
48146.143796
 20
11843.741346
 30
0.0
 11
48127.728796
 21
11795.558346
 31
0.0
  0
LINE
  8
3
  6
CONTINUOUS
 62
     6
  5
166
 10
48597.533796
 20
11795.558346
 30
0.0
 11
48579.118796
 21
11843.741346
 31
0.0
  0
LINE
  8
3
  6
CONTINUOUS
 62
     6
  5
167
 10
48579.118796
 20
11843.741346
 30
0.0
 11
48554.125796
 21
11887.292346
 31
0.0
  0
LINE
  8
3
  6
CONTINUOUS
 62
     6
  5
168
 10
48608.811796
 20
11744.204346
 30
0.0
 11
48597.533796
 21
11795.558346
 31
0.0
  0
LINE
  8
3
  6
CONTINUOUS
 62
     6
  5
169
 10
48612.609796
 20
11691.241346
 30
0.0
 11
48608.811796
 21
11744.204346
 31
0.0
  0
LINE
  8
3
  6
CONTINUOUS
 62
     6
  5
16A
 10
48608.811796
 20
11638.279346
 30
0.0
 11
48612.609796
 21
11691.241346
 31
0.0
  0
LINE
  8
3
  6
CONTINUOUS
 62
     6
  5
16B
 10
48523.314796
 20
11924.885346
 30
0.0
 11
48487.620796
 21
11955.379346
 31
0.0
  0
LINE
  8
3
  6
CONTINUOUS
 62
     6
  5
16C
 10
48554.125796
 20
11887.292346
 30
0.0
 11
48523.314796
 21
11924.885346
 31
0.0
  0
LINE
  8
3
  6
CONTINUOUS
 62
     6
  5
16D
 10
48487.620796
 20
11955.379346
 30
0.0
 11
48448.128796
 21
11977.848346
 31
0.0
  0
LINE
  8
3
  6
CONTINUOUS
 62
     6
  5
16E
 10
48448.128796
 20
11977.848346
 30
0.0
 11
48406.039796
 21
11991.608346
 31
0.0
  0
LINE
  8
70
  6
CONTINUOUS
 62
     6
  5
16F
 10
48451.249346
 20
12437.030601
 30
0.0
 11
48439.87205
 21
12437.030601
 31
0.0
  0
LINE
  8
3
  6
CONTINUOUS
 62
     6
  5
170
 10
48464.366816
 20
12434.477513
 30
0.0
 11
48635.828816
 21
12434.477513
 31
0.0
  0
LINE
  8
3
  6
CONTINUOUS
 62
     6
  5
171
 10
48635.828816
 20
12894.478513
 30
0.0
 11
48464.366816
 21
12894.478513
 31
0.0
  0
ARC
  8
3
  6
CONTINUOUS
 62
     6
  5
172
 10
48464.366816
 20
12469.479513
 30
0.0
 40
34.999999
 50
225.58499
 51
270.0
  0
ARC
  8
3
  6
CONTINUOUS
 62
     6
  5
173
 10
45657.875816
 20
12664.478513
 30
0.0
 40
3010.0
 50
356.061996
 51
3.939987
  0
ARC
  8
3
  6
CONTINUOUS
 62
     6
  5
174
 10
48635.828816
 20
12459.478513
 30
0.0
 40
24.999999
 50
270.000992
 51
356.061996
  0
ARC
  8
3
  6
CONTINUOUS
 62
     6
  5
175
 10
48464.366816
 20
12859.478513
 30
0.0
 40
34.999999
 50
90.0
 51
134.41499
  0
ARC
  8
3
  6
CONTINUOUS
 62
     6
  5
176
 10
48635.828816
 20
12869.476513
 30
0.0
 40
24.9999
 50
3.937713
 51
89.99938
  0
ARC
  8
3
  6
CONTINUOUS
 62
     6
  5
177
 10
49570.535816
 20
7884.956513
 30
0.0
 40
4999.9999
 50
98.37501
 51
100.43699
  0
ARC
  8
3
  6
CONTINUOUS
 62
     6
  5
178
 10
49570.535816
 20
17443.986513
 30
0.0
 40
4999.9999
 50
259.56298
 51
261.62495
  0
ARC
  8
3
  6
CONTINUOUS
 62
     6
  5
179
 10
49077.868816
 20
12664.478513
 30
0.0
 40
126.99999
 50
317.328994
 51
42.67068
  0
ARC
  8
3
  6
CONTINUOUS
 62
     6
  5
17A
 10
48945.488816
 20
12542.509513
 30
0.0
 40
307.0
 50
42.64878
 51
109.64501
  0
ARC
  8
3
  6
CONTINUOUS
 62
     6
  5
17B
 10
48945.488816
 20
12786.438513
 30
0.0
 40
307.0
 50
250.3543
 51
317.350997
  0
LINE
  8
54
  6
CENTER
 62
     2
  5
17C
 10
48187.37205
 20
11103.030601
 30
0.0
 11
48187.37205
 21
13234.530601
 31
0.0
  0
LINE
  8
100
  6
CENTER
 62
     2
  5
17D
 10
47917.37205
 20
11103.030601
 30
0.0
 11
47917.37205
 21
13234.530601
 31
0.0
  0
LINE
  8
50
  6
CENTER
 62
     2
  5
17E
 10
50117.37205
 20
11103.030601
 30
0.0
 11
50117.37205
 21
13234.530601
 31
0.0
  0
LINE
  8
100
  6
CENTER
 62
     2
  5
17F
 10
48525.180695
 20
12684.530601
 30
0.0
 11
47787.37205
 21
12684.530601
 31
0.0
  0
LINE
  8
55
  6
CENTER
 62
     2
  5
180
 10
48387.37205
 20
12199.530601
 30
0.0
 11
50179.87205
 21
12199.530601
 31
0.0
  0
LINE
  8
100
  6
CENTER
 62
     2
  5
181
 10
47787.37205
 20
13184.530601
 30
0.0
 11
50179.87205
 21
13184.530601
 31
0.0
  0
LINE
  8
50
  6
CENTER
 62
     2
  5
182
 10
47787.37205
 20
11184.530601
 30
0.0
 11
50179.87205
 21
11184.530601
 31
0.0
  0
LINE
  8
10
  6
CONTINUOUS
 62
     5
  5
183
 10
47787.37205
 20
12154.530601
 30
0.0
 11
47787.37205
 21
13234.530601
 31
0.0
  0
LINE
  8
10
  6
CONTINUOUS
 62
     5
  5
184
 10
47787.37205
 20
13234.530601
 30
0.0
 11
50167.37205
 21
13234.530601
 31
0.0
  0
LINE
  8
15
  6
CONTINUOUS
 62
     6
  5
185
 10
47882.37205
 20
11249.530601
 30
0.0
 11
47882.37205
 21
12139.530601
 31
0.0
  0
LINE
  8
15
  6
CONTINUOUS
 62
     6
  5
186
 10
47777.37205
 20
12164.530601
 30
0.0
 11
47777.37205
 21
11224.530601
 31
0.0
  0
LINE
  8
15
  6
CONTINUOUS
 62
     6
  5
187
 10
47952.37205
 20
12139.530601
 30
0.0
 11
47952.37205
 21
11249.530601
 31
0.0
  0
LINE
  8
15
  6
CONTINUOUS
 62
     6
  5
188
 10
47927.37205
 20
11674.530601
 30
0.0
 11
47927.37205
 21
12139.530601
 31
0.0
  0
LINE
  8
13
  6
CONTINUOUS
 62
     6
  5
189
 10
48020.37205
 20
12154.530601
 30
0.0
 11
48020.37205
 21
11234.530601
 31
0.0
  0
LINE
  8
13
  6
CONTINUOUS
 62
     6
  5
18A
 10
48047.37205
 20
12154.530601
 30
0.0
 11
48047.37205
 21
11234.530601
 31
0.0
  0
LINE
  8
15
  6
CONTINUOUS
 62
     6
  5
18B
 10
47907.37205
 20
11249.530601
 30
0.0
 11
47907.37205
 21
11714.530601
 31
0.0
  0
LINE
  8
15
  6
CONTINUOUS
 62
     6
  5
18C
 10
47864.87205
 20
11694.530601
 30
0.0
 11
47969.87205
 21
11694.530601
 31
0.0
  0
LINE
  8
5
  6
CONTINUOUS
 62
     3
  5
18D
 10
48387.37205
 20
13464.530601
 30
0.0
 11
48387.37205
 21
13264.530601
 31
0.0
  0
CIRCLE
  8
5
  6
CONTINUOUS
 62
     3
  5
18E
 10
48387.37205
 20
13464.530601
 30
0.0
 40
7.5
  0
CIRCLE
  8
5
  6
CONTINUOUS
 62
     3
  5
18F
 10
50117.37205
 20
13464.530601
 30
0.0
 40
7.5
  0
LINE
  8
5
  6
CONTINUOUS
 62
     3
  5
190
 10
48387.37205
 20
13464.530601
 30
0.0
 11
50117.37205
 21
13464.530601
 31
0.0
  0
LINE
  8
5
  6
CONTINUOUS
 62
     3
  5
191
 10
50409.87205
 20
11184.530601
 30
0.0
 11
50209.87205
 21
11184.530601
 31
0.0
  0
LINE
  8
5
  6
CONTINUOUS
 62
     3
  5
192
 10
50409.87205
 20
13184.530601
 30
0.0
 11
50209.87205
 21
13184.530601
 31
0.0
  0
LINE
  8
5
  6
CONTINUOUS
 62
     3
  5
193
 10
50309.87205
 20
12199.530601
 30
0.0
 11
50209.87205
 21
12199.530601
 31
0.0
  0
CIRCLE
  8
5
  6
CONTINUOUS
 62
     3
  5
194
 10
50409.87205
 20
11184.530601
 30
0.0
 40
7.5
  0
CIRCLE
  8
5
  6
CONTINUOUS
 62
     3
  5
195
 10
50409.87205
 20
13184.530601
 30
0.0
 40
7.5
  0
CIRCLE
  8
5
  6
CONTINUOUS
 62
     3
  5
196
 10
50309.87205
 20
11184.530601
 30
0.0
 40
7.5
  0
CIRCLE
  8
5
  6
CONTINUOUS
 62
     3
  5
197
 10
50309.87205
 20
12199.530601
 30
0.0
 40
7.5
  0
CIRCLE
  8
5
  6
CONTINUOUS
 62
     3
  5
198
 10
50309.87205
 20
13184.530601
 30
0.0
 40
7.5
  0
LINE
  8
5
  6
CONTINUOUS
 62
     3
  5
199
 10
50409.87205
 20
11184.530601
 30
0.0
 11
50409.87205
 21
13184.530601
 31
0.0
  0
LINE
  8
5
  6
CONTINUOUS
 62
     3
  5
19A
 10
50309.87205
 20
11184.530601
 30
0.0
 11
50309.87205
 21
12199.530601
 31
0.0
  0
LINE
  8
5
  6
CONTINUOUS
 62
     3
  5
19B
 10
50309.87205
 20
12199.530601
 30
0.0
 11
50309.87205
 21
13184.530601
 31
0.0
  0
LINE
  8
5
  6
CONTINUOUS
 62
     3
  5
19C
 10
48387.37205
 20
13464.530601
 30
0.0
 11
48387.37205
 21
13264.530601
 31
0.0
  0
LINE
  8
5
  6
CONTINUOUS
 62
     3
  5
19D
 10
48187.37205
 20
13364.530601
 30
0.0
 11
48187.37205
 21
13264.530601
 31
0.0
  0
CIRCLE
  8
5
  6
CONTINUOUS
 62
     3
  5
19E
 10
47917.37205
 20
13464.530601
 30
0.0
 40
7.5
  0
CIRCLE
  8
5
  6
CONTINUOUS
 62
     3
  5
19F
 10
48387.37205
 20
13464.530601
 30
0.0
 40
7.5
  0
CIRCLE
  8
5
  6
CONTINUOUS
 62
     3
  5
1A0
 10
47917.37205
 20
13364.530601
 30
0.0
 40
7.5
  0
CIRCLE
  8
5
  6
CONTINUOUS
 62
     3
  5
1A1
 10
48187.37205
 20
13364.530601
 30
0.0
 40
7.5
  0
CIRCLE
  8
5
  6
CONTINUOUS
 62
     3
  5
1A2
 10
48387.37205
 20
13364.530601
 30
0.0
 40
7.5
  0
LINE
  8
5
  6
CONTINUOUS
 62
     3
  5
1A3
 10
47917.37205
 20
13464.530601
 30
0.0
 11
48387.37205
 21
13464.530601
 31
0.0
  0
LINE
  8
5
  6
CONTINUOUS
 62
     3
  5
1A4
 10
47917.37205
 20
13364.530601
 30
0.0
 11
48187.37205
 21
13364.530601
 31
0.0
  0
LINE
  8
5
  6
CONTINUOUS
 62
     3
  5
1A5
 10
48187.37205
 20
13364.530601
 30
0.0
 11
48387.37205
 21
13364.530601
 31
0.0
  0
LINE
  8
5
  6
CONTINUOUS
 62
     3
  5
1A6
 10
47557.37205
 20
13184.530601
 30
0.0
 11
47757.37205
 21
13184.530601
 31
0.0
  0
LINE
  8
5
  6
CONTINUOUS
 62
     3
  5
1A7
 10
47557.37205
 20
11184.530601
 30
0.0
 11
47757.37205
 21
11184.530601
 31
0.0
  0
LINE
  8
5
  6
CONTINUOUS
 62
     3
  5
1A8
 10
47657.37205
 20
12684.530601
 30
0.0
 11
47757.37205
 21
12684.530601
 31
0.0
  0
CIRCLE
  8
5
  6
CONTINUOUS
 62
     3
  5
1A9
 10
47557.37205
 20
13184.530601
 30
0.0
 40
7.5
  0
CIRCLE
  8
5
  6
CONTINUOUS
 62
     3
  5
1AA
 10
47557.37205
 20
11184.530601
 30
0.0
 40
7.5
  0
CIRCLE
  8
5
  6
CONTINUOUS
 62
     3
  5
1AB
 10
47657.37205
 20
11184.530601
 30
0.0
 40
7.5
  0
CIRCLE
  8
5
  6
CONTINUOUS
 62
     3
  5
1AC
 10
47657.37205
 20
12684.530601
 30
0.0
 40
7.5
  0
CIRCLE
  8
5
  6
CONTINUOUS
 62
     3
  5
1AD
 10
47657.37205
 20
13184.530601
 30
0.0
 40
7.5
  0
LINE
  8
5
  6
CONTINUOUS
 62
     3
  5
1AE
 10
47557.37205
 20
13184.530601
 30
0.0
 11
47557.37205
 21
11184.530601
 31
0.0
  0
LINE
  8
5
  6
CONTINUOUS
 62
     3
  5
1AF
 10
47657.37205
 20
11184.530601
 30
0.0
 11
47657.37205
 21
12684.530601
 31
0.0
  0
LINE
  8
5
  6
CONTINUOUS
 62
     3
  5
1B0
 10
47657.37205
 20
12684.530601
 30
0.0
 11
47657.37205
 21
13184.530601
 31
0.0
  0
CIRCLE
  8
5
  6
CONTINUOUS
 62
     3
  5
1B1
 10
47917.37205
 20
13564.530601
 30
0.0
 40
7.5
  0
CIRCLE
  8
5
  6
CONTINUOUS
 62
     3
  5
1B2
 10
50117.37205
 20
13564.530601
 30
0.0
 40
7.5
  0
LINE
  8
5
  6
CONTINUOUS
 62
     3
  5
1B3
 10
47917.37205
 20
13564.530601
 30
0.0
 11
47917.37205
 21
13264.530601
 31
0.0
  0
LINE
  8
5
  6
CONTINUOUS
 62
     3
  5
1B4
 10
47917.37205
 20
13564.530601
 30
0.0
 11
50117.37205
 21
13564.530601
 31
0.0
  0
LINE
  8
5
  6
CONTINUOUS
 62
     3
  5
1B5
 10
50117.37205
 20
13564.530601
 30
0.0
 11
50117.37205
 21
13264.530601
 31
0.0
  0
LINE
  8
50
  6
CENTER
 62
     2
  5
1B6
 10
48387.37205
 20
13234.530601
 30
0.0
 11
48387.37205
 21
12199.530601
 31
0.0
  0
LINE
  8
5
  6
CONTINUOUS
 62
     5
  5
1B7
 10
47882.37205
 20
12154.530601
 30
0.0
 11
47882.37205
 21
12139.530601
 31
0.0
  0
LINE
  8
5
  6
CONTINUOUS
 62
     5
  5
1B8
 10
47952.37205
 20
12154.530601
 30
0.0
 11
47952.37205
 21
12139.530601
 31
0.0
  0
LINE
  8
5
  6
CONTINUOUS
 62
     5
  5
1B9
 10
47882.37205
 20
11249.530601
 30
0.0
 11
47882.37205
 21
11234.530601
 31
0.0
  0
LINE
  8
5
  6
CONTINUOUS
 62
     5
  5
1BA
 10
47952.37205
 20
11249.530601
 30
0.0
 11
47952.37205
 21
11234.530601
 31
0.0
  0
LINE
  8
3
  6
CONTINUOUS
 62
     3
  5
1BB
 10
49013.580489
 20
8302.27308
 30
0.0
 11
49013.180489
 21
8327.07308
 31
0.0
  0
LINE
  8
5
  6
CONTINUOUS
 62
     3
  5
1BC
 10
48209.87205
 20
10802.426226
 30
0.0
 11
48409.87205
 21
10802.426226
 31
0.0
  0
LINE
  8
5
  6
CONTINUOUS
 62
     3
  5
1BD
 10
48209.87205
 20
8302.426226
 30
0.0
 11
48409.87205
 21
8302.426226
 31
0.0
  0
CIRCLE
  8
5
  6
CONTINUOUS
 62
     3
  5
1BE
 10
48209.87205
 20
10802.426226
 30
0.0
 40
7.5
  0
CIRCLE
  8
5
  6
CONTINUOUS
 62
     3
  5
1BF
 10
48209.87205
 20
8302.426226
 30
0.0
 40
7.5
  0
LINE
  8
5
  6
CONTINUOUS
 62
     3
  5
1C0
 10
48209.87205
 20
10802.426226
 30
0.0
 11
48209.87205
 21
8302.426226
 31
0.0
  0
LINE
  8
5
  6
CONTINUOUS
 62
     3
  5
1C1
 10
49789.87205
 20
8302.426226
 30
0.0
 11
49595.27205
 21
8302.426226
 31
0.0
  0
CIRCLE
  8
5
  6
CONTINUOUS
 62
     3
  5
1C2
 10
49789.87205
 20
8302.426226
 30
0.0
 40
7.5
  0
CIRCLE
  8
5
  6
CONTINUOUS
 62
     3
  5
1C3
 10
49689.87205
 20
8302.426226
 30
0.0
 40
7.5
  0
LINE
  8
5
  6
CONTINUOUS
 62
     3
  5
1C4
 10
48439.87205
 20
9597.426233
 30
0.0
 11
48439.87205
 21
9397.426233
 31
0.0
  0
CIRCLE
  8
5
  6
CONTINUOUS
 62
     3
  5
1C5
 10
48439.87205
 20
9597.426233
 30
0.0
 40
7.5
  0
CIRCLE
  8
5
  6
CONTINUOUS
 62
     3
  5
1C6
 10
48439.87205
 20
9497.426233
 30
0.0
 40
7.5
  0
CIRCLE
  8
5
  6
CONTINUOUS
 62
     3
  5
1C7
 10
49559.87205
 20
9597.426233
 30
0.0
 40
7.5
  0
CIRCLE
  8
5
  6
CONTINUOUS
 62
     3
  5
1C8
 10
49109.87205
 20
9497.426233
 30
0.0
 40
7.5
  0
CIRCLE
  8
5
  6
CONTINUOUS
 62
     3
  5
1C9
 10
49559.87205
 20
9497.426233
 30
0.0
 40
7.5
  0
LINE
  8
5
  6
CONTINUOUS
 62
     3
  5
1CA
 10
48439.87205
 20
9497.426233
 30
0.0
 11
49109.87205
 21
9497.426233
 31
0.0
  0
LINE
  8
5
  6
CONTINUOUS
 62
     3
  5
1CB
 10
49109.87205
 20
9497.426233
 30
0.0
 11
49109.87205
 21
9397.426233
 31
0.0
  0
LINE
  8
5
  6
CONTINUOUS
 62
     3
  5
1CC
 10
49109.87205
 20
9497.426233
 30
0.0
 11
49559.87205
 21
9497.426233
 31
0.0
  0
LINE
  8
5
  6
CONTINUOUS
 62
     3
  5
1CD
 10
49559.87205
 20
9597.426233
 30
0.0
 11
49559.87205
 21
9397.426233
 31
0.0
  0
LINE
  8
5
  6
CONTINUOUS
 62
     3
  5
1CE
 10
49559.87205
 20
9597.426233
 30
0.0
 11
48439.87205
 21
9597.426233
 31
0.0
  0
LINE
  8
5
  6
CENTER
 62
     3
  5
1CF
 10
49109.87205
 20
8767.426233
 30
0.0
 11
49109.87205
 21
9367.426233
 31
0.0
  0
LINE
  8
5
  6
CENTER
 62
     3
  5
1D0
 10
49559.87205
 20
8767.426233
 30
0.0
 11
49109.87205
 21
8767.426233
 31
0.0
  0
LINE
  8
5
  6
CENTER
 62
     3
  5
1D1
 10
49559.87205
 20
8767.426233
 30
0.0
 11
49559.87205
 21
9367.426233
 31
0.0
  0
LINE
  8
5
  6
CENTER
 62
     3
  5
1D2
 10
49559.87205
 20
9367.426233
 30
0.0
 11
49109.87205
 21
9367.426233
 31
0.0
  0
LINE
  8
5
  6
CENTER
 62
     3
  5
1D3
 10
49559.87205
 20
9217.426233
 30
0.0
 11
49109.87205
 21
9217.426233
 31
0.0
  0
LINE
  8
5
  6
CENTER
 62
     3
  5
1D4
 10
49559.87205
 20
9067.426233
 30
0.0
 11
49109.87205
 21
9067.426233
 31
0.0
  0
LINE
  8
5
  6
CENTER
 62
     3
  5
1D5
 10
49559.87205
 20
8917.426233
 30
0.0
 11
49109.87205
 21
8917.426233
 31
0.0
  0
LINE
  8
5
  6
CENTER
 62
     3
  5
1D6
 10
49259.87205
 20
8767.426233
 30
0.0
 11
49259.87205
 21
9367.426233
 31
0.0
  0
LINE
  8
5
  6
CENTER
 62
     3
  5
1D7
 10
49409.87205
 20
8767.426233
 30
0.0
 11
49409.87205
 21
9367.426233
 31
0.0
  0
CIRCLE
  8
5
  6
CONTINUOUS
 62
     3
  5
1D8
 10
49789.87205
 20
9367.426233
 30
0.0
 40
7.5
  0
CIRCLE
  8
5
  6
CONTINUOUS
 62
     3
  5
1D9
 10
49689.87205
 20
8767.426233
 30
0.0
 40
7.5
  0
CIRCLE
  8
5
  6
CONTINUOUS
 62
     3
  5
1DA
 10
49689.87205
 20
9367.426233
 30
0.0
 40
7.5
  0
LINE
  8
5
  6
CONTINUOUS
 62
     3
  5
1DB
 10
49689.87205
 20
8767.426233
 30
0.0
 11
49689.87205
 21
9367.426233
 31
0.0
  0
LINE
  8
80
  6
CONTINUOUS
 62
     4
  5
1DC
 10
49529.272056
 20
9381.826233
 30
0.0
 11
49140.47205
 21
9381.826233
 31
0.0
  0
LINE
  8
80
  6
CONTINUOUS
 62
     4
  5
1DD
 10
49442.272055
 20
9353.026232
 30
0.0
 11
49527.472056
 21
9353.026232
 31
0.0
  0
LINE
  8
80
  6
CONTINUOUS
 62
     4
  5
1DE
 10
49227.472052
 20
9353.026232
 30
0.0
 11
49142.27205
 21
9353.026232
 31
0.0
  0
LINE
  8
80
  6
CONTINUOUS
 62
     4
  5
1DF
 10
49377.472054
 20
9353.026232
 30
0.0
 11
49292.272053
 21
9353.026232
 31
0.0
  0
ARC
  8
80
  6
CONTINUOUS
 62
     4
  5
1E0
 10
49292.272053
 20
9335.026232
 30
0.0
 40
18.0
 50
90.0
 51
180.0
  0
ARC
  8
80
  6
CONTINUOUS
 62
     4
  5
1E1
 10
49377.472054
 20
9335.026232
 30
0.0
 40
18.0
 50
0.0
 51
90.0
  0
ARC
  8
80
  6
CONTINUOUS
 62
     4
  5
1E2
 10
49442.272055
 20
9335.026232
 30
0.0
 40
18.0
 50
90.0
 51
180.0
  0
ARC
  8
80
  6
CONTINUOUS
 62
     4
  5
1E3
 10
49227.472052
 20
9335.026232
 30
0.0
 40
18.0
 50
0.0
 51
90.0
  0
ARC
  8
80
  6
CONTINUOUS
 62
     4
  5
1E4
 10
49529.272056
 20
9336.826232
 30
0.0
 40
45.000001
 50
0.0
 51
90.0
  0
ARC
  8
80
  6
CONTINUOUS
 62
     4
  5
1E5
 10
49527.472056
 20
9335.026232
 30
0.0
 40
18.0
 50
0.0
 51
90.0
  0
ARC
  8
80
  6
CONTINUOUS
 62
     4
  5
1E6
 10
49140.47205
 20
9336.826232
 30
0.0
 40
45.000001
 50
90.0
 51
180.0
  0
ARC
  8
80
  6
CONTINUOUS
 62
     4
  5
1E7
 10
49142.27205
 20
9335.026232
 30
0.0
 40
18.0
 50
90.0
 51
180.0
  0
LINE
  8
80
  6
CONTINUOUS
 62
     4
  5
1E8
 10
49377.472054
 20
9203.02623
 30
0.0
 11
49292.272053
 21
9203.02623
 31
0.0
  0
LINE
  8
80
  6
CONTINUOUS
 62
     4
  5
1E9
 10
49377.472054
 20
9231.826231
 30
0.0
 11
49292.272053
 21
9231.826231
 31
0.0
  0
LINE
  8
80
  6
CONTINUOUS
 62
     4
  5
1EA
 10
49227.472052
 20
9203.02623
 30
0.0
 11
49142.27205
 21
9203.02623
 31
0.0
  0
LINE
  8
80
  6
CONTINUOUS
 62
     4
  5
1EB
 10
49227.472052
 20
9231.826231
 30
0.0
 11
49142.27205
 21
9231.826231
 31
0.0
  0
ARC
  8
80
  6
CONTINUOUS
 62
     4
  5
1EC
 10
49534.372056
 20
9187.12623
 30
0.0
 40
7.7
 50
330.0
 51
150.0
  0
ARC
  8
80
  6
CONTINUOUS
 62
     4
  5
1ED
 10
49534.372056
 20
9187.12623
 30
0.0
 40
6.8
 50
330.0
 51
150.0
  0
LINE
  8
80
  6
CONTINUOUS
 62
     4
  5
1EE
 10
49524.272056
 20
9184.82623
 30
0.0
 11
49527.772056
 21
9190.92623
 31
0.0
  0
LINE
  8
80
  6
CONTINUOUS
 62
     4
  5
1EF
 10
49528.572056
 20
9190.42623
 30
0.0
 11
49525.372056
 21
9185.02623
 31
0.0
  0
ARC
  8
80
  6
CONTINUOUS
 62
     4
  5
1F0
 10
49551.872057
 20
9217.42623
 30
0.0
 40
41.800001
 50
230.98
 51
249.37
  0
LINE
  8
80
  6
CONTINUOUS
 62
     4
  5
1F1
 10
49540.272056
 20
9183.72623
 30
0.0
 11
49537.172056
 21
9178.32623
 31
0.0
  0
LINE
  8
80
  6
CONTINUOUS
 62
     4
  5
1F2
 10
49537.572056
 20
9177.22623
 30
0.0
 11
49541.072056
 21
9183.22623
 31
0.0
  0
ARC
  8
80
  6
CONTINUOUS
 62
     4
  5
1F3
 10
49586.872057
 20
9217.42623
 30
0.0
 40
7.7
 50
90.0
 51
270.0
  0
ARC
  8
80
  6
CONTINUOUS
 62
     4
  5
1F4
 10
49586.872057
 20
9217.42623
 30
0.0
 40
6.8
 50
90.0
 51
270.0
  0
LINE
  8
80
  6
CONTINUOUS
 62
     4
  5
1F5
 10
49593.872057
 20
9209.82623
 30
0.0
 11
49586.872057
 21
9209.82623
 31
0.0
  0
LINE
  8
80
  6
CONTINUOUS
 62
     4
  5
1F6
 10
49586.872057
 20
9210.72623
 30
0.0
 11
49593.172057
 21
9210.72623
 31
0.0
  0
ARC
  8
80
  6
CONTINUOUS
 62
     4
  5
1F7
 10
49551.872057
 20
9217.42623
 30
0.0
 40
41.800001
 50
350.98
 51
9.37
  0
LINE
  8
80
  6
CONTINUOUS
 62
     4
  5
1F8
 10
49586.872057
 20
9224.226231
 30
0.0
 11
49593.072057
 21
9224.226231
 31
0.0
  0
LINE
  8
80
  6
CONTINUOUS
 62
     4
  5
1F9
 10
49593.872057
 20
9225.126231
 30
0.0
 11
49586.872057
 21
9225.126231
 31
0.0
  0
ARC
  8
80
  6
CONTINUOUS
 62
     4
  5
1FA
 10
49534.372056
 20
9247.726231
 30
0.0
 40
7.7
 50
210.0
 51
30.0
  0
ARC
  8
80
  6
CONTINUOUS
 62
     4
  5
1FB
 10
49534.372056
 20
9247.726231
 30
0.0
 40
6.8
 50
210.0
 51
30.0
  0
LINE
  8
80
  6
CONTINUOUS
 62
     4
  5
1FC
 10
49537.472056
 20
9257.626231
 30
0.0
 11
49540.972056
 21
9251.526231
 31
0.0
  0
LINE
  8
80
  6
CONTINUOUS
 62
     4
  5
1FD
 10
49540.172056
 20
9251.126231
 30
0.0
 11
49537.072056
 21
9256.526231
 31
0.0
  0
ARC
  8
80
  6
CONTINUOUS
 62
     4
  5
1FE
 10
49551.872057
 20
9217.42623
 30
0.0
 40
41.800001
 50
110.98
 51
129.37
  0
LINE
  8
80
  6
CONTINUOUS
 62
     4
  5
1FF
 10
49528.472056
 20
9244.326231
 30
0.0
 11
49525.372056
 21
9249.726231
 31
0.0
  0
LINE
  8
80
  6
CONTINUOUS
 62
     4
  5
200
 10
49524.172056
 20
9249.926231
 30
0.0
 11
49527.672056
 21
9243.926231
 31
0.0
  0
ARC
  8
80
  6
CONTINUOUS
 62
     4
  5
201
 10
49135.37205
 20
9247.726231
 30
0.0
 40
7.7
 50
150.0
 51
330.0
  0
ARC
  8
80
  6
CONTINUOUS
 62
     4
  5
202
 10
49135.37205
 20
9247.726231
 30
0.0
 40
6.8
 50
150.0
 51
330.0
  0
LINE
  8
80
  6
CONTINUOUS
 62
     4
  5
203
 10
49145.47205
 20
9250.026231
 30
0.0
 11
49141.97205
 21
9243.926231
 31
0.0
  0
LINE
  8
80
  6
CONTINUOUS
 62
     4
  5
204
 10
49141.17205
 20
9244.426231
 30
0.0
 11
49144.37205
 21
9249.826231
 31
0.0
  0
ARC
  8
80
  6
CONTINUOUS
 62
     4
  5
205
 10
49117.87205
 20
9217.42623
 30
0.0
 40
41.800001
 50
50.98
 51
69.37
  0
LINE
  8
80
  6
CONTINUOUS
 62
     4
  5
206
 10
49129.47205
 20
9251.126231
 30
0.0
 11
49132.57205
 21
9256.526231
 31
0.0
  0
LINE
  8
80
  6
CONTINUOUS
 62
     4
  5
207
 10
49132.17205
 20
9257.626231
 30
0.0
 11
49128.67205
 21
9251.626231
 31
0.0
  0
ARC
  8
80
  6
CONTINUOUS
 62
     4
  5
208
 10
49082.87205
 20
9217.42623
 30
0.0
 40
7.7
 50
270.0
 51
90.0
  0
ARC
  8
80
  6
CONTINUOUS
 62
     4
  5
209
 10
49082.87205
 20
9217.42623
 30
0.0
 40
6.8
 50
270.0
 51
90.0
  0
LINE
  8
80
  6
CONTINUOUS
 62
     4
  5
20A
 10
49075.872049
 20
9225.026231
 30
0.0
 11
49082.87205
 21
9225.026231
 31
0.0
  0
LINE
  8
80
  6
CONTINUOUS
 62
     4
  5
20B
 10
49082.87205
 20
9224.126231
 30
0.0
 11
49076.572049
 21
9224.126231
 31
0.0
  0
ARC
  8
80
  6
CONTINUOUS
 62
     4
  5
20C
 10
49117.87205
 20
9217.42623
 30
0.0
 40
41.800001
 50
170.98
 51
189.37
  0
LINE
  8
80
  6
CONTINUOUS
 62
     4
  5
20D
 10
49082.87205
 20
9210.62623
 30
0.0
 11
49076.672049
 21
9210.62623
 31
0.0
  0
LINE
  8
80
  6
CONTINUOUS
 62
     4
  5
20E
 10
49075.872049
 20
9209.72623
 30
0.0
 11
49082.87205
 21
9209.72623
 31
0.0
  0
ARC
  8
80
  6
CONTINUOUS
 62
     4
  5
20F
 10
49135.37205
 20
9187.12623
 30
0.0
 40
7.7
 50
30.0
 51
210.0
  0
ARC
  8
80
  6
CONTINUOUS
 62
     4
  5
210
 10
49135.37205
 20
9187.12623
 30
0.0
 40
6.8
 50
30.0
 51
210.0
  0
LINE
  8
80
  6
CONTINUOUS
 62
     4
  5
211
 10
49132.27205
 20
9177.22623
 30
0.0
 11
49128.77205
 21
9183.32623
 31
0.0
  0
LINE
  8
80
  6
CONTINUOUS
 62
     4
  5
212
 10
49129.57205
 20
9183.72623
 30
0.0
 11
49132.67205
 21
9178.32623
 31
0.0
  0
ARC
  8
80
  6
CONTINUOUS
 62
     4
  5
213
 10
49117.87205
 20
9217.42623
 30
0.0
 40
41.800001
 50
290.98
 51
309.37
  0
LINE
  8
80
  6
CONTINUOUS
 62
     4
  5
214
 10
49141.27205
 20
9190.52623
 30
0.0
 11
49144.37205
 21
9185.12623
 31
0.0
  0
LINE
  8
80
  6
CONTINUOUS
 62
     4
  5
215
 10
49145.57205
 20
9184.92623
 30
0.0
 11
49142.07205
 21
9190.92623
 31
0.0
  0
ARC
  8
80
  6
DIVIDE
 62
     4
  5
216
 10
49551.872057
 20
9217.42623
 30
0.0
 40
42.700001
 50
301.61
 51
58.39
  0
ARC
  8
80
  6
CONTINUOUS
 62
     4
  5
217
 10
49551.872057
 20
9217.42623
 30
0.0
 40
45.000001
 50
299.87
 51
60.13
  0
ARC
  8
80
  6
DIVIDE
 62
     4
  5
218
 10
49551.872057
 20
9217.42623
 30
0.0
 40
42.700001
 50
199.71
 51
261.38
  0
ARC
  8
80
  6
DIVIDE
 62
     4
  5
219
 10
49551.872057
 20
9217.42623
 30
0.0
 40
42.700001
 50
98.62
 51
160.29
  0
ARC
  8
80
  6
CONTINUOUS
 62
     4
  5
21A
 10
49551.872057
 20
9217.42623
 30
0.0
 40
45.000001
 50
198.68
 51
261.82
  0
ARC
  8
80
  6
CONTINUOUS
 62
     4
  5
21B
 10
49551.872057
 20
9217.42623
 30
0.0
 40
45.000001
 50
98.18
 51
161.32
  0
ARC
  8
80
  6
DIVIDE
 62
     4
  5
21C
 10
49117.87205
 20
9217.42623
 30
0.0
 40
42.700001
 50
278.62
 51
340.29
  0
ARC
  8
80
  6
CONTINUOUS
 62
     4
  5
21D
 10
49117.87205
 20
9217.42623
 30
0.0
 40
45.000001
 50
278.18
 51
341.32
  0
ARC
  8
80
  6
CONTINUOUS
 62
     4
  5
21E
 10
49117.87205
 20
9217.42623
 30
0.0
 40
45.000001
 50
119.87
 51
240.13
  0
ARC
  8
80
  6
CONTINUOUS
 62
     4
  5
21F
 10
49117.87205
 20
9217.42623
 30
0.0
 40
45.000001
 50
18.68
 51
81.82
  0
ARC
  8
80
  6
DIVIDE
 62
     4
  5
220
 10
49117.87205
 20
9217.42623
 30
0.0
 40
42.700001
 50
121.61
 51
238.39
  0
ARC
  8
80
  6
DIVIDE
 62
     4
  5
221
 10
49117.87205
 20
9217.42623
 30
0.0
 40
42.700001
 50
19.71
 51
81.38
  0
CIRCLE
  8
80
  6
CONTINUOUS
 62
     4
  5
222
 10
49586.872057
 20
9217.42623
 30
0.0
 40
4.0
  0
CIRCLE
  8
80
  6
CONTINUOUS
 62
     4
  5
223
 10
49586.872057
 20
9217.42623
 30
0.0
 40
4.4
  0
CIRCLE
  8
80
  6
CONTINUOUS
 62
     4
  5
224
 10
49534.372056
 20
9187.12623
 30
0.0
 40
4.0
  0
CIRCLE
  8
80
  6
CONTINUOUS
 62
     4
  5
225
 10
49534.372056
 20
9187.12623
 30
0.0
 40
4.4
  0
CIRCLE
  8
80
  6
CONTINUOUS
 62
     4
  5
226
 10
49534.372056
 20
9247.726231
 30
0.0
 40
4.0
  0
CIRCLE
  8
80
  6
CONTINUOUS
 62
     4
  5
227
 10
49534.372056
 20
9247.726231
 30
0.0
 40
4.4
  0
CIRCLE
  8
80
  6
CONTINUOUS
 62
     4
  5
228
 10
49135.37205
 20
9187.12623
 30
0.0
 40
4.4
  0
CIRCLE
  8
80
  6
CONTINUOUS
 62
     4
  5
229
 10
49135.37205
 20
9187.12623
 30
0.0
 40
4.0
  0
CIRCLE
  8
80
  6
CONTINUOUS
 62
     4
  5
22A
 10
49135.37205
 20
9247.726231
 30
0.0
 40
4.0
  0
CIRCLE
  8
80
  6
CONTINUOUS
 62
     4
  5
22B
 10
49135.37205
 20
9247.726231
 30
0.0
 40
4.4
  0
CIRCLE
  8
80
  6
CONTINUOUS
 62
     4
  5
22C
 10
49082.87205
 20
9217.42623
 30
0.0
 40
4.0
  0
CIRCLE
  8
80
  6
CONTINUOUS
 62
     4
  5
22D
 10
49082.87205
 20
9217.42623
 30
0.0
 40
4.4
  0
ARC
  8
80
  6
CONTINUOUS
 62
     4
  5
22E
 10
49292.272053
 20
9185.02623
 30
0.0
 40
18.0
 50
90.0
 51
180.0
  0
ARC
  8
80
  6
CONTINUOUS
 62
     4
  5
22F
 10
49377.472054
 20
9249.826231
 30
0.0
 40
18.0
 50
270.0
 51
0.0
  0
ARC
  8
80
  6
CONTINUOUS
 62
     4
  5
230
 10
49377.472054
 20
9185.02623
 30
0.0
 40
18.0
 50
0.0
 51
90.0
  0
ARC
  8
80
  6
CONTINUOUS
 62
     4
  5
231
 10
49292.272053
 20
9249.826231
 30
0.0
 40
18.0
 50
180.0
 51
270.0
  0
ARC
  8
80
  6
CONTINUOUS
 62
     4
  5
232
 10
49442.272055
 20
9249.826231
 30
0.0
 40
18.0
 50
180.0
 51
270.0
  0
ARC
  8
80
  6
CONTINUOUS
 62
     4
  5
233
 10
49442.272055
 20
9185.02623
 30
0.0
 40
18.0
 50
90.0
 51
180.0
  0
ARC
  8
80
  6
CONTINUOUS
 62
     4
  5
234
 10
49227.472052
 20
9249.826231
 30
0.0
 40
18.0
 50
270.0
 51
0.0
  0
ARC
  8
80
  6
CONTINUOUS
 62
     4
  5
235
 10
49227.472052
 20
9185.02623
 30
0.0
 40
18.0
 50
0.0
 51
90.0
  0
ARC
  8
80
  6
CONTINUOUS
 62
     4
  5
236
 10
49527.472056
 20
9185.02623
 30
0.0
 40
18.0
 50
0.0
 51
90.0
  0
ARC
  8
80
  6
CONTINUOUS
 62
     4
  5
237
 10
49527.472056
 20
9249.826231
 30
0.0
 40
18.0
 50
270.0
 51
0.0
  0
ARC
  8
80
  6
CONTINUOUS
 62
     4
  5
238
 10
49142.27205
 20
9249.826231
 30
0.0
 40
18.0
 50
180.0
 51
270.0
  0
ARC
  8
80
  6
CONTINUOUS
 62
     4
  5
239
 10
49142.27205
 20
9185.02623
 30
0.0
 40
18.0
 50
90.0
 51
180.0
  0
ARC
  8
80
  6
CONTINUOUS
 62
     4
  5
23A
 10
49534.372056
 20
8887.126225
 30
0.0
 40
7.7
 50
330.0
 51
150.0
  0
ARC
  8
80
  6
CONTINUOUS
 62
     4
  5
23B
 10
49534.372056
 20
8887.126225
 30
0.0
 40
6.8
 50
330.0
 51
150.0
  0
LINE
  8
80
  6
CONTINUOUS
 62
     4
  5
23C
 10
49524.272056
 20
8884.826225
 30
0.0
 11
49527.772056
 21
8890.926226
 31
0.0
  0
LINE
  8
80
  6
CONTINUOUS
 62
     4
  5
23D
 10
49528.572056
 20
8890.426226
 30
0.0
 11
49525.372056
 21
8885.026225
 31
0.0
  0
ARC
  8
80
  6
CONTINUOUS
 62
     4
  5
23E
 10
49551.872057
 20
8917.426226
 30
0.0
 40
41.800001
 50
230.98
 51
249.37
  0
LINE
  8
80
  6
CONTINUOUS
 62
     4
  5
23F
 10
49540.272056
 20
8883.726225
 30
0.0
 11
49537.172056
 21
8878.326225
 31
0.0
  0
LINE
  8
80
  6
CONTINUOUS
 62
     4
  5
240
 10
49537.572056
 20
8877.226225
 30
0.0
 11
49541.072056
 21
8883.226225
 31
0.0
  0
ARC
  8
80
  6
CONTINUOUS
 62
     4
  5
241
 10
49586.872057
 20
8917.426226
 30
0.0
 40
7.7
 50
90.0
 51
270.0
  0
ARC
  8
80
  6
CONTINUOUS
 62
     4
  5
242
 10
49586.872057
 20
8917.426226
 30
0.0
 40
6.8
 50
90.0
 51
270.0
  0
LINE
  8
80
  6
CONTINUOUS
 62
     4
  5
243
 10
49593.872057
 20
8909.826226
 30
0.0
 11
49586.872057
 21
8909.826226
 31
0.0
  0
LINE
  8
80
  6
CONTINUOUS
 62
     4
  5
244
 10
49586.872057
 20
8910.726226
 30
0.0
 11
49593.172057
 21
8910.726226
 31
0.0
  0
ARC
  8
80
  6
CONTINUOUS
 62
     4
  5
245
 10
49551.872057
 20
8917.426226
 30
0.0
 40
41.800001
 50
350.98
 51
9.37
  0
LINE
  8
80
  6
CONTINUOUS
 62
     4
  5
246
 10
49586.872057
 20
8924.226226
 30
0.0
 11
49593.072057
 21
8924.226226
 31
0.0
  0
LINE
  8
80
  6
CONTINUOUS
 62
     4
  5
247
 10
49593.872057
 20
8925.126226
 30
0.0
 11
49586.872057
 21
8925.126226
 31
0.0
  0
ARC
  8
80
  6
CONTINUOUS
 62
     4
  5
248
 10
49534.372056
 20
8947.726226
 30
0.0
 40
7.7
 50
210.0
 51
30.0
  0
ARC
  8
80
  6
CONTINUOUS
 62
     4
  5
249
 10
49534.372056
 20
8947.726226
 30
0.0
 40
6.8
 50
210.0
 51
30.0
  0
ARC
  8
80
  6
CONTINUOUS
 62
     4
  5
24A
 10
49551.872057
 20
8917.426226
 30
0.0
 40
41.800001
 50
110.98
 51
129.37
  0
LINE
  8
80
  6
CONTINUOUS
 62
     4
  5
24B
 10
49528.472056
 20
8944.326226
 30
0.0
 11
49525.372056
 21
8949.726226
 31
0.0
  0
LINE
  8
80
  6
CONTINUOUS
 62
     4
  5
24C
 10
49524.172056
 20
8949.926226
 30
0.0
 11
49527.672056
 21
8943.926226
 31
0.0
  0
ARC
  8
80
  6
CONTINUOUS
 62
     4
  5
24D
 10
49135.37205
 20
8947.726226
 30
0.0
 40
7.7
 50
150.0
 51
330.0
  0
ARC
  8
80
  6
CONTINUOUS
 62
     4
  5
24E
 10
49135.37205
 20
8947.726226
 30
0.0
 40
6.8
 50
150.0
 51
330.0
  0
LINE
  8
80
  6
CONTINUOUS
 62
     4
  5
24F
 10
49145.47205
 20
8950.026226
 30
0.0
 11
49141.97205
 21
8943.926226
 31
0.0
  0
LINE
  8
80
  6
CONTINUOUS
 62
     4
  5
250
 10
49141.17205
 20
8944.426226
 30
0.0
 11
49144.37205
 21
8949.826226
 31
0.0
  0
ARC
  8
80
  6
CONTINUOUS
 62
     4
  5
251
 10
49117.87205
 20
8917.426226
 30
0.0
 40
41.800001
 50
50.98
 51
69.37
  0
LINE
  8
80
  6
CONTINUOUS
 62
     4
  5
252
 10
49129.47205
 20
8951.126226
 30
0.0
 11
49132.57205
 21
8956.526227
 31
0.0
  0
LINE
  8
80
  6
CONTINUOUS
 62
     4
  5
253
 10
49132.17205
 20
8957.626227
 30
0.0
 11
49128.67205
 21
8951.626226
 31
0.0
  0
ARC
  8
80
  6
CONTINUOUS
 62
     4
  5
254
 10
49082.87205
 20
8917.426226
 30
0.0
 40
7.7
 50
270.0
 51
90.0
  0
ARC
  8
80
  6
CONTINUOUS
 62
     4
  5
255
 10
49082.87205
 20
8917.426226
 30
0.0
 40
6.8
 50
270.0
 51
90.0
  0
LINE
  8
80
  6
CONTINUOUS
 62
     4
  5
256
 10
49075.872049
 20
8925.026226
 30
0.0
 11
49082.87205
 21
8925.026226
 31
0.0
  0
LINE
  8
80
  6
CONTINUOUS
 62
     4
  5
257
 10
49082.87205
 20
8924.126226
 30
0.0
 11
49076.572049
 21
8924.126226
 31
0.0
  0
ARC
  8
80
  6
CONTINUOUS
 62
     4
  5
258
 10
49117.87205
 20
8917.426226
 30
0.0
 40
41.800001
 50
170.98
 51
189.37
  0
LINE
  8
80
  6
CONTINUOUS
 62
     4
  5
259
 10
49082.87205
 20
8910.626226
 30
0.0
 11
49076.672049
 21
8910.626226
 31
0.0
  0
LINE
  8
80
  6
CONTINUOUS
 62
     4
  5
25A
 10
49075.872049
 20
8909.726226
 30
0.0
 11
49082.87205
 21
8909.726226
 31
0.0
  0
ARC
  8
80
  6
CONTINUOUS
 62
     4
  5
25B
 10
49551.872057
 20
8917.426226
 30
0.0
 40
45.000001
 50
299.87
 51
60.13
  0
ARC
  8
80
  6
DIVIDE
 62
     4
  5
25C
 10
49551.872057
 20
8917.426226
 30
0.0
 40
42.700001
 50
301.61
 51
58.39
  0
ARC
  8
80
  6
DIVIDE
 62
     4
  5
25D
 10
49551.872057
 20
8917.426226
 30
0.0
 40
42.700001
 50
199.71
 51
261.38
  0
ARC
  8
80
  6
DIVIDE
 62
     4
  5
25E
 10
49551.872057
 20
8917.426226
 30
0.0
 40
42.700001
 50
98.62
 51
160.29
  0
ARC
  8
80
  6
CONTINUOUS
 62
     4
  5
25F
 10
49551.872057
 20
8917.426226
 30
0.0
 40
45.000001
 50
198.68
 51
261.82
  0
ARC
  8
80
  6
CONTINUOUS
 62
     4
  5
260
 10
49551.872057
 20
8917.426226
 30
0.0
 40
45.000001
 50
98.18
 51
161.32
  0
ARC
  8
80
  6
CONTINUOUS
 62
     4
  5
261
 10
49117.87205
 20
8917.426226
 30
0.0
 40
45.000001
 50
278.18
 51
341.32
  0
ARC
  8
80
  6
DIVIDE
 62
     4
  5
262
 10
49117.87205
 20
8917.426226
 30
0.0
 40
42.700001
 50
278.62
 51
340.29
  0
ARC
  8
80
  6
DIVIDE
 62
     4
  5
263
 10
49117.87205
 20
8917.426226
 30
0.0
 40
42.700001
 50
121.61
 51
238.39
  0
ARC
  8
80
  6
DIVIDE
 62
     4
  5
264
 10
49117.87205
 20
8917.426226
 30
0.0
 40
42.700001
 50
19.71
 51
81.38
  0
ARC
  8
80
  6
CONTINUOUS
 62
     4
  5
265
 10
49117.87205
 20
8917.426226
 30
0.0
 40
45.000001
 50
119.87
 51
240.13
  0
ARC
  8
80
  6
CONTINUOUS
 62
     4
  5
266
 10
49117.87205
 20
8917.426226
 30
0.0
 40
45.000001
 50
18.68
 51
81.82
  0
CIRCLE
  8
80
  6
CONTINUOUS
 62
     4
  5
267
 10
49586.872057
 20
8917.426226
 30
0.0
 40
4.0
  0
CIRCLE
  8
80
  6
CONTINUOUS
 62
     4
  5
268
 10
49586.872057
 20
8917.426226
 30
0.0
 40
4.4
  0
CIRCLE
  8
80
  6
CONTINUOUS
 62
     4
  5
269
 10
49534.372056
 20
8947.726226
 30
0.0
 40
4.0
  0
CIRCLE
  8
80
  6
CONTINUOUS
 62
     4
  5
26A
 10
49534.372056
 20
8947.726226
 30
0.0
 40
4.4
  0
CIRCLE
  8
80
  6
CONTINUOUS
 62
     4
  5
26B
 10
49534.372056
 20
8887.126225
 30
0.0
 40
4.0
  0
CIRCLE
  8
80
  6
CONTINUOUS
 62
     4
  5
26C
 10
49534.372056
 20
8887.126225
 30
0.0
 40
4.4
  0
CIRCLE
  8
80
  6
CONTINUOUS
 62
     4
  5
26D
 10
49135.37205
 20
8947.726226
 30
0.0
 40
4.0
  0
CIRCLE
  8
80
  6
CONTINUOUS
 62
     4
  5
26E
 10
49135.37205
 20
8947.726226
 30
0.0
 40
4.4
  0
CIRCLE
  8
80
  6
CONTINUOUS
 62
     4
  5
26F
 10
49082.87205
 20
8917.426226
 30
0.0
 40
4.0
  0
CIRCLE
  8
80
  6
CONTINUOUS
 62
     4
  5
270
 10
49082.87205
 20
8917.426226
 30
0.0
 40
4.4
  0
POINT
  8
80
  6
CONTINUOUS
 62
     4
  5
271
 10
49334.872053
 20
8903.026226
 30
0.0
 50
57.29578
  0
LINE
  8
80
  6
CONTINUOUS
 62
     4
  5
272
 10
49377.472054
 20
8903.026226
 30
0.0
 11
49292.272053
 21
8903.026226
 31
0.0
  0
LINE
  8
80
  6
CONTINUOUS
 62
     4
  5
273
 10
49377.472054
 20
8931.826226
 30
0.0
 11
49292.272053
 21
8931.826226
 31
0.0
  0
ARC
  8
80
  6
CONTINUOUS
 62
     4
  5
274
 10
49292.272053
 20
8885.026225
 30
0.0
 40
18.0
 50
90.0
 51
180.0
  0
ARC
  8
80
  6
CONTINUOUS
 62
     4
  5
275
 10
49292.272053
 20
8949.826226
 30
0.0
 40
18.0
 50
180.0
 51
270.0
  0
ARC
  8
80
  6
CONTINUOUS
 62
     4
  5
276
 10
49377.472054
 20
8885.026225
 30
0.0
 40
18.0
 50
0.0
 51
90.0
  0
ARC
  8
80
  6
CONTINUOUS
 62
     4
  5
277
 10
49377.472054
 20
8949.826226
 30
0.0
 40
18.0
 50
270.0
 51
0.0
  0
ARC
  8
80
  6
CONTINUOUS
 62
     4
  5
278
 10
49442.272055
 20
8885.026225
 30
0.0
 40
18.0
 50
90.0
 51
180.0
  0
ARC
  8
80
  6
CONTINUOUS
 62
     4
  5
279
 10
49442.272055
 20
8949.826226
 30
0.0
 40
18.0
 50
180.0
 51
270.0
  0
ARC
  8
80
  6
CONTINUOUS
 62
     4
  5
27A
 10
49227.472052
 20
8885.026225
 30
0.0
 40
18.0
 50
0.0
 51
90.0
  0
ARC
  8
80
  6
CONTINUOUS
 62
     4
  5
27B
 10
49227.472052
 20
8949.826226
 30
0.0
 40
18.0
 50
270.0
 51
0.0
  0
LINE
  8
80
  6
CONTINUOUS
 62
     4
  5
27C
 10
49227.472052
 20
8903.026226
 30
0.0
 11
49142.27205
 21
8903.026226
 31
0.0
  0
LINE
  8
80
  6
CONTINUOUS
 62
     4
  5
27D
 10
49227.472052
 20
8931.826226
 30
0.0
 11
49142.27205
 21
8931.826226
 31
0.0
  0
LINE
  8
80
  6
CONTINUOUS
 62
     4
  5
27E
 10
49442.272055
 20
8931.826226
 30
0.0
 11
49527.472056
 21
8931.826226
 31
0.0
  0
LINE
  8
80
  6
CONTINUOUS
 62
     4
  5
27F
 10
49442.272055
 20
8903.026226
 30
0.0
 11
49527.472056
 21
8903.026226
 31
0.0
  0
ARC
  8
80
  6
CONTINUOUS
 62
     4
  5
280
 10
49142.27205
 20
8885.026225
 30
0.0
 40
18.0
 50
90.0
 51
180.0
  0
ARC
  8
80
  6
CONTINUOUS
 62
     4
  5
281
 10
49142.27205
 20
8949.826226
 30
0.0
 40
18.0
 50
180.0
 51
270.0
  0
ARC
  8
80
  6
CONTINUOUS
 62
     4
  5
282
 10
49527.472056
 20
8949.826226
 30
0.0
 40
18.0
 50
270.0
 51
0.0
  0
ARC
  8
80
  6
CONTINUOUS
 62
     4
  5
283
 10
49527.472056
 20
8885.026225
 30
0.0
 40
18.0
 50
0.0
 51
90.0
  0
ARC
  8
80
  6
CONTINUOUS
 62
     4
  5
284
 10
49529.272056
 20
8798.026224
 30
0.0
 40
45.000001
 50
270.0
 51
0.0
  0
ARC
  8
80
  6
CONTINUOUS
 62
     4
  5
285
 10
49140.47205
 20
8798.026224
 30
0.0
 40
45.000001
 50
180.0
 51
270.0
  0
ARC
  8
80
  6
CONTINUOUS
 62
     4
  5
286
 10
49527.472056
 20
8799.826224
 30
0.0
 40
18.0
 50
270.0
 51
0.0
  0
ARC
  8
80
  6
CONTINUOUS
 62
     4
  5
287
 10
49142.27205
 20
8799.826224
 30
0.0
 40
18.0
 50
180.0
 51
270.0
  0
LINE
  8
80
  6
CONTINUOUS
 62
     4
  5
288
 10
49527.472056
 20
8781.826224
 30
0.0
 11
49442.272055
 21
8781.826224
 31
0.0
  0
LINE
  8
80
  6
CONTINUOUS
 62
     4
  5
289
 10
49142.27205
 20
8781.826224
 30
0.0
 11
49227.472052
 21
8781.826224
 31
0.0
  0
ARC
  8
80
  6
CONTINUOUS
 62
     4
  5
28A
 10
49292.272053
 20
8799.826224
 30
0.0
 40
18.0
 50
180.0
 51
270.0
  0
ARC
  8
80
  6
CONTINUOUS
 62
     4
  5
28B
 10
49377.472054
 20
8799.826224
 30
0.0
 40
18.0
 50
270.0
 51
0.0
  0
LINE
  8
80
  6
CONTINUOUS
 62
     4
  5
28C
 10
49292.272053
 20
8781.826224
 30
0.0
 11
49377.472054
 21
8781.826224
 31
0.0
  0
ARC
  8
80
  6
CONTINUOUS
 62
     4
  5
28D
 10
49442.272055
 20
8799.826224
 30
0.0
 40
18.0
 50
180.0
 51
270.0
  0
ARC
  8
80
  6
CONTINUOUS
 62
     4
  5
28E
 10
49227.472052
 20
8799.826224
 30
0.0
 40
18.0
 50
270.0
 51
0.0
  0
LINE
  8
80
  6
CONTINUOUS
 62
     4
  5
28F
 10
49529.272056
 20
8753.026223
 30
0.0
 11
49140.47205
 21
8753.026223
 31
0.0
  0
LINE
  8
80
  6
CONTINUOUS
 62
     4
  5
290
 10
49274.272052
 20
9249.826231
 30
0.0
 11
49274.272052
 21
9335.026232
 31
0.0
  0
LINE
  8
80
  6
CONTINUOUS
 62
     4
  5
291
 10
49395.472054
 20
9249.826231
 30
0.0
 11
49395.472054
 21
9335.026232
 31
0.0
  0
LINE
  8
80
  6
CONTINUOUS
 62
     4
  5
292
 10
49424.272055
 20
9249.826231
 30
0.0
 11
49424.272055
 21
9335.026232
 31
0.0
  0
LINE
  8
80
  6
CONTINUOUS
 62
     4
  5
293
 10
49245.472052
 20
9249.826231
 30
0.0
 11
49245.472052
 21
9335.026232
 31
0.0
  0
LINE
  8
80
  6
CONTINUOUS
 62
     4
  5
294
 10
49574.272057
 20
8798.026224
 30
0.0
 11
49574.272057
 21
9336.826232
 31
0.0
  0
LINE
  8
80
  6
CONTINUOUS
 62
     4
  5
295
 10
49545.472056
 20
9249.826231
 30
0.0
 11
49545.472056
 21
9335.026232
 31
0.0
  0
LINE
  8
80
  6
CONTINUOUS
 62
     4
  5
296
 10
49095.47205
 20
8798.026224
 30
0.0
 11
49095.47205
 21
9336.826232
 31
0.0
  0
LINE
  8
80
  6
CONTINUOUS
 62
     4
  5
297
 10
49124.27205
 20
9249.826231
 30
0.0
 11
49124.27205
 21
9335.026232
 31
0.0
  0
LINE
  8
80
  6
CONTINUOUS
 62
     4
  5
298
 10
49274.272052
 20
9099.826229
 30
0.0
 11
49274.272052
 21
9185.02623
 31
0.0
  0
LINE
  8
80
  6
CONTINUOUS
 62
     4
  5
299
 10
49395.472054
 20
9099.826229
 30
0.0
 11
49395.472054
 21
9185.02623
 31
0.0
  0
LINE
  8
80
  6
CONTINUOUS
 62
     4
  5
29A
 10
49424.272055
 20
9099.826229
 30
0.0
 11
49424.272055
 21
9185.02623
 31
0.0
  0
LINE
  8
80
  6
CONTINUOUS
 62
     4
  5
29B
 10
49245.472052
 20
9099.826229
 30
0.0
 11
49245.472052
 21
9185.02623
 31
0.0
  0
LINE
  8
80
  6
CONTINUOUS
 62
     4
  5
29C
 10
49442.272055
 20
9081.826228
 30
0.0
 11
49527.872056
 21
9081.826228
 31
0.0
  0
LINE
  8
80
  6
CONTINUOUS
 62
     4
  5
29D
 10
49227.472052
 20
9081.826228
 30
0.0
 11
49141.87205
 21
9081.826228
 31
0.0
  0
LINE
  8
80
  6
CONTINUOUS
 62
     4
  5
29E
 10
49377.472054
 20
9081.826228
 30
0.0
 11
49291.972053
 21
9081.826228
 31
0.0
  0
ARC
  8
80
  6
CONTINUOUS
 62
     4
  5
29F
 10
49292.272053
 20
9099.826229
 30
0.0
 40
18.0
 50
180.0
 51
270.0
  0
ARC
  8
80
  6
CONTINUOUS
 62
     4
  5
2A0
 10
49377.472054
 20
9099.826229
 30
0.0
 40
18.0
 50
270.0
 51
0.0
  0
ARC
  8
80
  6
CONTINUOUS
 62
     4
  5
2A1
 10
49442.272055
 20
9099.826229
 30
0.0
 40
18.0
 50
180.0
 51
270.0
  0
ARC
  8
80
  6
CONTINUOUS
 62
     4
  5
2A2
 10
49227.472052
 20
9099.826229
 30
0.0
 40
18.0
 50
270.0
 51
0.0
  0
LINE
  8
80
  6
CONTINUOUS
 62
     4
  5
2A3
 10
49442.272055
 20
9231.826231
 30
0.0
 11
49527.472056
 21
9231.826231
 31
0.0
  0
LINE
  8
80
  6
CONTINUOUS
 62
     4
  5
2A4
 10
49442.272055
 20
9203.02623
 30
0.0
 11
49527.472056
 21
9203.02623
 31
0.0
  0
LINE
  8
80
  6
CONTINUOUS
 62
     4
  5
2A5
 10
49545.472056
 20
9099.826229
 30
0.0
 11
49545.472056
 21
9185.02623
 31
0.0
  0
ARC
  8
80
  6
CONTINUOUS
 62
     4
  5
2A6
 10
49527.472056
 20
9099.826229
 30
0.0
 40
18.0
 50
270.0
 51
0.0
  0
LINE
  8
80
  6
CONTINUOUS
 62
     4
  5
2A7
 10
49124.27205
 20
9099.826229
 30
0.0
 11
49124.27205
 21
9185.02623
 31
0.0
  0
ARC
  8
80
  6
CONTINUOUS
 62
     4
  5
2A8
 10
49142.27205
 20
9099.826229
 30
0.0
 40
18.0
 50
180.0
 51
270.0
  0
LINE
  8
80
  6
CONTINUOUS
 62
     4
  5
2A9
 10
49442.272055
 20
9053.026228
 30
0.0
 11
49527.472056
 21
9053.026228
 31
0.0
  0
LINE
  8
80
  6
CONTINUOUS
 62
     4
  5
2AA
 10
49227.472052
 20
9053.026228
 30
0.0
 11
49142.27205
 21
9053.026228
 31
0.0
  0
LINE
  8
80
  6
CONTINUOUS
 62
     4
  5
2AB
 10
49377.472054
 20
9053.026228
 30
0.0
 11
49292.272053
 21
9053.026228
 31
0.0
  0
ARC
  8
80
  6
CONTINUOUS
 62
     4
  5
2AC
 10
49292.272053
 20
9035.026228
 30
0.0
 40
18.0
 50
90.0
 51
180.0
  0
ARC
  8
80
  6
CONTINUOUS
 62
     4
  5
2AD
 10
49377.472054
 20
9035.026228
 30
0.0
 40
18.0
 50
0.0
 51
90.0
  0
ARC
  8
80
  6
CONTINUOUS
 62
     4
  5
2AE
 10
49442.272055
 20
9035.026228
 30
0.0
 40
18.0
 50
90.0
 51
180.0
  0
ARC
  8
80
  6
CONTINUOUS
 62
     4
  5
2AF
 10
49227.472052
 20
9035.026228
 30
0.0
 40
18.0
 50
0.0
 51
90.0
  0
ARC
  8
80
  6
CONTINUOUS
 62
     4
  5
2B0
 10
49527.472056
 20
9035.026228
 30
0.0
 40
18.0
 50
0.0
 51
90.0
  0
ARC
  8
80
  6
CONTINUOUS
 62
     4
  5
2B1
 10
49142.27205
 20
9035.026228
 30
0.0
 40
18.0
 50
90.0
 51
180.0
  0
LINE
  8
80
  6
CONTINUOUS
 62
     4
  5
2B2
 10
49274.272052
 20
8949.826226
 30
0.0
 11
49274.272052
 21
9035.026228
 31
0.0
  0
LINE
  8
80
  6
CONTINUOUS
 62
     4
  5
2B3
 10
49395.472054
 20
8949.826226
 30
0.0
 11
49395.472054
 21
9035.026228
 31
0.0
  0
LINE
  8
80
  6
CONTINUOUS
 62
     4
  5
2B4
 10
49424.272055
 20
8949.826226
 30
0.0
 11
49424.272055
 21
9035.026228
 31
0.0
  0
LINE
  8
80
  6
CONTINUOUS
 62
     4
  5
2B5
 10
49245.472052
 20
8949.826226
 30
0.0
 11
49245.472052
 21
9035.026228
 31
0.0
  0
LINE
  8
80
  6
CONTINUOUS
 62
     4
  5
2B6
 10
49124.27205
 20
8949.826226
 30
0.0
 11
49124.27205
 21
9035.026228
 31
0.0
  0
LINE
  8
80
  6
CONTINUOUS
 62
     4
  5
2B7
 10
49537.472056
 20
8957.626227
 30
0.0
 11
49540.972056
 21
8951.526226
 31
0.0
  0
LINE
  8
80
  6
CONTINUOUS
 62
     4
  5
2B8
 10
49540.172056
 20
8951.126226
 30
0.0
 11
49537.072056
 21
8956.526227
 31
0.0
  0
LINE
  8
80
  6
CONTINUOUS
 62
     4
  5
2B9
 10
49545.472056
 20
8949.826226
 30
0.0
 11
49545.472056
 21
9035.026228
 31
0.0
  0
LINE
  8
80
  6
CONTINUOUS
 62
     4
  5
2BA
 10
49274.272052
 20
8799.826224
 30
0.0
 11
49274.272052
 21
8885.026225
 31
0.0
  0
LINE
  8
80
  6
CONTINUOUS
 62
     4
  5
2BB
 10
49395.472054
 20
8799.826224
 30
0.0
 11
49395.472054
 21
8885.026225
 31
0.0
  0
LINE
  8
80
  6
CONTINUOUS
 62
     4
  5
2BC
 10
49424.272055
 20
8799.826224
 30
0.0
 11
49424.272055
 21
8885.026225
 31
0.0
  0
LINE
  8
80
  6
CONTINUOUS
 62
     4
  5
2BD
 10
49245.472052
 20
8799.826224
 30
0.0
 11
49245.472052
 21
8885.026225
 31
0.0
  0
LINE
  8
80
  6
CONTINUOUS
 62
     4
  5
2BE
 10
49124.27205
 20
8799.826224
 30
0.0
 11
49124.27205
 21
8885.026225
 31
0.0
  0
ARC
  8
80
  6
CONTINUOUS
 62
     4
  5
2BF
 10
49135.37205
 20
8887.126225
 30
0.0
 40
7.7
 50
30.0
 51
210.0
  0
ARC
  8
80
  6
CONTINUOUS
 62
     4
  5
2C0
 10
49135.37205
 20
8887.126225
 30
0.0
 40
6.8
 50
30.0
 51
210.0
  0
LINE
  8
80
  6
CONTINUOUS
 62
     4
  5
2C1
 10
49132.27205
 20
8877.226225
 30
0.0
 11
49128.77205
 21
8883.326225
 31
0.0
  0
LINE
  8
80
  6
CONTINUOUS
 62
     4
  5
2C2
 10
49129.57205
 20
8883.726225
 30
0.0
 11
49132.67205
 21
8878.326225
 31
0.0
  0
ARC
  8
80
  6
CONTINUOUS
 62
     4
  5
2C3
 10
49117.87205
 20
8917.426226
 30
0.0
 40
41.800001
 50
290.98
 51
309.37
  0
LINE
  8
80
  6
CONTINUOUS
 62
     4
  5
2C4
 10
49141.27205
 20
8890.526226
 30
0.0
 11
49144.37205
 21
8885.126225
 31
0.0
  0
LINE
  8
80
  6
CONTINUOUS
 62
     4
  5
2C5
 10
49145.57205
 20
8884.926225
 30
0.0
 11
49142.07205
 21
8890.926226
 31
0.0
  0
CIRCLE
  8
80
  6
CONTINUOUS
 62
     4
  5
2C6
 10
49135.37205
 20
8887.126225
 30
0.0
 40
4.4
  0
CIRCLE
  8
80
  6
CONTINUOUS
 62
     4
  5
2C7
 10
49135.37205
 20
8887.126225
 30
0.0
 40
4.0
  0
LINE
  8
80
  6
CONTINUOUS
 62
     4
  5
2C8
 10
49545.472056
 20
8799.826224
 30
0.0
 11
49545.472056
 21
8885.026225
 31
0.0
  0
LINE
  8
5
  6
CONTINUOUS
 62
     3
  5
2C9
 10
49689.87205
 20
8767.426233
 30
0.0
 11
49589.87205
 21
8767.426233
 31
0.0
  0
LINE
  8
5
  6
CONTINUOUS
 62
     3
  5
2CA
 10
49689.87205
 20
8302.426226
 30
0.0
 11
49689.87205
 21
8767.426233
 31
0.0
  0
LINE
  8
5
  6
CONTINUOUS
 62
     3
  5
2CB
 10
49789.87205
 20
9367.426233
 30
0.0
 11
49589.87205
 21
9367.426233
 31
0.0
  0
LINE
  8
5
  6
CONTINUOUS
 62
     3
  5
2CC
 10
49789.87205
 20
9367.426233
 30
0.0
 11
49789.87205
 21
8302.426226
 31
0.0
  0
LINE
  8
22
  6
CONTINUOUS
 62
     5
  5
2CD
 10
48439.87205
 20
10802.426226
 30
0.0
 11
48439.87205
 21
8302.426226
 31
0.0
  0
LINE
  8
22
  6
CONTINUOUS
 62
     5
  5
2CE
 10
50038.37205
 20
10802.426226
 30
0.0
 11
50038.37205
 21
8302.426226
 31
0.0
  0
LINE
  8
22
  6
CONTINUOUS
 62
     5
  5
2CF
 10
48439.87205
 20
10802.426226
 30
0.0
 11
50038.37205
 21
10802.426226
 31
0.0
  0
LINE
  8
22
  6
CONTINUOUS
 62
     5
  5
2D0
 10
48439.87205
 20
8302.426226
 30
0.0
 11
50038.37205
 21
8302.426226
 31
0.0
  0
LINE
  8
3
  6
CONTINUOUS
 62
     6
  5
2D1
 10
48665.980484
 20
8661.873085
 30
0.0
 11
49215.580492
 21
8661.873085
 31
0.0
  0
LINE
  8
3
  6
CONTINUOUS
 62
     6
  5
2D2
 10
48593.980483
 20
8332.27308
 30
0.0
 11
48673.980484
 21
8332.27308
 31
0.0
  0
LINE
  8
3
  6
CONTINUOUS
 62
     6
  5
2D3
 10
48462.780481
 20
9035.473091
 30
0.0
 11
48652.780484
 21
9035.473091
 31
0.0
  0
LINE
  8
3
  6
CONTINUOUS
 62
     6
  5
2D4
 10
48665.980484
 20
8713.873086
 30
0.0
 11
48665.980484
 21
8661.873085
 31
0.0
  0
LINE
  8
3
  6
CONTINUOUS
 62
     6
  5
2D5
 10
49221.580492
 20
8681.073086
 30
0.0
 11
48775.580486
 21
8681.073086
 31
0.0
  0
LINE
  8
3
  6
CONTINUOUS
 62
     6
  5
2D6
 10
48665.980484
 20
8667.073085
 30
0.0
 11
48466.780481
 21
8667.073085
 31
0.0
  0
LINE
  8
3
  6
CONTINUOUS
 62
     6
  5
2D7
 10
48775.580486
 20
8713.873086
 30
0.0
 11
48775.580486
 21
8661.873085
 31
0.0
  0
LINE
  8
3
  6
CONTINUOUS
 62
     6
  5
2D8
 10
48665.980484
 20
8713.873086
 30
0.0
 11
48843.580487
 21
8713.873086
 31
0.0
  0
LINE
  8
3
  6
CONTINUOUS
 62
     6
  5
2D9
 10
49013.180489
 20
8327.07308
 30
0.0
 11
49012.380489
 21
8351.873081
 31
0.0
  0
LINE
  8
3
  6
CONTINUOUS
 62
     6
  5
2DA
 10
49012.380489
 20
8351.873081
 30
0.0
 11
49011.180489
 21
8377.073081
 31
0.0
  0
LINE
  8
3
  6
CONTINUOUS
 62
     6
  5
2DB
 10
49011.180489
 20
8377.073081
 30
0.0
 11
49009.980489
 21
8401.873081
 31
0.0
  0
LINE
  8
3
  6
CONTINUOUS
 62
     6
  5
2DC
 10
49009.980489
 20
8401.873081
 30
0.0
 11
49008.780489
 21
8427.073082
 31
0.0
  0
LINE
  8
3
  6
CONTINUOUS
 62
     6
  5
2DD
 10
49008.780489
 20
8427.073082
 30
0.0
 11
49007.180489
 21
8450.673082
 31
0.0
  0
ARC
  8
3
  6
CONTINUOUS
 62
     6
  5
2DE
 10
49153.980491
 20
8659.473085
 30
0.0
 40
60.000001
 50
328.92
 51
2.38
  0
ARC
  8
3
  6
CONTINUOUS
 62
     6
  5
2DF
 10
49129.980491
 20
8329.47308
 30
0.0
 40
200.000003
 50
111.76
 51
116.77
  0
ARC
  8
3
  6
CONTINUOUS
 62
     6
  5
2E0
 10
49067.18049
 20
8454.673082
 30
0.0
 40
60.000001
 50
116.77
 51
183.9
  0
ARC
  8
3
  6
CONTINUOUS
 62
     6
  5
2E1
 10
49057.98049
 20
8276.67308
 30
0.0
 40
600.000009
 50
166.92
 51
177.54
  0
LINE
  8
3
  6
CONTINUOUS
 62
     6
  5
2E2
 10
48491.180481
 20
8666.673085
 30
0.0
 11
48500.380481
 21
8643.873085
 31
0.0
  0
LINE
  8
3
  6
CONTINUOUS
 62
     6
  5
2E3
 10
48500.380481
 20
8643.873085
 30
0.0
 11
48509.980482
 21
8621.073085
 31
0.0
  0
LINE
  8
3
  6
CONTINUOUS
 62
     6
  5
2E4
 10
48509.980482
 20
8621.073085
 30
0.0
 11
48520.780482
 21
8598.273084
 31
0.0
  0
LINE
  8
3
  6
CONTINUOUS
 62
     6
  5
2E5
 10
48520.780482
 20
8598.273084
 30
0.0
 11
48532.380482
 21
8575.873084
 31
0.0
  0
LINE
  8
3
  6
CONTINUOUS
 62
     6
  5
2E6
 10
48532.380482
 20
8575.873084
 30
0.0
 11
48544.380482
 21
8554.273084
 31
0.0
  0
LINE
  8
3
  6
CONTINUOUS
 62
     6
  5
2E7
 10
48544.380482
 20
8554.273084
 30
0.0
 11
48552.780482
 21
8539.873084
 31
0.0
  0
ARC
  8
3
  6
CONTINUOUS
 62
     6
  5
2E8
 10
48625.980483
 20
8362.273081
 30
0.0
 40
160.000002
 50
121.42
 51
161.83
  0
ARC
  8
3
  6
CONTINUOUS
 62
     6
  5
2E9
 10
48526.780482
 20
8524.673083
 30
0.0
 40
30.0
 50
301.42
 51
30.85
  0
ARC
  8
3
  6
CONTINUOUS
 62
     6
  5
2EA
 10
49185.580492
 20
8641.073085
 30
0.0
 40
400.000006
 50
187.06
 51
203.44
  0
ARC
  8
3
  6
CONTINUOUS
 62
     6
  5
2EB
 10
49093.58049
 20
8347.873081
 30
0.0
 40
500.000007
 50
170.38
 51
181.79
  0
ARC
  8
3
  6
CONTINUOUS
 62
     6
  5
2EC
 10
48797.580486
 20
8397.873081
 30
0.0
 40
200.000003
 50
155.63
 51
170.38
  0
ARC
  8
3
  6
CONTINUOUS
 62
     6
  5
2ED
 10
48174.380477
 20
8347.873081
 30
0.0
 40
500.000007
 50
358.2
 51
9.61
  0
ARC
  8
3
  6
CONTINUOUS
 62
     6
  5
2EE
 10
48633.980483
 20
8472.273083
 30
0.0
 40
20.0
 50
24.36
 51
155.63
  0
ARC
  8
3
  6
CONTINUOUS
 62
     6
  5
2EF
 10
48469.980481
 20
8397.873081
 30
0.0
 40
200.000003
 50
9.61
 51
24.36
  0
LINE
  8
3
  6
CONTINUOUS
 62
     6
  5
2F0
 10
49133.180491
 20
8705.473086
 30
0.0
 11
49108.380491
 21
8707.473086
 31
0.0
  0
LINE
  8
3
  6
CONTINUOUS
 62
     6
  5
2F1
 10
49108.380491
 20
8707.473086
 30
0.0
 11
49083.58049
 21
8709.073086
 31
0.0
  0
LINE
  8
3
  6
CONTINUOUS
 62
     6
  5
2F2
 10
49083.58049
 20
8709.073086
 30
0.0
 11
49058.38049
 21
8710.273086
 31
0.0
  0
LINE
  8
3
  6
CONTINUOUS
 62
     6
  5
2F3
 10
49058.38049
 20
8710.273086
 30
0.0
 11
49033.580489
 21
8711.073086
 31
0.0
  0
LINE
  8
3
  6
CONTINUOUS
 62
     6
  5
2F4
 10
49033.580489
 20
8711.073086
 30
0.0
 11
49020.380489
 21
8711.473086
 31
0.0
  0
ARC
  8
3
  6
CONTINUOUS
 62
     6
  5
2F5
 10
49092.38049
 20
8207.873079
 30
0.0
 40
500.000007
 50
79.15
 51
85.3
  0
ARC
  8
3
  6
CONTINUOUS
 62
     6
  5
2F6
 10
49163.980491
 20
8580.673084
 30
0.0
 40
120.000002
 50
70.98
 51
79.15
  0
ARC
  8
3
  6
CONTINUOUS
 62
     6
  5
2F7
 10
49189.980492
 20
8655.873085
 30
0.0
 40
40.000001
 50
38.26
 51
70.98
  0
LINE
  8
3
  6
CONTINUOUS
 62
     6
  5
2F8
 10
48678.780484
 20
8713.473086
 30
0.0
 11
48678.780484
 21
8738.673086
 31
0.0
  0
LINE
  8
3
  6
CONTINUOUS
 62
     6
  5
2F9
 10
48678.780484
 20
8738.673086
 30
0.0
 11
48678.380484
 21
8763.473087
 31
0.0
  0
LINE
  8
3
  6
CONTINUOUS
 62
     6
  5
2FA
 10
48678.380484
 20
8763.473087
 30
0.0
 11
48677.580484
 21
8788.673087
 31
0.0
  0
LINE
  8
3
  6
CONTINUOUS
 62
     6
  5
2FB
 10
48677.580484
 20
8788.673087
 30
0.0
 11
48676.380484
 21
8813.473088
 31
0.0
  0
LINE
  8
3
  6
CONTINUOUS
 62
     6
  5
2FC
 10
48676.380484
 20
8813.473088
 30
0.0
 11
48674.780484
 21
8838.673088
 31
0.0
  0
LINE
  8
3
  6
CONTINUOUS
 62
     6
  5
2FD
 10
48674.780484
 20
8838.673088
 30
0.0
 11
48673.180484
 21
8863.473088
 31
0.0
  0
LINE
  8
3
  6
CONTINUOUS
 62
     6
  5
2FE
 10
48673.180484
 20
8863.473088
 30
0.0
 11
48671.180484
 21
8888.673089
 31
0.0
  0
LINE
  8
3
  6
CONTINUOUS
 62
     6
  5
2FF
 10
48671.180484
 20
8888.673089
 30
0.0
 11
48668.780484
 21
8913.473089
 31
0.0
  0
LINE
  8
3
  6
CONTINUOUS
 62
     6
  5
300
 10
48668.780484
 20
8913.473089
 30
0.0
 11
48660.380484
 21
8987.87309
 31
0.0
  0
LINE
  8
3
  6
CONTINUOUS
 62
     6
  5
301
 10
48659.980484
 20
8987.87309
 30
0.0
 11
48655.980484
 21
9012.673091
 31
0.0
  0
LINE
  8
3
  6
CONTINUOUS
 62
     6
  5
302
 10
48647.980484
 20
9061.873091
 30
0.0
 11
48655.980484
 21
9012.673091
 31
0.0
  0
LINE
  8
3
  6
CONTINUOUS
 62
     6
  5
303
 10
48647.980484
 20
9061.873091
 30
0.0
 11
48647.980484
 21
9062.273091
 31
0.0
  0
ARC
  8
3
  6
CONTINUOUS
 62
     6
  5
304
 10
49179.180492
 20
8645.073085
 30
0.0
 40
40.000001
 50
25.05
 51
63.96
  0
LINE
  8
3
  6
CONTINUOUS
 62
     6
  5
305
 10
49020.380489
 20
8711.473086
 30
0.0
 11
48995.180489
 21
8712.273086
 31
0.0
  0
LINE
  8
3
  6
CONTINUOUS
 62
     6
  5
306
 10
48995.180489
 20
8712.273086
 30
0.0
 11
48970.380488
 21
8712.673086
 31
0.0
  0
LINE
  8
3
  6
CONTINUOUS
 62
     6
  5
307
 10
48970.380488
 20
8712.673086
 30
0.0
 11
48945.180488
 21
8713.073086
 31
0.0
  0
LINE
  8
3
  6
CONTINUOUS
 62
     6
  5
308
 10
48945.180488
 20
8713.073086
 30
0.0
 11
48920.380488
 21
8713.473086
 31
0.0
  0
LINE
  8
3
  6
CONTINUOUS
 62
     6
  5
309
 10
48920.380488
 20
8713.473086
 30
0.0
 11
48895.180487
 21
8713.473086
 31
0.0
  0
LINE
  8
3
  6
CONTINUOUS
 62
     6
  5
30A
 10
48895.180487
 20
8713.473086
 30
0.0
 11
48870.380487
 21
8713.473086
 31
0.0
  0
LINE
  8
3
  6
CONTINUOUS
 62
     6
  5
30B
 10
48870.380487
 20
8713.473086
 30
0.0
 11
48845.180487
 21
8713.473086
 31
0.0
  0
LINE
  8
3
  6
CONTINUOUS
 62
     6
  5
30C
 10
48845.180487
 20
8713.473086
 30
0.0
 11
48843.580487
 21
8713.873086
 31
0.0
  0
ARC
  8
3
  6
CONTINUOUS
 62
     6
  5
30D
 10
48907.980488
 20
8886.273089
 30
0.0
 40
400.000006
 50
291.76
 51
309.23
  0
ARC
  8
3
  6
CONTINUOUS
 62
     6
  5
30E
 10
49034.380489
 20
8731.473086
 30
0.0
 40
200.000003
 50
309.23
 51
328.92
  0
LINE
  8
3
  6
CONTINUOUS
 62
     6
  5
30F
 10
48465.980481
 20
9086.273092
 30
0.0
 11
48464.380481
 21
9061.473091
 31
0.0
  0
LINE
  8
3
  6
CONTINUOUS
 62
     6
  5
310
 10
48464.380481
 20
9061.473091
 30
0.0
 11
48462.780481
 21
9036.273091
 31
0.0
  0
LINE
  8
3
  6
CONTINUOUS
 62
     6
  5
311
 10
48462.780481
 20
9036.273091
 30
0.0
 11
48461.980481
 21
9011.473091
 31
0.0
  0
LINE
  8
3
  6
CONTINUOUS
 62
     6
  5
312
 10
48461.980481
 20
9011.473091
 30
0.0
 11
48460.780481
 21
8986.27309
 31
0.0
  0
LINE
  8
3
  6
CONTINUOUS
 62
     6
  5
313
 10
48460.780481
 20
8986.27309
 30
0.0
 11
48459.980481
 21
8961.47309
 31
0.0
  0
LINE
  8
3
  6
CONTINUOUS
 62
     6
  5
314
 10
48459.980481
 20
8961.47309
 30
0.0
 11
48459.580481
 21
8936.273089
 31
0.0
  0
LINE
  8
3
  6
CONTINUOUS
 62
     6
  5
315
 10
48459.580481
 20
8936.273089
 30
0.0
 11
48459.180481
 21
8911.473089
 31
0.0
  0
LINE
  8
3
  6
CONTINUOUS
 62
     6
  5
316
 10
48459.180481
 20
8911.473089
 30
0.0
 11
48459.180481
 21
8886.273089
 31
0.0
  0
LINE
  8
3
  6
CONTINUOUS
 62
     6
  5
317
 10
48459.180481
 20
8886.273089
 30
0.0
 11
48459.180481
 21
8861.473088
 31
0.0
  0
LINE
  8
3
  6
CONTINUOUS
 62
     6
  5
318
 10
48459.180481
 20
8861.473088
 30
0.0
 11
48459.580481
 21
8836.273088
 31
0.0
  0
LINE
  8
3
  6
CONTINUOUS
 62
     6
  5
319
 10
48459.580481
 20
8836.273088
 30
0.0
 11
48459.980481
 21
8811.473088
 31
0.0
  0
LINE
  8
3
  6
CONTINUOUS
 62
     6
  5
31A
 10
48459.980481
 20
8811.473088
 30
0.0
 11
48460.780481
 21
8786.273087
 31
0.0
  0
LINE
  8
3
  6
CONTINUOUS
 62
     6
  5
31B
 10
48460.780481
 20
8786.273087
 30
0.0
 11
48461.580481
 21
8761.473087
 31
0.0
  0
LINE
  8
3
  6
CONTINUOUS
 62
     6
  5
31C
 10
48461.580481
 20
8761.473087
 30
0.0
 11
48462.780481
 21
8736.273086
 31
0.0
  0
LINE
  8
3
  6
CONTINUOUS
 62
     6
  5
31D
 10
48462.780481
 20
8736.273086
 30
0.0
 11
48463.980481
 21
8711.473086
 31
0.0
  0
LINE
  8
3
  6
CONTINUOUS
 62
     6
  5
31E
 10
48463.980481
 20
8711.473086
 30
0.0
 11
48465.580481
 21
8686.673086
 31
0.0
  0
LINE
  8
3
  6
CONTINUOUS
 62
     6
  5
31F
 10
48465.580481
 20
8686.673086
 30
0.0
 11
48466.780481
 21
8667.073085
 31
0.0
  0
ARC
  8
3
  6
CONTINUOUS
 62
     6
  5
320
 10
48438.780481
 20
8918.273089
 30
0.0
 40
170.000003
 50
63.28
 51
80.72
  0
ARC
  8
3
  6
CONTINUOUS
 62
     6
  5
321
 10
48553.580482
 20
8612.273085
 30
0.0
 40
460.000007
 50
78.14
 51
94.79
  0
LINE
  8
7
  6
CONTINUOUS
 62
     3
  5
322
 10
49569.655313
 20
13080.498212
 30
0.0
 11
49569.655313
 21
13050.448002
 31
0.0
  0
LINE
  8
40
  6
CONTINUOUS
 62
     4
  5
323
 10
49571.116213
 20
13080.448252
 30
0.0
 11
49540.293673
 21
13080.448252
 31
0.0
  0
LINE
  8
40
  6
CONTINUOUS
 62
     4
  5
324
 10
49534.050233
 20
13082.448222
 30
0.0
 11
49577.331233
 21
13082.448222
 31
0.0
  0
LINE
  8
40
  6
CONTINUOUS
 62
     4
  5
325
 10
49510.655393
 20
13100.448232
 30
0.0
 11
49510.655393
 21
13089.961322
 31
0.0
  0
LINE
  8
40
  6
CONTINUOUS
 62
     4
  5
326
 10
49600.655373
 20
13100.448232
 30
0.0
 11
49600.655373
 21
13089.932692
 31
0.0
  0
LINE
  8
40
  6
CONTINUOUS
 62
     4
  5
327
 10
49599.909313
 20
13088.448272
 30
0.0
 11
49511.444853
 21
13088.448272
 31
0.0
  0
ARC
  8
40
  6
CONTINUOUS
 62
     4
  5
328
 10
49512.655293
 20
13090.064012
 30
0.0
 40
2.00004
 50
180.0
 51
255.529705
  0
ARC
  8
40
  6
CONTINUOUS
 62
     4
  5
329
 10
49598.653653
 20
13090.020962
 30
0.0
 40
2.00004
 50
284.069648
 51
360.0
  0
LINE
  8
1
  6
CONTINUOUS
 62
     4
  5
32A
 10
49523.344433
 20
13107.634292
 30
0.0
 11
49527.344513
 21
13108.329322
 31
0.0
  0
LINE
  8
1
  6
CONTINUOUS
 62
     4
  5
32B
 10
49523.344433
 20
13110.670612
 30
0.0
 11
49527.344513
 21
13111.379852
 31
0.0
  0
LINE
  8
1
  6
CONTINUOUS
 62
     4
  5
32C
 10
49523.344433
 20
13113.723732
 30
0.0
 11
49527.344513
 21
13114.432972
 31
0.0
  0
LINE
  8
1
  6
CONTINUOUS
 62
     4
  5
32D
 10
49523.344433
 20
13116.776852
 30
0.0
 11
49527.344513
 21
13117.486022
 31
0.0
  0
LINE
  8
1
  6
CONTINUOUS
 62
     4
  5
32E
 10
49523.344433
 20
13119.827312
 30
0.0
 11
49527.344513
 21
13120.522272
 31
0.0
  0
LINE
  8
1
  6
CONTINUOUS
 62
     4
  5
32F
 10
49523.344433
 20
13122.863422
 30
0.0
 11
49527.344513
 21
13123.572662
 31
0.0
  0
LINE
  8
1
  6
CONTINUOUS
 62
     4
  5
330
 10
49526.949293
 20
13106.739132
 30
0.0
 11
49523.739653
 21
13106.171502
 31
0.0
  0
LINE
  8
1
  6
CONTINUOUS
 62
     4
  5
331
 10
49526.949293
 20
13109.772582
 30
0.0
 11
49523.739653
 21
13109.205022
 31
0.0
  0
LINE
  8
1
  6
CONTINUOUS
 62
     4
  5
332
 10
49526.949293
 20
13112.825702
 30
0.0
 11
49523.739653
 21
13112.258142
 31
0.0
  0
LINE
  8
1
  6
CONTINUOUS
 62
     4
  5
333
 10
49526.949293
 20
13115.878822
 30
0.0
 11
49523.739653
 21
13115.311332
 31
0.0
  0
LINE
  8
1
  6
CONTINUOUS
 62
     4
  5
334
 10
49526.949293
 20
13118.932012
 30
0.0
 11
49523.739653
 21
13118.364452
 31
0.0
  0
LINE
  8
1
  6
CONTINUOUS
 62
     4
  5
335
 10
49526.949293
 20
13121.965532
 30
0.0
 11
49523.739653
 21
13121.397972
 31
0.0
  0
LINE
  8
1
  6
CONTINUOUS
 62
     4
  5
336
 10
49526.949293
 20
13125.018652
 30
0.0
 11
49523.739653
 21
13124.451022
 31
0.0
  0
LINE
  8
1
  6
CONTINUOUS
 62
     4
  5
337
 10
49523.344433
 20
13104.582922
 30
0.0
 11
49527.344513
 21
13105.287122
 31
0.0
  0
LINE
  8
1
  6
CONTINUOUS
 62
     4
  5
338
 10
49525.344473
 20
13094.448252
 30
0.0
 11
49521.094493
 21
13094.448252
 31
0.0
  0
LINE
  8
1
  6
CONTINUOUS
 62
     4
  5
339
 10
49523.344433
 20
13098.536392
 30
0.0
 11
49527.344513
 21
13099.245632
 31
0.0
  0
LINE
  8
1
  6
CONTINUOUS
 62
     4
  5
33A
 10
49523.344433
 20
13101.550242
 30
0.0
 11
49527.344513
 21
13102.259482
 31
0.0
  0
LINE
  8
1
  6
CONTINUOUS
 62
     4
  5
33B
 10
49526.949293
 20
13097.657962
 30
0.0
 11
49523.739653
 21
13097.090402
 31
0.0
  0
LINE
  8
1
  6
CONTINUOUS
 62
     4
  5
33C
 10
49526.949293
 20
13100.671882
 30
0.0
 11
49523.739653
 21
13100.104322
 31
0.0
  0
LINE
  8
1
  6
CONTINUOUS
 62
     4
  5
33D
 10
49526.949293
 20
13103.705472
 30
0.0
 11
49523.739653
 21
13103.137912
 31
0.0
  0
LINE
  8
1
  6
CONTINUOUS
 62
     4
  5
33E
 10
49522.741453
 20
13094.448252
 30
0.0
 11
49523.944473
 21
13095.651202
 31
0.0
  0
LINE
  8
1
  6
CONTINUOUS
 62
     4
  5
33F
 10
49522.741453
 20
13094.448252
 30
0.0
 11
49521.094493
 21
13094.448252
 31
0.0
  0
LINE
  8
1
  6
CONTINUOUS
 62
     4
  5
340
 10
49527.947493
 20
13094.448252
 30
0.0
 11
49526.744473
 21
13095.651202
 31
0.0
  0
LINE
  8
1
  6
CONTINUOUS
 62
     4
  5
341
 10
49527.947493
 20
13094.448252
 30
0.0
 11
49529.594453
 21
13094.448252
 31
0.0
  0
LINE
  8
1
  6
CONTINUOUS
 62
     4
  5
342
 10
49526.949293
 20
13096.131402
 30
0.0
 11
49523.739653
 21
13095.563912
 31
0.0
  0
LINE
  8
1
  6
CONTINUOUS
 62
     4
  5
343
 10
49524.737713
 20
13090.957212
 30
0.0
 11
49525.951233
 21
13090.957212
 31
0.0
  0
LINE
  8
1
  6
CONTINUOUS
 62
     4
  5
344
 10
49524.737713
 20
13090.448242
 30
0.0
 11
49524.737713
 21
13090.957212
 31
0.0
  0
LINE
  8
1
  6
CONTINUOUS
 62
     4
  5
345
 10
49525.951233
 20
13090.448242
 30
0.0
 11
49525.951233
 21
13090.957212
 31
0.0
  0
LINE
  8
1
  6
CONTINUOUS
 62
     4
  5
346
 10
49524.737713
 20
13090.448242
 30
0.0
 11
49525.951233
 21
13090.448242
 31
0.0
  0
LINE
  8
1
  6
CONTINUOUS
 62
     4
  5
347
 10
49523.344433
 20
13125.916542
 30
0.0
 11
49527.344513
 21
13126.625782
 31
0.0
  0
LINE
  8
1
  6
CONTINUOUS
 62
     4
  5
348
 10
49526.735793
 20
13129.570962
 30
0.0
 11
49523.850813
 21
13129.059402
 31
0.0
  0
LINE
  8
1
  6
CONTINUOUS
 62
     4
  5
349
 10
49526.949293
 20
13128.071702
 30
0.0
 11
49523.739653
 21
13127.504142
 31
0.0
  0
LINE
  8
1
  6
CONTINUOUS
 62
     4
  5
34A
 10
49526.442913
 20
13131.035222
 30
0.0
 11
49524.165533
 21
13130.632582
 31
0.0
  0
LINE
  8
1
  6
CONTINUOUS
 62
     4
  5
34B
 10
49583.966253
 20
13107.634292
 30
0.0
 11
49587.966193
 21
13108.329322
 31
0.0
  0
LINE
  8
1
  6
CONTINUOUS
 62
     4
  5
34C
 10
49583.966253
 20
13110.670612
 30
0.0
 11
49587.966193
 21
13111.379852
 31
0.0
  0
LINE
  8
1
  6
CONTINUOUS
 62
     4
  5
34D
 10
49583.966253
 20
13113.723732
 30
0.0
 11
49587.966193
 21
13114.432972
 31
0.0
  0
LINE
  8
1
  6
CONTINUOUS
 62
     4
  5
34E
 10
49583.966253
 20
13116.776852
 30
0.0
 11
49587.966193
 21
13117.486022
 31
0.0
  0
LINE
  8
1
  6
CONTINUOUS
 62
     4
  5
34F
 10
49583.966253
 20
13119.827312
 30
0.0
 11
49587.966193
 21
13120.522272
 31
0.0
  0
LINE
  8
1
  6
CONTINUOUS
 62
     4
  5
350
 10
49583.966253
 20
13122.863422
 30
0.0
 11
49587.966193
 21
13123.572662
 31
0.0
  0
LINE
  8
1
  6
CONTINUOUS
 62
     4
  5
351
 10
49587.571113
 20
13106.739132
 30
0.0
 11
49584.361333
 21
13106.171502
 31
0.0
  0
LINE
  8
1
  6
CONTINUOUS
 62
     4
  5
352
 10
49587.571113
 20
13109.772582
 30
0.0
 11
49584.361333
 21
13109.205022
 31
0.0
  0
LINE
  8
1
  6
CONTINUOUS
 62
     4
  5
353
 10
49587.571113
 20
13112.825702
 30
0.0
 11
49584.361333
 21
13112.258142
 31
0.0
  0
LINE
  8
1
  6
CONTINUOUS
 62
     4
  5
354
 10
49587.571113
 20
13115.878822
 30
0.0
 11
49584.361333
 21
13115.311332
 31
0.0
  0
LINE
  8
1
  6
CONTINUOUS
 62
     4
  5
355
 10
49587.571113
 20
13118.932012
 30
0.0
 11
49584.361333
 21
13118.364452
 31
0.0
  0
LINE
  8
1
  6
CONTINUOUS
 62
     4
  5
356
 10
49587.571113
 20
13121.965532
 30
0.0
 11
49584.361333
 21
13121.397972
 31
0.0
  0
LINE
  8
1
  6
CONTINUOUS
 62
     4
  5
357
 10
49587.571113
 20
13125.018652
 30
0.0
 11
49584.361333
 21
13124.451022
 31
0.0
  0
LINE
  8
1
  6
CONTINUOUS
 62
     4
  5
358
 10
49583.966253
 20
13104.582922
 30
0.0
 11
49587.966193
 21
13105.287122
 31
0.0
  0
LINE
  8
1
  6
CONTINUOUS
 62
     4
  5
359
 10
49585.966293
 20
13094.448252
 30
0.0
 11
49581.716173
 21
13094.448252
 31
0.0
  0
LINE
  8
1
  6
CONTINUOUS
 62
     4
  5
35A
 10
49583.966253
 20
13098.536392
 30
0.0
 11
49587.966193
 21
13099.245632
 31
0.0
  0
LINE
  8
1
  6
CONTINUOUS
 62
     4
  5
35B
 10
49583.966253
 20
13101.550242
 30
0.0
 11
49587.966193
 21
13102.259482
 31
0.0
  0
LINE
  8
1
  6
CONTINUOUS
 62
     4
  5
35C
 10
49587.571113
 20
13097.657962
 30
0.0
 11
49584.361333
 21
13097.090402
 31
0.0
  0
LINE
  8
1
  6
CONTINUOUS
 62
     4
  5
35D
 10
49587.571113
 20
13100.671882
 30
0.0
 11
49584.361333
 21
13100.104322
 31
0.0
  0
LINE
  8
1
  6
CONTINUOUS
 62
     4
  5
35E
 10
49587.571113
 20
13103.705472
 30
0.0
 11
49584.361333
 21
13103.137912
 31
0.0
  0
LINE
  8
1
  6
CONTINUOUS
 62
     4
  5
35F
 10
49583.363273
 20
13094.448252
 30
0.0
 11
49584.566293
 21
13095.651202
 31
0.0
  0
LINE
  8
1
  6
CONTINUOUS
 62
     4
  5
360
 10
49583.363273
 20
13094.448252
 30
0.0
 11
49581.716173
 21
13094.448252
 31
0.0
  0
LINE
  8
1
  6
CONTINUOUS
 62
     4
  5
361
 10
49588.569173
 20
13094.448252
 30
0.0
 11
49587.366293
 21
13095.651202
 31
0.0
  0
LINE
  8
1
  6
CONTINUOUS
 62
     4
  5
362
 10
49588.569173
 20
13094.448252
 30
0.0
 11
49590.216273
 21
13094.448252
 31
0.0
  0
LINE
  8
1
  6
CONTINUOUS
 62
     4
  5
363
 10
49587.571113
 20
13096.131402
 30
0.0
 11
49584.361333
 21
13095.563912
 31
0.0
  0
LINE
  8
1
  6
CONTINUOUS
 62
     4
  5
364
 10
49585.359533
 20
13090.957212
 30
0.0
 11
49586.572913
 21
13090.957212
 31
0.0
  0
LINE
  8
1
  6
CONTINUOUS
 62
     4
  5
365
 10
49585.359533
 20
13090.448242
 30
0.0
 11
49585.359533
 21
13090.957212
 31
0.0
  0
LINE
  8
1
  6
CONTINUOUS
 62
     4
  5
366
 10
49586.572913
 20
13090.448242
 30
0.0
 11
49586.572913
 21
13090.957212
 31
0.0
  0
LINE
  8
1
  6
CONTINUOUS
 62
     4
  5
367
 10
49585.359533
 20
13090.448242
 30
0.0
 11
49586.572913
 21
13090.448242
 31
0.0
  0
LINE
  8
1
  6
CONTINUOUS
 62
     4
  5
368
 10
49583.966253
 20
13125.916542
 30
0.0
 11
49587.966193
 21
13126.625782
 31
0.0
  0
LINE
  8
1
  6
CONTINUOUS
 62
     4
  5
369
 10
49587.357473
 20
13129.570962
 30
0.0
 11
49584.472633
 21
13129.059402
 31
0.0
  0
LINE
  8
1
  6
CONTINUOUS
 62
     4
  5
36A
 10
49587.571113
 20
13128.071702
 30
0.0
 11
49584.361333
 21
13127.504142
 31
0.0
  0
LINE
  8
1
  6
CONTINUOUS
 62
     4
  5
36B
 10
49587.064733
 20
13131.035222
 30
0.0
 11
49584.787213
 21
13130.632582
 31
0.0
  0
LINE
  8
40
  6
CONTINUOUS
 62
     4
  5
36C
 10
49600.630313
 20
13100.448232
 30
0.0
 11
49600.630313
 21
13089.932692
 31
0.0
  0
LINE
  8
40
  6
CONTINUOUS
 62
     4
  5
36D
 10
49598.130333
 20
13087.815752
 30
0.0
 11
49598.130333
 21
13095.448272
 31
0.0
  0
LINE
  8
40
  6
CONTINUOUS
 62
     4
  5
36E
 10
49537.925293
 20
13081.448272
 30
0.0
 11
49573.456313
 21
13081.448272
 31
0.0
  0
LINE
  8
40
  6
CONTINUOUS
 62
     4
  5
36F
 10
49541.655313
 20
13080.448252
 30
0.0
 11
49569.655313
 21
13080.448252
 31
0.0
  0
LINE
  8
40
  6
CONTINUOUS
 62
     4
  5
370
 10
49570.239673
 20
13079.448232
 30
0.0
 11
49541.139273
 21
13079.448232
 31
0.0
  0
LINE
  8
40
  6
CONTINUOUS
 62
     4
  5
371
 10
49569.801333
 20
13078.448142
 30
0.0
 11
49541.536173
 21
13078.448142
 31
0.0
  0
LINE
  8
12
  6
CONTINUOUS
 62
     4
  5
372
 10
49579.042313
 20
13095.448272
 30
0.0
 11
49600.655373
 21
13095.448272
 31
0.0
  0
LINE
  8
12
  6
CONTINUOUS
 62
     4
  5
373
 10
49513.155373
 20
13087.840532
 30
0.0
 11
49513.155373
 21
13095.448272
 31
0.0
  0
LINE
  8
12
  6
CONTINUOUS
 62
     4
  5
374
 10
49534.004733
 20
13082.460052
 30
0.0
 11
49534.004733
 21
13082.430512
 31
0.0
  0
LINE
  8
12
  6
CONTINUOUS
 62
     4
  5
375
 10
49532.286793
 20
13082.903292
 30
0.0
 11
49532.286793
 21
13095.448272
 31
0.0
  0
LINE
  8
12
  6
CONTINUOUS
 62
     4
  5
376
 10
49533.998573
 20
13082.555532
 30
0.0
 11
49532.373873
 21
13095.553552
 31
0.0
  0
LINE
  8
12
  6
CONTINUOUS
 62
     4
  5
377
 10
49577.324513
 20
13082.354632
 30
0.0
 11
49577.324513
 21
13082.325162
 31
0.0
  0
LINE
  8
12
  6
CONTINUOUS
 62
     4
  5
378
 10
49579.042313
 20
13082.797942
 30
0.0
 11
49579.042313
 21
13095.342992
 31
0.0
  0
LINE
  8
12
  6
CONTINUOUS
 62
     4
  5
379
 10
49577.330673
 20
13082.450252
 30
0.0
 11
49578.955373
 21
13095.448272
 31
0.0
  0
LINE
  8
12
  6
CONTINUOUS
 62
     4
  5
37A
 10
49532.387033
 20
13095.448272
 30
0.0
 11
49513.155373
 21
13095.448272
 31
0.0
  0
LINE
  8
12
  6
CONTINUOUS
 62
     4
  5
37B
 10
49532.387033
 20
13094.448252
 30
0.0
 11
49513.155373
 21
13094.448252
 31
0.0
  0
LINE
  8
12
  6
CONTINUOUS
 62
     4
  5
37C
 10
49579.042313
 20
13094.448252
 30
0.0
 11
49600.655373
 21
13094.448252
 31
0.0
  0
LINE
  8
12
  6
CONTINUOUS
 62
     4
  5
37D
 10
49529.594453
 20
13094.448252
 30
0.0
 11
49521.094493
 21
13094.448252
 31
0.0
  0
LINE
  8
12
  6
CONTINUOUS
 62
     4
  5
37E
 10
49521.094493
 20
13094.448252
 30
0.0
 11
49521.094493
 21
13091.448262
 31
0.0
  0
LINE
  8
12
  6
CONTINUOUS
 62
     4
  5
37F
 10
49529.594453
 20
13094.448252
 30
0.0
 11
49529.594453
 21
13091.448262
 31
0.0
  0
LINE
  8
12
  6
CONTINUOUS
 62
     4
  5
380
 10
49529.594453
 20
13091.448262
 30
0.0
 11
49529.594453
 21
13094.448252
 31
0.0
  0
LINE
  8
12
  6
CONTINUOUS
 62
     4
  5
381
 10
49521.094493
 20
13091.448262
 30
0.0
 11
49521.094493
 21
13094.448252
 31
0.0
  0
LINE
  8
12
  6
CONTINUOUS
 62
     4
  5
382
 10
49521.094493
 20
13091.448262
 30
0.0
 11
49529.594453
 21
13091.448262
 31
0.0
  0
ARC
  8
12
  6
CONTINUOUS
 62
     4
  5
383
 10
49525.344473
 20
13099.979512
 30
0.0
 40
9.53134
 50
243.51896
 51
296.48104
  0
LINE
  8
12
  6
CONTINUOUS
 62
     4
  5
384
 10
49526.744473
 20
13094.448252
 30
0.0
 11
49526.744473
 21
13125.448242
 31
0.0
  0
LINE
  8
12
  6
CONTINUOUS
 62
     4
  5
385
 10
49523.944473
 20
13094.448252
 30
0.0
 11
49523.944473
 21
13125.448242
 31
0.0
  0
LINE
  8
12
  6
CONTINUOUS
 62
     4
  5
386
 10
49526.744473
 20
13125.448242
 30
0.0
 11
49523.944473
 21
13125.448242
 31
0.0
  0
LINE
  8
12
  6
CONTINUOUS
 62
     4
  5
387
 10
49525.344473
 20
13132.448242
 30
0.0
 11
49523.944473
 21
13125.448242
 31
0.0
  0
LINE
  8
12
  6
CONTINUOUS
 62
     4
  5
388
 10
49525.344473
 20
13132.448242
 30
0.0
 11
49526.744473
 21
13125.448242
 31
0.0
  0
LINE
  8
12
  6
CENTER
 62
     4
  5
389
 10
49525.344473
 20
13091.448262
 30
0.0
 11
49525.344473
 21
13132.448242
 31
0.0
  0
LINE
  8
12
  6
CENTER
 62
     4
  5
38A
 10
49525.344473
 20
13132.448242
 30
0.0
 11
49525.344473
 21
13092.941222
 31
0.0
  0
LINE
  8
12
  6
CONTINUOUS
 62
     4
  5
38B
 10
49590.216273
 20
13094.448252
 30
0.0
 11
49581.716173
 21
13094.448252
 31
0.0
  0
LINE
  8
12
  6
CONTINUOUS
 62
     4
  5
38C
 10
49581.716173
 20
13094.448252
 30
0.0
 11
49581.716173
 21
13091.448262
 31
0.0
  0
LINE
  8
12
  6
CONTINUOUS
 62
     4
  5
38D
 10
49590.216273
 20
13094.448252
 30
0.0
 11
49590.216273
 21
13091.448262
 31
0.0
  0
LINE
  8
12
  6
CONTINUOUS
 62
     4
  5
38E
 10
49590.216273
 20
13091.448262
 30
0.0
 11
49590.216273
 21
13094.448252
 31
0.0
  0
LINE
  8
12
  6
CONTINUOUS
 62
     4
  5
38F
 10
49581.716173
 20
13091.448262
 30
0.0
 11
49581.716173
 21
13094.448252
 31
0.0
  0
LINE
  8
12
  6
CONTINUOUS
 62
     4
  5
390
 10
49581.716173
 20
13091.448262
 30
0.0
 11
49590.216273
 21
13091.448262
 31
0.0
  0
ARC
  8
12
  6
CONTINUOUS
 62
     4
  5
391
 10
49585.966293
 20
13099.979512
 30
0.0
 40
9.53134
 50
243.51896
 51
296.48104
  0
LINE
  8
12
  6
CONTINUOUS
 62
     4
  5
392
 10
49587.366293
 20
13094.448252
 30
0.0
 11
49587.366293
 21
13125.448242
 31
0.0
  0
LINE
  8
12
  6
CONTINUOUS
 62
     4
  5
393
 10
49584.566293
 20
13094.448252
 30
0.0
 11
49584.566293
 21
13125.448242
 31
0.0
  0
LINE
  8
12
  6
CONTINUOUS
 62
     4
  5
394
 10
49587.366293
 20
13125.448242
 30
0.0
 11
49584.566293
 21
13125.448242
 31
0.0
  0
LINE
  8
12
  6
CONTINUOUS
 62
     4
  5
395
 10
49585.966293
 20
13132.448242
 30
0.0
 11
49584.566293
 21
13125.448242
 31
0.0
  0
LINE
  8
12
  6
CONTINUOUS
 62
     4
  5
396
 10
49585.966293
 20
13132.448242
 30
0.0
 11
49587.366293
 21
13125.448242
 31
0.0
  0
LINE
  8
12
  6
CENTER
 62
     4
  5
397
 10
49585.966293
 20
13091.448262
 30
0.0
 11
49585.966293
 21
13132.448242
 31
0.0
  0
LINE
  8
12
  6
CENTER
 62
     4
  5
398
 10
49585.966293
 20
13132.448242
 30
0.0
 11
49585.966293
 21
13092.941222
 31
0.0
  0
LINE
  8
12
  6
CONTINUOUS
 62
     4
  5
399
 10
49531.052973
 20
13094.695492
 30
0.0
 11
49519.552953
 21
13094.695492
 31
0.0
  0
LINE
  8
12
  6
CONTINUOUS
 62
     4
  5
39A
 10
49531.052973
 20
13095.495382
 30
0.0
 11
49519.552953
 21
13095.495382
 31
0.0
  0
LINE
  8
12
  6
CONTINUOUS
 62
     4
  5
39B
 10
49531.052973
 20
13094.695492
 30
0.0
 11
49531.052973
 21
13095.495382
 31
0.0
  0
LINE
  8
12
  6
CONTINUOUS
 62
     4
  5
39C
 10
49528.053053
 20
13094.695492
 30
0.0
 11
49528.053053
 21
13095.495382
 31
0.0
  0
LINE
  8
12
  6
CONTINUOUS
 62
     4
  5
39D
 10
49522.553013
 20
13094.695492
 30
0.0
 11
49522.553013
 21
13095.495382
 31
0.0
  0
LINE
  8
12
  6
CONTINUOUS
 62
     4
  5
39E
 10
49519.552953
 20
13094.695492
 30
0.0
 11
49519.552953
 21
13095.495382
 31
0.0
  0
LINE
  8
12
  6
CONTINUOUS
 62
     4
  5
39F
 10
49591.671153
 20
13094.695492
 30
0.0
 11
49580.171133
 21
13094.695492
 31
0.0
  0
LINE
  8
12
  6
CONTINUOUS
 62
     4
  5
3A0
 10
49591.671153
 20
13095.495382
 30
0.0
 11
49580.171133
 21
13095.495382
 31
0.0
  0
LINE
  8
12
  6
CONTINUOUS
 62
     4
  5
3A1
 10
49591.671153
 20
13094.695492
 30
0.0
 11
49591.671153
 21
13095.495382
 31
0.0
  0
LINE
  8
12
  6
CONTINUOUS
 62
     4
  5
3A2
 10
49588.671093
 20
13094.695492
 30
0.0
 11
49588.671093
 21
13095.495382
 31
0.0
  0
LINE
  8
12
  6
CONTINUOUS
 62
     4
  5
3A3
 10
49583.171053
 20
13094.695492
 30
0.0
 11
49583.171053
 21
13095.495382
 31
0.0
  0
LINE
  8
12
  6
CONTINUOUS
 62
     4
  5
3A4
 10
49580.171133
 20
13094.695492
 30
0.0
 11
49580.171133
 21
13095.495382
 31
0.0
  0
LINE
  8
8
  6
CONTINUOUS
 62
     4
  5
3A5
 10
49572.655793
 20
13081.241632
 30
0.0
 11
49599.151353
 21
13088.079162
 31
0.0
  0
LINE
  8
8
  6
CONTINUOUS
 62
     4
  5
3A6
 10
49538.843553
 20
13081.211182
 30
0.0
 11
49512.112513
 21
13088.109542
 31
0.0
  0
ARC
  8
8
  6
CONTINUOUS
 62
     4
  5
3A7
 10
49537.687573
 20
13077.412282
 30
0.0
 40
4.00008
 50
360.0
 51
75.529706
  0
LINE
  8
50
  6
CENTER
 62
     4
  5
3A8
 10
49525.303033
 20
13094.695492
 30
0.0
 11
49525.303033
 21
13096.817472
 31
0.0
  0
LINE
  8
50
  6
CENTER
 62
     4
  5
3A9
 10
49585.921073
 20
13094.695492
 30
0.0
 11
49585.921073
 21
13096.817472
 31
0.0
  0
ARC
  8
8
  6
CONTINUOUS
 62
     4
  5
3AA
 10
49573.649793
 20
13077.361392
 30
0.0
 40
4.00008
 50
104.470294
 51
180.0
  0
LINE
  8
40
  6
CONTINUOUS
 62
     4
  5
3AB
 10
49109.427886
 20
13080.448252
 30
0.0
 11
49140.250426
 21
13080.448252
 31
0.0
  0
LINE
  8
40
  6
CONTINUOUS
 62
     4
  5
3AC
 10
49146.493866
 20
13082.448222
 30
0.0
 11
49103.212866
 21
13082.448222
 31
0.0
  0
LINE
  8
40
  6
CONTINUOUS
 62
     4
  5
3AD
 10
49169.888706
 20
13100.448232
 30
0.0
 11
49169.888706
 21
13089.961322
 31
0.0
  0
LINE
  8
40
  6
CONTINUOUS
 62
     4
  5
3AE
 10
49079.888726
 20
13100.448232
 30
0.0
 11
49079.888726
 21
13089.932692
 31
0.0
  0
LINE
  8
40
  6
CONTINUOUS
 62
     4
  5
3AF
 10
49080.634786
 20
13088.448272
 30
0.0
 11
49169.099246
 21
13088.448272
 31
0.0
  0
ARC
  8
40
  6
CONTINUOUS
 62
     4
  5
3B0
 10
49167.888806
 20
13090.064012
 30
0.0
 40
2.00004
 50
284.470295
 51
360.0
  0
ARC
  8
40
  6
CONTINUOUS
 62
     4
  5
3B1
 10
49081.890446
 20
13090.020962
 30
0.0
 40
2.00004
 50
180.0
 51
255.930352
  0
LINE
  8
1
  6
CONTINUOUS
 62
     4
  5
3B2
 10
49157.199666
 20
13107.634292
 30
0.0
 11
49153.199586
 21
13108.329322
 31
0.0
  0
LINE
  8
1
  6
CONTINUOUS
 62
     4
  5
3B3
 10
49157.199666
 20
13110.670612
 30
0.0
 11
49153.199586
 21
13111.379852
 31
0.0
  0
LINE
  8
1
  6
CONTINUOUS
 62
     4
  5
3B4
 10
49157.199666
 20
13113.723732
 30
0.0
 11
49153.199586
 21
13114.432972
 31
0.0
  0
LINE
  8
1
  6
CONTINUOUS
 62
     4
  5
3B5
 10
49157.199666
 20
13116.776852
 30
0.0
 11
49153.199586
 21
13117.486022
 31
0.0
  0
LINE
  8
1
  6
CONTINUOUS
 62
     4
  5
3B6
 10
49157.199666
 20
13119.827312
 30
0.0
 11
49153.199586
 21
13120.522272
 31
0.0
  0
LINE
  8
1
  6
CONTINUOUS
 62
     4
  5
3B7
 10
49157.199666
 20
13122.863422
 30
0.0
 11
49153.199586
 21
13123.572662
 31
0.0
  0
LINE
  8
1
  6
CONTINUOUS
 62
     4
  5
3B8
 10
49153.594806
 20
13106.739132
 30
0.0
 11
49156.804446
 21
13106.171502
 31
0.0
  0
LINE
  8
1
  6
CONTINUOUS
 62
     4
  5
3B9
 10
49153.594806
 20
13109.772582
 30
0.0
 11
49156.804446
 21
13109.205022
 31
0.0
  0
LINE
  8
1
  6
CONTINUOUS
 62
     4
  5
3BA
 10
49153.594806
 20
13112.825702
 30
0.0
 11
49156.804446
 21
13112.258142
 31
0.0
  0
LINE
  8
1
  6
CONTINUOUS
 62
     4
  5
3BB
 10
49153.594806
 20
13115.878822
 30
0.0
 11
49156.804446
 21
13115.311332
 31
0.0
  0
LINE
  8
1
  6
CONTINUOUS
 62
     4
  5
3BC
 10
49153.594806
 20
13118.932012
 30
0.0
 11
49156.804446
 21
13118.364452
 31
0.0
  0
LINE
  8
1
  6
CONTINUOUS
 62
     4
  5
3BD
 10
49153.594806
 20
13121.965532
 30
0.0
 11
49156.804446
 21
13121.397972
 31
0.0
  0
LINE
  8
1
  6
CONTINUOUS
 62
     4
  5
3BE
 10
49153.594806
 20
13125.018652
 30
0.0
 11
49156.804446
 21
13124.451022
 31
0.0
  0
LINE
  8
1
  6
CONTINUOUS
 62
     4
  5
3BF
 10
49157.199666
 20
13104.582922
 30
0.0
 11
49153.199586
 21
13105.287122
 31
0.0
  0
LINE
  8
1
  6
CONTINUOUS
 62
     4
  5
3C0
 10
49155.199626
 20
13094.448252
 30
0.0
 11
49159.449606
 21
13094.448252
 31
0.0
  0
LINE
  8
1
  6
CONTINUOUS
 62
     4
  5
3C1
 10
49157.199666
 20
13098.536392
 30
0.0
 11
49153.199586
 21
13099.245632
 31
0.0
  0
LINE
  8
1
  6
CONTINUOUS
 62
     4
  5
3C2
 10
49157.199666
 20
13101.550242
 30
0.0
 11
49153.199586
 21
13102.259482
 31
0.0
  0
LINE
  8
1
  6
CONTINUOUS
 62
     4
  5
3C3
 10
49153.594806
 20
13097.657962
 30
0.0
 11
49156.804446
 21
13097.090402
 31
0.0
  0
LINE
  8
1
  6
CONTINUOUS
 62
     4
  5
3C4
 10
49153.594806
 20
13100.671882
 30
0.0
 11
49156.804446
 21
13100.104322
 31
0.0
  0
LINE
  8
1
  6
CONTINUOUS
 62
     4
  5
3C5
 10
49153.594806
 20
13103.705472
 30
0.0
 11
49156.804446
 21
13103.137912
 31
0.0
  0
LINE
  8
1
  6
CONTINUOUS
 62
     4
  5
3C6
 10
49157.802646
 20
13094.448252
 30
0.0
 11
49156.599626
 21
13095.651202
 31
0.0
  0
LINE
  8
1
  6
CONTINUOUS
 62
     4
  5
3C7
 10
49157.802646
 20
13094.448252
 30
0.0
 11
49159.449606
 21
13094.448252
 31
0.0
  0
LINE
  8
1
  6
CONTINUOUS
 62
     4
  5
3C8
 10
49152.596606
 20
13094.448252
 30
0.0
 11
49153.799626
 21
13095.651202
 31
0.0
  0
LINE
  8
1
  6
CONTINUOUS
 62
     4
  5
3C9
 10
49152.596606
 20
13094.448252
 30
0.0
 11
49150.949646
 21
13094.448252
 31
0.0
  0
LINE
  8
1
  6
CONTINUOUS
 62
     4
  5
3CA
 10
49153.594806
 20
13096.131402
 30
0.0
 11
49156.804446
 21
13095.563912
 31
0.0
  0
LINE
  8
1
  6
CONTINUOUS
 62
     4
  5
3CB
 10
49155.806386
 20
13090.957212
 30
0.0
 11
49154.592866
 21
13090.957212
 31
0.0
  0
LINE
  8
1
  6
CONTINUOUS
 62
     4
  5
3CC
 10
49155.806386
 20
13090.448242
 30
0.0
 11
49155.806386
 21
13090.957212
 31
0.0
  0
LINE
  8
1
  6
CONTINUOUS
 62
     4
  5
3CD
 10
49154.592866
 20
13090.448242
 30
0.0
 11
49154.592866
 21
13090.957212
 31
0.0
  0
LINE
  8
1
  6
CONTINUOUS
 62
     4
  5
3CE
 10
49155.806386
 20
13090.448242
 30
0.0
 11
49154.592866
 21
13090.448242
 31
0.0
  0
LINE
  8
1
  6
CONTINUOUS
 62
     4
  5
3CF
 10
49157.199666
 20
13125.916542
 30
0.0
 11
49153.199586
 21
13126.625782
 31
0.0
  0
LINE
  8
1
  6
CONTINUOUS
 62
     4
  5
3D0
 10
49153.808306
 20
13129.570962
 30
0.0
 11
49156.693286
 21
13129.059402
 31
0.0
  0
LINE
  8
1
  6
CONTINUOUS
 62
     4
  5
3D1
 10
49153.594806
 20
13128.071702
 30
0.0
 11
49156.804446
 21
13127.504142
 31
0.0
  0
LINE
  8
1
  6
CONTINUOUS
 62
     4
  5
3D2
 10
49154.101186
 20
13131.035222
 30
0.0
 11
49156.378566
 21
13130.632582
 31
0.0
  0
LINE
  8
1
  6
CONTINUOUS
 62
     4
  5
3D3
 10
49096.577846
 20
13107.634292
 30
0.0
 11
49092.577906
 21
13108.329322
 31
0.0
  0
LINE
  8
1
  6
CONTINUOUS
 62
     4
  5
3D4
 10
49096.577846
 20
13110.670612
 30
0.0
 11
49092.577906
 21
13111.379852
 31
0.0
  0
LINE
  8
1
  6
CONTINUOUS
 62
     4
  5
3D5
 10
49096.577846
 20
13113.723732
 30
0.0
 11
49092.577906
 21
13114.432972
 31
0.0
  0
LINE
  8
1
  6
CONTINUOUS
 62
     4
  5
3D6
 10
49096.577846
 20
13116.776852
 30
0.0
 11
49092.577906
 21
13117.486022
 31
0.0
  0
LINE
  8
1
  6
CONTINUOUS
 62
     4
  5
3D7
 10
49096.577846
 20
13119.827312
 30
0.0
 11
49092.577906
 21
13120.522272
 31
0.0
  0
LINE
  8
1
  6
CONTINUOUS
 62
     4
  5
3D8
 10
49096.577846
 20
13122.863422
 30
0.0
 11
49092.577906
 21
13123.572662
 31
0.0
  0
LINE
  8
1
  6
CONTINUOUS
 62
     4
  5
3D9
 10
49092.972986
 20
13106.739132
 30
0.0
 11
49096.182766
 21
13106.171502
 31
0.0
  0
LINE
  8
1
  6
CONTINUOUS
 62
     4
  5
3DA
 10
49092.972986
 20
13109.772582
 30
0.0
 11
49096.182766
 21
13109.205022
 31
0.0
  0
LINE
  8
1
  6
CONTINUOUS
 62
     4
  5
3DB
 10
49092.972986
 20
13112.825702
 30
0.0
 11
49096.182766
 21
13112.258142
 31
0.0
  0
LINE
  8
1
  6
CONTINUOUS
 62
     4
  5
3DC
 10
49092.972986
 20
13115.878822
 30
0.0
 11
49096.182766
 21
13115.311332
 31
0.0
  0
LINE
  8
1
  6
CONTINUOUS
 62
     4
  5
3DD
 10
49092.972986
 20
13118.932012
 30
0.0
 11
49096.182766
 21
13118.364452
 31
0.0
  0
LINE
  8
1
  6
CONTINUOUS
 62
     4
  5
3DE
 10
49092.972986
 20
13121.965532
 30
0.0
 11
49096.182766
 21
13121.397972
 31
0.0
  0
LINE
  8
1
  6
CONTINUOUS
 62
     4
  5
3DF
 10
49092.972986
 20
13125.018652
 30
0.0
 11
49096.182766
 21
13124.451022
 31
0.0
  0
LINE
  8
1
  6
CONTINUOUS
 62
     4
  5
3E0
 10
49096.577846
 20
13104.582922
 30
0.0
 11
49092.577906
 21
13105.287122
 31
0.0
  0
LINE
  8
1
  6
CONTINUOUS
 62
     4
  5
3E1
 10
49094.577806
 20
13094.448252
 30
0.0
 11
49098.827926
 21
13094.448252
 31
0.0
  0
LINE
  8
1
  6
CONTINUOUS
 62
     4
  5
3E2
 10
49096.577846
 20
13098.536392
 30
0.0
 11
49092.577906
 21
13099.245632
 31
0.0
  0
LINE
  8
1
  6
CONTINUOUS
 62
     4
  5
3E3
 10
49096.577846
 20
13101.550242
 30
0.0
 11
49092.577906
 21
13102.259482
 31
0.0
  0
LINE
  8
1
  6
CONTINUOUS
 62
     4
  5
3E4
 10
49092.972986
 20
13097.657962
 30
0.0
 11
49096.182766
 21
13097.090402
 31
0.0
  0
LINE
  8
1
  6
CONTINUOUS
 62
     4
  5
3E5
 10
49092.972986
 20
13100.671882
 30
0.0
 11
49096.182766
 21
13100.104322
 31
0.0
  0
LINE
  8
1
  6
CONTINUOUS
 62
     4
  5
3E6
 10
49092.972986
 20
13103.705472
 30
0.0
 11
49096.182766
 21
13103.137912
 31
0.0
  0
LINE
  8
1
  6
CONTINUOUS
 62
     4
  5
3E7
 10
49097.180826
 20
13094.448252
 30
0.0
 11
49095.977806
 21
13095.651202
 31
0.0
  0
LINE
  8
1
  6
CONTINUOUS
 62
     4
  5
3E8
 10
49097.180826
 20
13094.448252
 30
0.0
 11
49098.827926
 21
13094.448252
 31
0.0
  0
LINE
  8
1
  6
CONTINUOUS
 62
     4
  5
3E9
 10
49091.974926
 20
13094.448252
 30
0.0
 11
49093.177806
 21
13095.651202
 31
0.0
  0
LINE
  8
1
  6
CONTINUOUS
 62
     4
  5
3EA
 10
49091.974926
 20
13094.448252
 30
0.0
 11
49090.327826
 21
13094.448252
 31
0.0
  0
LINE
  8
1
  6
CONTINUOUS
 62
     4
  5
3EB
 10
49092.972986
 20
13096.131402
 30
0.0
 11
49096.182766
 21
13095.563912
 31
0.0
  0
LINE
  8
1
  6
CONTINUOUS
 62
     4
  5
3EC
 10
49095.184566
 20
13090.957212
 30
0.0
 11
49093.971186
 21
13090.957212
 31
0.0
  0
LINE
  8
1
  6
CONTINUOUS
 62
     4
  5
3ED
 10
49095.184566
 20
13090.448242
 30
0.0
 11
49095.184566
 21
13090.957212
 31
0.0
  0
LINE
  8
1
  6
CONTINUOUS
 62
     4
  5
3EE
 10
49093.971186
 20
13090.448242
 30
0.0
 11
49093.971186
 21
13090.957212
 31
0.0
  0
LINE
  8
1
  6
CONTINUOUS
 62
     4
  5
3EF
 10
49095.184566
 20
13090.448242
 30
0.0
 11
49093.971186
 21
13090.448242
 31
0.0
  0
LINE
  8
1
  6
CONTINUOUS
 62
     4
  5
3F0
 10
49096.577846
 20
13125.916542
 30
0.0
 11
49092.577906
 21
13126.625782
 31
0.0
  0
LINE
  8
1
  6
CONTINUOUS
 62
     4
  5
3F1
 10
49093.186626
 20
13129.570962
 30
0.0
 11
49096.071466
 21
13129.059402
 31
0.0
  0
LINE
  8
1
  6
CONTINUOUS
 62
     4
  5
3F2
 10
49092.972986
 20
13128.071702
 30
0.0
 11
49096.182766
 21
13127.504142
 31
0.0
  0
LINE
  8
1
  6
CONTINUOUS
 62
     4
  5
3F3
 10
49093.479366
 20
13131.035222
 30
0.0
 11
49095.756886
 21
13130.632582
 31
0.0
  0
LINE
  8
40
  6
CONTINUOUS
 62
     4
  5
3F4
 10
49079.913786
 20
13100.448232
 30
0.0
 11
49079.913786
 21
13089.932692
 31
0.0
  0
LINE
  8
40
  6
CONTINUOUS
 62
     4
  5
3F5
 10
49082.413766
 20
13087.815752
 30
0.0
 11
49082.413766
 21
13095.448272
 31
0.0
  0
LINE
  8
40
  6
CONTINUOUS
 62
     4
  5
3F6
 10
49142.618806
 20
13081.448272
 30
0.0
 11
49107.087786
 21
13081.448272
 31
0.0
  0
LINE
  8
40
  6
CONTINUOUS
 62
     4
  5
3F7
 10
49138.888786
 20
13080.448252
 30
0.0
 11
49110.888786
 21
13080.448252
 31
0.0
  0
LINE
  8
40
  6
CONTINUOUS
 62
     4
  5
3F8
 10
49110.304426
 20
13079.448232
 30
0.0
 11
49139.404826
 21
13079.448232
 31
0.0
  0
LINE
  8
40
  6
CONTINUOUS
 62
     4
  5
3F9
 10
49110.742766
 20
13078.448142
 30
0.0
 11
49139.007926
 21
13078.448142
 31
0.0
  0
LINE
  8
12
  6
CONTINUOUS
 62
     4
  5
3FA
 10
49101.501786
 20
13095.448272
 30
0.0
 11
49079.888726
 21
13095.448272
 31
0.0
  0
LINE
  8
12
  6
CONTINUOUS
 62
     4
  5
3FB
 10
49167.388726
 20
13087.840532
 30
0.0
 11
49167.388726
 21
13095.448272
 31
0.0
  0
LINE
  8
12
  6
CONTINUOUS
 62
     4
  5
3FC
 10
49146.539366
 20
13082.460052
 30
0.0
 11
49146.539366
 21
13082.430512
 31
0.0
  0
LINE
  8
12
  6
CONTINUOUS
 62
     4
  5
3FD
 10
49148.257306
 20
13082.903292
 30
0.0
 11
49148.257306
 21
13095.448272
 31
0.0
  0
LINE
  8
12
  6
CONTINUOUS
 62
     4
  5
3FE
 10
49146.545526
 20
13082.555532
 30
0.0
 11
49148.170226
 21
13095.553552
 31
0.0
  0
LINE
  8
12
  6
CONTINUOUS
 62
     4
  5
3FF
 10
49103.219586
 20
13082.354632
 30
0.0
 11
49103.219586
 21
13082.325162
 31
0.0
  0
LINE
  8
12
  6
CONTINUOUS
 62
     4
  5
400
 10
49101.501786
 20
13082.797942
 30
0.0
 11
49101.501786
 21
13095.342992
 31
0.0
  0
LINE
  8
12
  6
CONTINUOUS
 62
     4
  5
401
 10
49103.213426
 20
13082.450252
 30
0.0
 11
49101.588726
 21
13095.448272
 31
0.0
  0
LINE
  8
12
  6
CONTINUOUS
 62
     4
  5
402
 10
49148.157066
 20
13095.448272
 30
0.0
 11
49167.388726
 21
13095.448272
 31
0.0
  0
LINE
  8
12
  6
CONTINUOUS
 62
     4
  5
403
 10
49148.157066
 20
13094.448252
 30
0.0
 11
49167.388726
 21
13094.448252
 31
0.0
  0
LINE
  8
12
  6
CONTINUOUS
 62
     4
  5
404
 10
49101.501786
 20
13094.448252
 30
0.0
 11
49079.888726
 21
13094.448252
 31
0.0
  0
LINE
  8
12
  6
CONTINUOUS
 62
     4
  5
405
 10
49150.949646
 20
13094.448252
 30
0.0
 11
49159.449606
 21
13094.448252
 31
0.0
  0
LINE
  8
12
  6
CONTINUOUS
 62
     4
  5
406
 10
49159.449606
 20
13094.448252
 30
0.0
 11
49159.449606
 21
13091.448262
 31
0.0
  0
LINE
  8
12
  6
CONTINUOUS
 62
     4
  5
407
 10
49150.949646
 20
13094.448252
 30
0.0
 11
49150.949646
 21
13091.448262
 31
0.0
  0
LINE
  8
12
  6
CONTINUOUS
 62
     4
  5
408
 10
49150.949646
 20
13091.448262
 30
0.0
 11
49150.949646
 21
13094.448252
 31
0.0
  0
LINE
  8
12
  6
CONTINUOUS
 62
     4
  5
409
 10
49159.449606
 20
13091.448262
 30
0.0
 11
49159.449606
 21
13094.448252
 31
0.0
  0
LINE
  8
12
  6
CONTINUOUS
 62
     4
  5
40A
 10
49159.449606
 20
13091.448262
 30
0.0
 11
49150.949646
 21
13091.448262
 31
0.0
  0
ARC
  8
12
  6
CONTINUOUS
 62
     4
  5
40B
 10
49155.199626
 20
13099.979512
 30
0.0
 40
9.53134
 50
243.51896
 51
296.48104
  0
LINE
  8
12
  6
CONTINUOUS
 62
     4
  5
40C
 10
49153.799626
 20
13094.448252
 30
0.0
 11
49153.799626
 21
13125.448242
 31
0.0
  0
LINE
  8
12
  6
CONTINUOUS
 62
     4
  5
40D
 10
49156.599626
 20
13094.448252
 30
0.0
 11
49156.599626
 21
13125.448242
 31
0.0
  0
LINE
  8
12
  6
CONTINUOUS
 62
     4
  5
40E
 10
49153.799626
 20
13125.448242
 30
0.0
 11
49156.599626
 21
13125.448242
 31
0.0
  0
LINE
  8
12
  6
CONTINUOUS
 62
     4
  5
40F
 10
49155.199626
 20
13132.448242
 30
0.0
 11
49156.599626
 21
13125.448242
 31
0.0
  0
LINE
  8
12
  6
CONTINUOUS
 62
     4
  5
410
 10
49155.199626
 20
13132.448242
 30
0.0
 11
49153.799626
 21
13125.448242
 31
0.0
  0
LINE
  8
12
  6
CENTER
 62
     4
  5
411
 10
49155.199626
 20
13091.448262
 30
0.0
 11
49155.199626
 21
13132.448242
 31
0.0
  0
LINE
  8
12
  6
CENTER
 62
     4
  5
412
 10
49155.199626
 20
13132.448242
 30
0.0
 11
49155.199626
 21
13092.941222
 31
0.0
  0
LINE
  8
12
  6
CONTINUOUS
 62
     4
  5
413
 10
49090.327826
 20
13094.448252
 30
0.0
 11
49098.827926
 21
13094.448252
 31
0.0
  0
LINE
  8
12
  6
CONTINUOUS
 62
     4
  5
414
 10
49098.827926
 20
13094.448252
 30
0.0
 11
49098.827926
 21
13091.448262
 31
0.0
  0
LINE
  8
12
  6
CONTINUOUS
 62
     4
  5
415
 10
49090.327826
 20
13094.448252
 30
0.0
 11
49090.327826
 21
13091.448262
 31
0.0
  0
LINE
  8
12
  6
CONTINUOUS
 62
     4
  5
416
 10
49090.327826
 20
13091.448262
 30
0.0
 11
49090.327826
 21
13094.448252
 31
0.0
  0
LINE
  8
12
  6
CONTINUOUS
 62
     4
  5
417
 10
49098.827926
 20
13091.448262
 30
0.0
 11
49098.827926
 21
13094.448252
 31
0.0
  0
LINE
  8
12
  6
CONTINUOUS
 62
     4
  5
418
 10
49098.827926
 20
13091.448262
 30
0.0
 11
49090.327826
 21
13091.448262
 31
0.0
  0
ARC
  8
12
  6
CONTINUOUS
 62
     4
  5
419
 10
49094.577806
 20
13099.979512
 30
0.0
 40
9.53134
 50
243.51896
 51
296.48104
  0
LINE
  8
12
  6
CONTINUOUS
 62
     4
  5
41A
 10
49093.177806
 20
13094.448252
 30
0.0
 11
49093.177806
 21
13125.448242
 31
0.0
  0
LINE
  8
12
  6
CONTINUOUS
 62
     4
  5
41B
 10
49095.977806
 20
13094.448252
 30
0.0
 11
49095.977806
 21
13125.448242
 31
0.0
  0
LINE
  8
12
  6
CONTINUOUS
 62
     4
  5
41C
 10
49093.177806
 20
13125.448242
 30
0.0
 11
49095.977806
 21
13125.448242
 31
0.0
  0
LINE
  8
12
  6
CONTINUOUS
 62
     4
  5
41D
 10
49094.577806
 20
13132.448242
 30
0.0
 11
49095.977806
 21
13125.448242
 31
0.0
  0
LINE
  8
12
  6
CONTINUOUS
 62
     4
  5
41E
 10
49094.577806
 20
13132.448242
 30
0.0
 11
49093.177806
 21
13125.448242
 31
0.0
  0
LINE
  8
12
  6
CENTER
 62
     4
  5
41F
 10
49094.577806
 20
13091.448262
 30
0.0
 11
49094.577806
 21
13132.448242
 31
0.0
  0
LINE
  8
12
  6
CENTER
 62
     4
  5
420
 10
49094.577806
 20
13132.448242
 30
0.0
 11
49094.577806
 21
13092.941222
 31
0.0
  0
LINE
  8
12
  6
CONTINUOUS
 62
     4
  5
421
 10
49149.491126
 20
13094.695492
 30
0.0
 11
49160.991146
 21
13094.695492
 31
0.0
  0
LINE
  8
12
  6
CONTINUOUS
 62
     4
  5
422
 10
49149.491126
 20
13095.495382
 30
0.0
 11
49160.991146
 21
13095.495382
 31
0.0
  0
LINE
  8
12
  6
CONTINUOUS
 62
     4
  5
423
 10
49149.491126
 20
13094.695492
 30
0.0
 11
49149.491126
 21
13095.495382
 31
0.0
  0
LINE
  8
12
  6
CONTINUOUS
 62
     4
  5
424
 10
49152.491046
 20
13094.695492
 30
0.0
 11
49152.491046
 21
13095.495382
 31
0.0
  0
LINE
  8
12
  6
CONTINUOUS
 62
     4
  5
425
 10
49157.991086
 20
13094.695492
 30
0.0
 11
49157.991086
 21
13095.495382
 31
0.0
  0
LINE
  8
12
  6
CONTINUOUS
 62
     4
  5
426
 10
49160.991146
 20
13094.695492
 30
0.0
 11
49160.991146
 21
13095.495382
 31
0.0
  0
LINE
  8
12
  6
CONTINUOUS
 62
     4
  5
427
 10
49088.872946
 20
13094.695492
 30
0.0
 11
49100.372966
 21
13094.695492
 31
0.0
  0
LINE
  8
12
  6
CONTINUOUS
 62
     4
  5
428
 10
49088.872946
 20
13095.495382
 30
0.0
 11
49100.372966
 21
13095.495382
 31
0.0
  0
LINE
  8
12
  6
CONTINUOUS
 62
     4
  5
429
 10
49088.872946
 20
13094.695492
 30
0.0
 11
49088.872946
 21
13095.495382
 31
0.0
  0
LINE
  8
12
  6
CONTINUOUS
 62
     4
  5
42A
 10
49091.873006
 20
13094.695492
 30
0.0
 11
49091.873006
 21
13095.495382
 31
0.0
  0
LINE
  8
12
  6
CONTINUOUS
 62
     4
  5
42B
 10
49097.373046
 20
13094.695492
 30
0.0
 11
49097.373046
 21
13095.495382
 31
0.0
  0
LINE
  8
12
  6
CONTINUOUS
 62
     4
  5
42C
 10
49100.372966
 20
13094.695492
 30
0.0
 11
49100.372966
 21
13095.495382
 31
0.0
  0
LINE
  8
8
  6
CONTINUOUS
 62
     4
  5
42D
 10
49107.888306
 20
13081.241632
 30
0.0
 11
49081.392746
 21
13088.079162
 31
0.0
  0
LINE
  8
8
  6
CONTINUOUS
 62
     4
  5
42E
 10
49141.700546
 20
13081.211182
 30
0.0
 11
49168.431586
 21
13088.109542
 31
0.0
  0
ARC
  8
8
  6
CONTINUOUS
 62
     4
  5
42F
 10
49142.856526
 20
13077.412282
 30
0.0
 40
4.00008
 50
104.470294
 51
180.0
  0
LINE
  8
50
  6
CENTER
 62
     4
  5
430
 10
49155.241066
 20
13094.695492
 30
0.0
 11
49155.241066
 21
13096.817472
 31
0.0
  0
LINE
  8
50
  6
CENTER
 62
     4
  5
431
 10
49094.623026
 20
13094.695492
 30
0.0
 11
49094.623026
 21
13096.817472
 31
0.0
  0
ARC
  8
8
  6
CONTINUOUS
 62
     4
  5
432
 10
49106.894306
 20
13077.361392
 30
0.0
 40
4.00008
 50
360.0
 51
75.529706
  0
LINE
  8
40
  6
DOT
 62
     3
  5
433
 10
49548.155373
 20
13044.448022
 30
0.0
 11
49563.155393
 21
13044.448022
 31
0.0
  0
LINE
  8
40
  6
DOT
 62
     3
  5
434
 10
49548.155373
 20
13044.448022
 30
0.0
 11
49548.155373
 21
13050.448142
 31
0.0
  0
LINE
  8
40
  6
DOT
 62
     3
  5
435
 10
49563.155393
 20
13044.448022
 30
0.0
 11
49563.155393
 21
13050.448142
 31
0.0
  0
LINE
  8
40
  6
CONTINUOUS
 62
     4
  5
436
 10
49569.655313
 20
13050.448002
 30
0.0
 11
49569.655313
 21
13073.032335
 31
0.0
  0
LINE
  8
40
  6
CONTINUOUS
 62
     4
  5
437
 10
49541.655313
 20
13050.448002
 30
0.0
 11
49541.655313
 21
13073.032335
 31
0.0
  0
LINE
  8
40
  6
CONTINUOUS
 62
     4
  5
438
 10
49569.655313
 20
13050.448142
 30
0.0
 11
49541.655313
 21
13050.448142
 31
0.0
  0
LINE
  8
40
  6
CONTINUOUS
 62
     4
  5
439
 10
49138.888786
 20
13050.448002
 30
0.0
 11
49138.888786
 21
13073.032335
 31
0.0
  0
LINE
  8
7
  6
CONTINUOUS
 62
     4
  5
43A
 10
49110.888786
 20
13080.498212
 30
0.0
 11
49110.888786
 21
13050.448002
 31
0.0
  0
LINE
  8
40
  6
CONTINUOUS
 62
     4
  5
43B
 10
49110.888786
 20
13050.448002
 30
0.0
 11
49110.888786
 21
13073.032335
 31
0.0
  0
LINE
  8
40
  6
CONTINUOUS
 62
     4
  5
43C
 10
49110.888786
 20
13050.448142
 30
0.0
 11
49138.888786
 21
13050.448142
 31
0.0
  0
LINE
  8
7
  6
CONTINUOUS
 62
     4
  5
43D
 10
49579.67205
 20
13035.422898
 30
0.0
 11
49579.67205
 21
13050.448002
 31
0.0
  0
LINE
  8
7
  6
CONTINUOUS
 62
     4
  5
43E
 10
49100.87205
 20
13050.448002
 30
0.0
 11
49579.67205
 21
13050.448002
 31
0.0
  0
ARC
  8
7
  6
CONTINUOUS
 62
     4
  5
43F
 10
49569.655313
 20
13035.422898
 30
0.0
 40
10.016736
 50
270.0
 51
360.0
  0
LINE
  8
40
  6
DOT
 62
     3
  5
440
 10
49132.388726
 20
13044.448022
 30
0.0
 11
49117.388706
 21
13044.448022
 31
0.0
  0
LINE
  8
40
  6
DOT
 62
     3
  5
441
 10
49132.388726
 20
13044.448022
 30
0.0
 11
49132.388726
 21
13050.448142
 31
0.0
  0
LINE
  8
40
  6
DOT
 62
     3
  5
442
 10
49117.388706
 20
13044.448022
 30
0.0
 11
49117.388706
 21
13050.448142
 31
0.0
  0
LINE
  8
7
  6
CONTINUOUS
 62
     4
  5
443
 10
49110.888786
 20
13025.406161
 30
0.0
 11
49569.655313
 21
13025.406161
 31
0.0
  0
ARC
  8
7
  6
CONTINUOUS
 62
     4
  5
444
 10
49110.888786
 20
13035.422898
 30
0.0
 40
10.016736
 50
180.0
 51
270.0
  0
LINE
  8
7
  6
CONTINUOUS
 62
     4
  5
445
 10
49100.87205
 20
13035.422898
 30
0.0
 11
49100.87205
 21
13050.448002
 31
0.0
  0
LINE
  8
5
  6
CONTINUOUS
 62
     3
  5
446
 10
49221.87459
 20
13025.406161
 30
0.0
 11
49135.27205
 21
12875.406161
 31
0.0
  0
LINE
  8
5
  6
CONTINUOUS
 62
     3
  5
447
 10
49008.869509
 20
9217.426228
 30
0.0
 11
49095.47205
 21
9067.426228
 31
0.0
  0
LINE
  8
5
  6
CONTINUOUS
 62
     3
  5
448
 10
49135.27205
 20
12875.406161
 30
0.0
 11
49545.27205
 21
12875.406161
 31
0.0
  0
LINE
  8
5
  6
CONTINUOUS
 62
     3
  5
449
 10
48598.869509
 20
9217.426228
 30
0.0
 11
49008.869509
 21
9217.426228
 31
0.0
  0
TEXT
  8
5
  6
CONTINUOUS
 62
     3
  5
44A
 10
49162.37205
 20
13464.530601
 30
0.0
 40
60.0
  1
1,730
 41
0.6
  7

 72
     5
 11
49342.37205
 21
13464.530601
 31
0.0
  0
TEXT
  8
5
  6
CONTINUOUS
 62
     3
  5
44B
 10
50409.87205
 20
12094.530601
 30
0.0
 40
60.0
  1
2,000
 50
90.0
 41
0.6
  7

 72
     5
 11
50409.87205
 21
12274.530601
 31
0.0
  0
TEXT
  8
5
  6
CONTINUOUS
 62
     3
  5
44C
 10
50309.87205
 20
11602.030601
 30
0.0
 40
60.0
  1
1,015
 50
90.0
 41
0.6
  7

 72
     5
 11
50309.87205
 21
11782.030601
 31
0.0
  0
TEXT
  8
5
  6
CONTINUOUS
 62
     3
  5
44D
 10
50309.87205
 20
12632.030601
 30
0.0
 40
60.0
  1
985
 50
90.0
 41
0.666667
  7

 72
     5
 11
50309.87205
 21
12752.030601
 31
0.0
  0
TEXT
  8
5
  6
CONTINUOUS
 62
     3
  5
44E
 10
48092.37205
 20
13464.530601
 30
0.0
 40
60.0
  1
470
 41
0.666667
  7

 72
     5
 11
48212.37205
 21
13464.530601
 31
0.0
  0
TEXT
  8
5
  6
CONTINUOUS
 62
     3
  5
44F
 10
47992.37205
 20
13364.530601
 30
0.0
 40
60.0
  1
270
 41
0.666667
  7

 72
     5
 11
48112.37205
 21
13364.530601
 31
0.0
  0
TEXT
  8
5
  6
CONTINUOUS
 62
     3
  5
450
 10
48227.37205
 20
13364.530601
 30
0.0
 40
60.0
  1
200
 41
0.666667
  7

 72
     5
 11
48347.37205
 21
13364.530601
 31
0.0
  0
TEXT
  8
5
  6
CONTINUOUS
 62
     3
  5
451
 10
47557.37205
 20
12094.530601
 30
0.0
 40
60.0
  1
2,000
 50
90.0
 41
0.6
  7

 72
     5
 11
47557.37205
 21
12274.530601
 31
0.0
  0
TEXT
  8
5
  6
CONTINUOUS
 62
     3
  5
452
 10
47657.37205
 20
11844.530601
 30
0.0
 40
60.0
  1
1,500
 50
90.0
 41
0.6
  7

 72
     5
 11
47657.37205
 21
12024.530601
 31
0.0
  0
TEXT
  8
5
  6
CONTINUOUS
 62
     3
  5
453
 10
47657.37205
 20
12874.530601
 30
0.0
 40
60.0
  1
500
 50
90.0
 41
0.666667
  7

 72
     5
 11
47657.37205
 21
12994.530601
 31
0.0
  0
TEXT
  8
5
  6
CONTINUOUS
 62
     3
  5
454
 10
48927.37205
 20
13564.530601
 30
0.0
 40
60.0
  1
2,200
 41
0.6
  7

 72
     5
 11
49107.37205
 21
13564.530601
 31
0.0
  0
TEXT
  8
5
  6
CONTINUOUS
 62
     3
  5
455
 10
48209.87205
 20
9462.426226
 30
0.0
 40
60.0
  1
2,500
 50
90.0
 41
0.6
  7

 72
     5
 11
48209.87205
 21
9642.426226
 31
0.0
  0
TEXT
  8
5
  6
CONTINUOUS
 62
     3
  5
456
 10
49274.87205
 20
9497.426233
 30
0.0
 40
60.0
  1
450
 41
0.666667
  7

 72
     5
 11
49394.87205
 21
9497.426233
 31
0.0
  0
TEXT
  8
5
  6
CONTINUOUS
 62
     3
  5
457
 10
48811.872048
 20
9597.426233
 30
0.0
 40
60.0
  1
1,120
 41
0.6
  7

 72
     5
 11
48991.872048
 21
9597.426233
 31
0.0
  0
TEXT
  8
5
  6
CONTINUOUS
 62
     3
  5
458
 10
48735.996511
 20
9497.426233
 30
0.0
 40
60.0
  1
670
 41
0.666667
  7

 72
     5
 11
48855.996511
 21
9497.426233
 31
0.0
  0
TEXT
  8
5
  6
CONTINUOUS
 62
     3
  5
459
 10
49689.87205
 20
9007.426233
 30
0.0
 40
60.0
  1
600
 50
90.0
 41
0.666667
  7

 72
     5
 11
49689.87205
 21
9127.426233
 31
0.0
  0
TEXT
  8
5
  6
CONTINUOUS
 62
     3
  5
45A
 10
49689.87205
 20
8474.626229
 30
0.0
 40
60.0
  1
465
 50
90.0
 41
0.666667
  7

 72
     5
 11
49689.87205
 21
8594.626229
 31
0.0
  0
TEXT
  8
5
  6
CONTINUOUS
 62
     3
  5
45B
 10
49789.87205
 20
8744.626229
 30
0.0
 40
60.0
  1
1,065
 50
90.0
 41
0.6
  7

 72
     5
 11
49789.87205
 21
8924.626229
 31
0.0
  0
TEXT
  8
5
  6
CONTINUOUS
 62
     3
  5
45C
 10
49185.27205
 20
12875.406161
 30
0.0
 40
60.0
  1
テスリックス
 41
0.837
  7

 72
     5
 11
49545.27205
 21
12875.406161
 31
0.0
  0
TEXT
  8
5
  6
CONTINUOUS
 62
     3
  5
45D
 10
48617.673732
 20
9217.426228
 30
0.0
 40
60.0
  1
テスリックス
 41
0.837
  7

 72
     5
 11
48977.673732
 21
9217.426228
 31
0.0
  0
TEXT
  8
5
  6
CONTINUOUS
 62
     3
  5
45E
 10
48797.231222
 20
8088.498579
 30
0.0
 40
90.0
  1
テスリックス
 41
0.837
  7

 72
     5
 11
49337.231222
 21
8088.498579
 31
0.0
  0
TEXT
  8
5
  6
CONTINUOUS
 62
     3
  5
45F
 10
48797.231222
 20
7998.498579
 30
0.0
 40
90.0
  1
取付側展開図
 41
0.837
  7

 72
     5
 11
49337.231222
 21
7998.498579
 31
0.0
  0
TEXT
  8
5
  6
CONTINUOUS
 62
     3
  5
460
 10
48967.948209
 20
10932.188566
 30
0.0
 40
90.0
  1
平面図
 41
0.837
  7

 72
     5
 11
49237.948209
 21
10932.188566
 31
0.0
  0
ENDSEC
  0
EOF
