  0
SECTION
  2
HEADER
  9
$ACADVER
  1
AC1009
  9
$INSBASE
 10
0.0
 20
0.0
 30
0.0
  9
$EXTMIN
 10
47942.185763
 20
8057.46916
 30
0.0
  9
$EXTMAX
 10
50094.685163
 20
13609.361302
 30
0.0
  9
$LIMMIN
 10
46732.395087
 20
7820.98695
  9
$LIMMAX
 10
50932.395087
 20
13760.98695
  9
$ORTHOMODE
 70
     0
  9
$REGENMODE
 70
     1
  9
$FILLMODE
 70
     1
  9
$QTEXTMODE
 70
     0
  9
$MIRRTEXT
 70
     1
  9
$DRAGMODE
 70
     2
  9
$LTSCALE
 40
20.0
  9
$OSMODE
 70
     0
  9
$ATTMODE
 70
     1
  9
$TEXTSIZE
 40
0.2
  9
$TRACEWID
 40
0.05
  9
$TEXTSTYLE
  7
STANDARD
  9
$CLAYER
  8
0
  9
$CELTYPE
  6
CONTINUOUS
  9
$CECOLOR
 62
   256
  9
$DIMSCALE
 40
1.0
  9
$DIMASZ
 40
0.18
  9
$DIMEXO
 40
0.0625
  9
$DIMDLI
 40
0.38
  9
$DIMRND
 40
0.0
  9
$DIMDLE
 40
0.0
  9
$DIMEXE
 40
0.18
  9
$DIMTP
 40
0.0
  9
$DIMTM
 40
0.0
  9
$DIMTXT
 40
0.18
  9
$DIMCEN
 40
0.09
  9
$DIMTSZ
 40
0.0
  9
$DIMTOL
 70
     0
  9
$DIMLIM
 70
     0
  9
$DIMTIH
 70
     1
  9
$DIMTOH
 70
     1
  9
$DIMSE1
 70
     0
  9
$DIMSE2
 70
     0
  9
$DIMTAD
 70
     0
  9
$DIMZIN
 70
     0
  9
$DIMBLK
  1

  9
$DIMASO
 70
     1
  9
$DIMSHO
 70
     1
  9
$DIMPOST
  1

  9
$DIMAPOST
  1

  9
$DIMALT
 70
     0
  9
$DIMALTD
 70
     2
  9
$DIMALTF
 40
25.4
  9
$DIMLFAC
 40
1.0
  9
$DIMTOFL
 70
     0
  9
$DIMTVP
 40
0.0
  9
$DIMTIX
 70
     0
  9
$DIMSOXD
 70
     0
  9
$DIMSAH
 70
     0
  9
$DIMBLK1
  1

  9
$DIMBLK2
  1

  9
$DIMSTYLE
  2
STANDARD
  9
$DIMCLRD
 70
     0
  9
$DIMCLRE
 70
     0
  9
$DIMCLRT
 70
     0
  9
$DIMTFAC
 40
1.0
  9
$DIMGAP
 40
0.09
  9
$LUNITS
 70
     2
  9
$LUPREC
 70
     4
  9
$AXISMODE
 70
     0
  9
$AXISUNIT
 10
0.0
 20
0.0
  9
$SKETCHINC
 40
0.1
  9
$FILLETRAD
 40
0.0
  9
$AUNITS
 70
     0
  9
$AUPREC
 70
     0
  9
$MENU
  1
acad
  9
$ELEVATION
 40
0.0
  9
$PELEVATION
 40
0.0
  9
$THICKNESS
 40
0.0
  9
$LIMCHECK
 70
     0
  9
$BLIPMODE
 70
     1
  9
$CHAMFERA
 40
0.0
  9
$CHAMFERB
 40
0.0
  9
$SKPOLY
 70
     0
  9
$TDCREATE
 40
0.000000000
  9
$TDUPDATE
 40
0.000000000
  9
$TDINDWG
 40
0.0000000000
  9
$TDUSRTIMER
 40
0.0000000000
  9
$USRTIMER
 70
     1
  9
$ANGBASE
 50
0.0
  9
$ANGDIR
 70
     0
  9
$PDMODE
 70
     0
  9
$PDSIZE
 40
0.0
  9
$PLINEWID
 40
0.0
  9
$COORDS
 70
     0
  9
$SPLFRAME
 70
     0
  9
$SPLINETYPE
 70
     6
  9
$SPLINESEGS
 70
     8
  9
$ATTDIA
 70
     0
  9
$ATTREQ
 70
     1
  9
$HANDLING
 70
     1
  9
$HANDSEED
  5
554
  9
$SURFTAB1
 70
     6
  9
$SURFTAB2
 70
     6
  9
$SURFTYPE
 70
     6
  9
$SURFU
 70
     6
  9
$SURFV
 70
     6
  9
$UCSNAME
  2

  9
$UCSORG
 10
0.0
 20
0.0
 30
0.0
  9
$UCSXDIR
 10
1.0
 20
0.0
 30
0.0
  9
$UCSYDIR
 10
0.0
 20
1.0
 30
0.0
  9
$PUCSNAME
  2

  9
$PUCSORG
 10
0.0
 20
0.0
 30
0.0
  9
$PUCSXDIR
 10
1.0
 20
0.0
 30
0.0
  9
$PUCSYDIR
 10
0.0
 20
1.0
 30
0.0
  9
$USERI1
 70
     0
  9
$USERI2
 70
     0
  9
$USERI3
 70
     0
  9
$USERI4
 70
     0
  9
$USERI5
 70
     0
  9
$USERR1
 40
0.0
  9
$USERR2
 40
0.0
  9
$USERR3
 40
0.0
  9
$USERR4
 40
0.0
  9
$USERR5
 40
0.0
  9
$WORLDVIEW
 70
     1
  9
$SHADEDGE
 70
     3
  9
$SHADEDIF
 70
    70
  9
$TILEMODE
 70
     1
  9
$MAXACTVP
 70
    16
  9
$PINSBASE
 10
0.0
 20
0.0
 30
0.0
  9
$PLIMCHECK
 70
     0
  9
$PEXTMIN
 10
1.000000E+20
 20
1.000000E+20
 30
1.000000E+20
  9
$PEXTMAX
 10
-1.000000E+20
 20
-1.000000E+20
 30
-1.000000E+20
  9
$PLIMMIN
 10
0.0
 20
0.0
  9
$PLIMMAX
 10
12.0
 20
9.0
  9
$UNITMODE
 70
     0
  9
$VISRETAIN
 70
     0
  9
$PLINEGEN
 70
     1
  9
$PSLTSCALE
 70
     0
  9
$TREEDEPTH
 70
  3020
  9
$DWGCODEPAGE
  3
dos932
  0
ENDSEC
  0
SECTION
  2
TABLES
  0
TABLE
  2
VPORT
 70
     1
  0
VPORT
  2
*ACTIVE
 70
     0
 10
0.0
 20
0.0
 11
1.0
 21
1.0
 12
48832.395087
 22
10790.98695
 13
0.0
 23
0.0
 14
1000.0
 24
1000.0
 15
1000.0
 25
1000.0
 16
0.0
 26
0.0
 36
1.0
 17
0.0
 27
0.0
 37
0.0
 40
5940.0
 41
0.707071
 42
50.0
 43
0.0
 44
0.0
 50
0.0
 51
0.0
 71
     0
 72
   100
 73
     1
 74
     1
 75
     0
 76
     0
 77
     0
 78
     0
  0
ENDTAB
  0
TABLE
  2
LTYPE
 70
     9
  0
LTYPE
  2
CONTINUOUS
 70
    64
  3
Solid line
 72
    65
 73
     0
 40
0.0
  0
LTYPE
  2
HIDDEN
 70
    64
  3
__ __ __ __ __ __ __ __ __ __ __ __ __ __ __ __
 72
    65
 73
     5
 40
8.0
 49
1.0
 49
-2.0
 49
2.0
 49
-2.0
 49
1.0
  0
LTYPE
  2
DOT
 70
    64
  3
. . . . . . . . . . . . . . . . . . . . . . . .
 72
    65
 73
     3
 40
1.6
 49
0.4
 49
-0.8
 49
0.4
  0
LTYPE
  2
CENTER
 70
    64
  3
____ _ ____ _ ____ _ ____ _ ____ _ ____ _ ____ 
 72
    65
 73
     5
 40
12.0
 49
5.0
 49
-0.8
 49
0.4
 49
-0.8
 49
5.0
  0
LTYPE
  2
DIVIDE
 70
    64
  3
____ . . ____ . . ____ . . ____ . . ____ . . __
 72
    65
 73
     7
 40
13.2
 49
5.0
 49
-0.8
 49
0.4
 49
-0.8
 49
0.4
 49
-0.8
 49
5.0
  0
LTYPE
  2
DASHED1
 70
     0
  3
Solid Line
 72
    65
 73
     2
 40
2.5
 49
1.25
 49
-1.25
  0
LTYPE
  2
DASHED3
 70
     0
  3
Solid Line
 72
    65
 73
     2
 40
5.0
 49
3.75
 49
-1.25
  0
LTYPE
  2
CENTER1
 70
     0
  3
Solid Line
 72
    65
 73
     4
 40
10.0
 49
6.25
 49
-1.25
 49
1.25
 49
-1.25
  0
LTYPE
  2
PHANTOM1
 70
     0
  3
Solid Line
 72
    65
 73
     6
 40
9.5
 49
3.25
 49
-1.25
 49
1.25
 49
-1.25
 49
1.25
 49
-1.25
  0
ENDTAB
  0
TABLE
  2
LAYER
 70
    19
  0
LAYER
  2
0
 70
     0
 62
     7
  6
CONTINUOUS
  0
LAYER
  2
1
 70
     0
 62
     1
  6
CONTINUOUS
  0
LAYER
  2
2
 70
     0
 62
     1
  6
CONTINUOUS
  0
LAYER
  2
3
 70
     0
 62
     1
  6
CONTINUOUS
  0
LAYER
  2
4
 70
     0
 62
     1
  6
CONTINUOUS
  0
LAYER
  2
5
 70
     0
 62
     1
  6
CONTINUOUS
  0
LAYER
  2
6
 70
     0
 62
     1
  6
CONTINUOUS
  0
LAYER
  2
7
 70
     0
 62
     1
  6
CONTINUOUS
  0
LAYER
  2
8
 70
     0
 62
     1
  6
CONTINUOUS
  0
LAYER
  2
9
 70
     0
 62
     1
  6
CONTINUOUS
  0
LAYER
  2
10
 70
     0
 62
     1
  6
CONTINUOUS
  0
LAYER
  2
11
 70
     0
 62
     1
  6
CONTINUOUS
  0
LAYER
  2
12
 70
     0
 62
     1
  6
CONTINUOUS
  0
LAYER
  2
13
 70
     0
 62
     1
  6
CONTINUOUS
  0
LAYER
  2
14
 70
     0
 62
     1
  6
CONTINUOUS
  0
LAYER
  2
15
 70
     0
 62
     1
  6
CONTINUOUS
  0
LAYER
  2
16
 70
     0
 62
     1
  6
CONTINUOUS
  0
LAYER
  2
40
 70
     0
 62
     1
  6
CONTINUOUS
  0
LAYER
  2
50
 70
     0
 62
     1
  6
CONTINUOUS
  0
ENDTAB
  0
TABLE
  2
STYLE
 70
     3
  0
STYLE
  2
STANDARD
 70
     0
 40
0.0
 41
1.0
 50
0.0
 71
     0
 42
0.0
  3
txt
  4

  0
STYLE
  2

 70
     0
 40
1000.0
 41
1.0
 50
0.0
 71
     0
 42
1000.0
  3
txt
  4
extfont
  0
STYLE
  2

 70
     0
 40
1000.0
 41
1.0
 50
0.0
 71
     0
 42
1000.0
  3
txt
  4
extfont
  0
ENDTAB
  0
TABLE
  2
VIEW
 70
     0
  0
ENDTAB
  0
TABLE
  2
UCS
 70
     0
  0
ENDTAB
  0
TABLE
  2
APPID
 70
     1
  0
APPID
  2
ACAD
 70
     0
  0
ENDTAB
  0
TABLE
  2
DIMSTYLE
 70
     1
  0
DIMSTYLE
  2
STANDARD
 70
     0
  3

  4

  5

  6

  7

 40
1.0
 41
0.18
 42
0.0625
 43
0.38
 44
0.18
 45
0.0
 46
0.0
 47
0.0
 48
0.0
 71
     0
 72
     0
 73
     1
 74
     1
 75
     0
 76
     0
 77
     0
 78
     0
140
0.18
141
0.09
142
0.0
143
25.4
144
1.0
145
0.0
146
1.0
147
0.09
170
     0
171
     2
172
     0
173
     0
174
     0
175
     0
176
     0
177
     0
178
     0
  0
ENDTAB
  0
ENDSEC
  0
SECTION
  2
BLOCKS
  0
ENDSEC
  0
SECTION
  2
ENTITIES
  0
TEXT
  8
5
  6
CONTINUOUS
 62
     3
  5
102
 10
48642.478591
 20
8147.46916
 30
0.0
 40
90.0
  1
テスリックス
 41
0.837
  7

 72
     5
 11
49182.478591
 21
8147.46916
 31
0.0
  0
TEXT
  8
5
  6
CONTINUOUS
 62
     3
  5
103
 10
48642.478591
 20
8057.46916
 30
0.0
 40
90.0
  1
取付側展開図
 41
0.837
  7

 72
     5
 11
49182.478591
 21
8057.46916
 31
0.0
  0
LINE
  8
1
  6
CONTINUOUS
 62
     6
  5
104
 10
48435.591763
 20
12873.766302
 30
0.0
 11
48435.437763
 21
12875.522302
 31
0.0
  0
LINE
  8
1
  6
CONTINUOUS
 62
     6
  5
105
 10
48604.055763
 20
12455.799302
 30
0.0
 11
48604.013763
 21
12454.035302
 31
0.0
  0
LINE
  8
1
  6
CONTINUOUS
 62
     6
  5
106
 10
48765.039763
 20
12458.570302
 30
0.0
 11
48765.146763
 21
12456.800302
 31
0.0
  0
LINE
  8
1
  6
CONTINUOUS
 62
     6
  5
107
 10
48451.527763
 20
12463.575302
 30
0.0
 11
48451.373763
 21
12461.818302
 31
0.0
  0
LINE
  8
1
  6
CONTINUOUS
 62
     6
  5
108
 10
48568.560763
 20
12881.983302
 30
0.0
 11
48568.507763
 21
12883.746302
 31
0.0
  0
LINE
  8
1
  6
CONTINUOUS
 62
     6
  5
109
 10
48779.967763
 20
12905.828302
 30
0.0
 11
48781.732763
 21
12905.986302
 31
0.0
  0
LINE
  8
1
  6
CONTINUOUS
 62
     6
  5
10A
 10
48580.057763
 20
12847.127302
 30
0.0
 11
48586.229763
 21
12847.127302
 31
0.0
  0
LINE
  8
1
  6
CONTINUOUS
 62
     6
  5
10B
 10
48579.056763
 20
12855.859302
 30
0.0
 11
48580.057763
 21
12847.127302
 31
0.0
  0
LINE
  8
1
  6
CONTINUOUS
 62
     6
  5
10C
 10
48586.229763
 20
12491.599302
 30
0.0
 11
48580.057763
 21
12491.599302
 31
0.0
  0
LINE
  8
1
  6
CONTINUOUS
 62
     6
  5
10D
 10
48580.057763
 20
12491.599302
 30
0.0
 11
48579.056763
 21
12482.857302
 31
0.0
  0
LINE
  8
1
  6
CONTINUOUS
 62
     6
  5
10E
 10
48392.358763
 20
12560.259302
 30
0.0
 11
48392.358763
 21
12778.460302
 31
0.0
  0
LINE
  8
1
  6
CONTINUOUS
 62
     6
  5
10F
 10
48823.584763
 20
12463.323302
 30
0.0
 11
48825.868763
 21
12443.305302
 31
0.0
  0
LINE
  8
1
  6
CONTINUOUS
 62
     6
  5
110
 10
48743.986763
 20
12447.785302
 30
0.0
 11
48825.357763
 21
12447.785302
 31
0.0
  0
LINE
  8
1
  6
CONTINUOUS
 62
     6
  5
111
 10
48743.986763
 20
12440.184302
 30
0.0
 11
48827.187763
 21
12440.184302
 31
0.0
  0
LINE
  8
1
  6
CONTINUOUS
 62
     6
  5
112
 10
48584.502763
 20
12884.229302
 30
0.0
 11
48584.552763
 21
12882.465302
 31
0.0
  0
LINE
  8
1
  6
CONTINUOUS
 62
     6
  5
113
 10
48451.373763
 20
12876.898302
 30
0.0
 11
48451.527763
 21
12875.141302
 31
0.0
  0
LINE
  8
1
  6
CONTINUOUS
 62
     6
  5
114
 10
48749.176763
 20
12455.841302
 30
0.0
 11
48749.068763
 21
12457.611302
 31
0.0
  0
LINE
  8
1
  6
CONTINUOUS
 62
     6
  5
115
 10
48588.022763
 20
12454.392302
 30
0.0
 11
48588.059763
 21
12456.156302
 31
0.0
  0
LINE
  8
1
  6
CONTINUOUS
 62
     6
  5
116
 10
48435.437763
 20
12463.197302
 30
0.0
 11
48435.591763
 21
12464.953302
 31
0.0
  0
LINE
  8
1
  6
CONTINUOUS
 62
     6
  5
117
 10
48781.431763
 20
12889.891302
 30
0.0
 11
48781.674763
 21
12887.284302
 31
0.0
  0
LINE
  8
1
  6
CONTINUOUS
 62
     6
  5
118
 10
48783.195763
 20
12890.056302
 30
0.0
 11
48781.431763
 21
12889.891302
 31
0.0
  0
LINE
  8
1
  6
CONTINUOUS
 62
     6
  5
119
 10
48633.292763
 20
12924.726302
 30
0.0
 11
48767.918763
 21
12921.202302
 31
0.0
  0
LINE
  8
1
  6
CONTINUOUS
 62
     6
  5
11A
 10
48756.215763
 20
12907.501302
 30
0.0
 11
48644.254763
 21
12910.434302
 31
0.0
  0
LINE
  8
1
  6
CONTINUOUS
 62
     6
  5
11B
 10
48643.733763
 20
12890.444302
 30
0.0
 11
48755.694763
 21
12887.512302
 31
0.0
  0
LINE
  8
1
  6
CONTINUOUS
 62
     6
  5
11C
 10
48779.552763
 20
12910.304302
 30
0.0
 11
48779.967763
 21
12905.828302
 31
0.0
  0
LINE
  8
1
  6
CONTINUOUS
 62
     6
  5
11D
 10
48718.272763
 20
12797.239302
 30
0.0
 11
48718.545763
 21
12801.599302
 31
0.0
  0
LINE
  8
1
  6
CONTINUOUS
 62
     6
  5
11E
 10
48720.471763
 20
12803.475302
 30
0.0
 11
48767.727763
 21
12805.063302
 31
0.0
  0
LINE
  8
1
  6
CONTINUOUS
 62
     6
  5
11F
 10
48796.024763
 20
12868.152302
 30
0.0
 11
48774.978763
 21
12810.327302
 31
0.0
  0
LINE
  8
1
  6
CONTINUOUS
 62
     6
  5
120
 10
48798.745763
 20
12871.236302
 30
0.0
 11
48776.469763
 21
12810.036302
 31
0.0
  0
LINE
  8
1
  6
CONTINUOUS
 62
     6
  5
121
 10
48716.279763
 20
12795.363302
 30
0.0
 11
48710.055763
 21
12795.363302
 31
0.0
  0
LINE
  8
1
  6
CONTINUOUS
 62
     6
  5
122
 10
48718.545763
 20
12537.127302
 30
0.0
 11
48718.272763
 21
12541.488302
 31
0.0
  0
LINE
  8
1
  6
CONTINUOUS
 62
     6
  5
123
 10
48767.727763
 20
12533.656302
 30
0.0
 11
48720.471763
 21
12535.251302
 31
0.0
  0
LINE
  8
1
  6
CONTINUOUS
 62
     6
  5
124
 10
48774.978763
 20
12528.392302
 30
0.0
 11
48796.024763
 21
12470.567302
 31
0.0
  0
LINE
  8
1
  6
CONTINUOUS
 62
     6
  5
125
 10
48382.055763
 20
12525.264302
 30
0.0
 11
48382.055763
 21
12813.455302
 31
0.0
  0
LINE
  8
1
  6
CONTINUOUS
 62
     6
  5
126
 10
48776.469763
 20
12528.679302
 30
0.0
 11
48798.745763
 21
12467.480302
 31
0.0
  0
LINE
  8
1
  6
CONTINUOUS
 62
     6
  5
127
 10
48708.055763
 20
12545.358302
 30
0.0
 11
48708.055763
 21
12793.358302
 31
0.0
  0
LINE
  8
1
  6
CONTINUOUS
 62
     6
  5
128
 10
48710.055763
 20
12543.363302
 30
0.0
 11
48716.279763
 21
12543.363302
 31
0.0
  0
LINE
  8
1
  6
CONTINUOUS
 62
     6
  5
129
 10
48652.460763
 20
12455.358302
 30
0.0
 11
48666.943763
 21
12455.358302
 31
0.0
  0
LINE
  8
1
  6
CONTINUOUS
 62
     6
  5
12A
 10
48617.777763
 20
12891.557302
 30
0.0
 11
48621.098763
 21
12914.451302
 31
0.0
  0
LINE
  8
1
  6
CONTINUOUS
 62
     6
  5
12B
 10
48818.517763
 20
12463.099302
 30
0.0
 11
48840.428763
 21
12465.597302
 31
0.0
  0
LINE
  8
1
  6
CONTINUOUS
 62
     6
  5
12C
 10
48742.788763
 20
12787.860302
 30
0.0
 11
48742.788763
 21
12699.357302
 31
0.0
  0
LINE
  8
1
  6
CONTINUOUS
 62
     6
  5
12D
 10
48742.788763
 20
12699.357302
 30
0.0
 11
48742.553763
 21
12699.126302
 31
0.0
  0
LINE
  8
1
  6
CONTINUOUS
 62
     6
  5
12E
 10
48742.553763
 20
12699.126302
 30
0.0
 11
48742.553763
 21
12639.593302
 31
0.0
  0
LINE
  8
1
  6
CONTINUOUS
 62
     6
  5
12F
 10
48742.788763
 20
12787.860302
 30
0.0
 11
48739.556763
 21
12787.860302
 31
0.0
  0
LINE
  8
1
  6
CONTINUOUS
 62
     6
  5
130
 10
48738.058763
 20
12789.358302
 30
0.0
 11
48738.058763
 21
12801.858302
 31
0.0
  0
LINE
  8
1
  6
CONTINUOUS
 62
     6
  5
131
 10
48775.456763
 20
12803.363302
 30
0.0
 11
48739.556763
 21
12803.363302
 31
0.0
  0
LINE
  8
1
  6
CONTINUOUS
 62
     6
  5
132
 10
48782.971763
 20
12808.622302
 30
0.0
 11
48805.235763
 21
12869.797302
 31
0.0
  0
LINE
  8
1
  6
CONTINUOUS
 62
     6
  5
133
 10
48742.788763
 20
12639.362302
 30
0.0
 11
48742.788763
 21
12550.859302
 31
0.0
  0
LINE
  8
1
  6
CONTINUOUS
 62
     6
  5
134
 10
48742.553763
 20
12639.593302
 30
0.0
 11
48742.788763
 21
12639.362302
 31
0.0
  0
LINE
  8
1
  6
CONTINUOUS
 62
     6
  5
135
 10
48739.556763
 20
12550.859302
 30
0.0
 11
48742.788763
 21
12550.859302
 31
0.0
  0
LINE
  8
1
  6
CONTINUOUS
 62
     6
  5
136
 10
48738.058763
 20
12536.858302
 30
0.0
 11
48738.058763
 21
12549.361302
 31
0.0
  0
LINE
  8
1
  6
CONTINUOUS
 62
     6
  5
137
 10
48739.556763
 20
12535.363302
 30
0.0
 11
48775.456763
 21
12535.363302
 31
0.0
  0
LINE
  8
1
  6
CONTINUOUS
 62
     6
  5
138
 10
48805.235763
 20
12468.929302
 30
0.0
 11
48782.971763
 21
12530.093302
 31
0.0
  0
LINE
  8
1
  6
CONTINUOUS
 62
     6
  5
139
 10
48835.521763
 20
12464.610302
 30
0.0
 11
48837.794763
 21
12444.663302
 31
0.0
  0
LINE
  8
1
  6
CONTINUOUS
 62
     6
  5
13A
 10
48835.521763
 20
12464.610302
 30
0.0
 11
48823.591763
 21
12463.323302
 31
0.0
  0
LINE
  8
1
  6
CONTINUOUS
 62
     6
  5
13B
 10
48584.552763
 20
12882.465302
 30
0.0
 11
48608.055763
 21
12882.997302
 31
0.0
  0
LINE
  8
1
  6
CONTINUOUS
 62
     6
  5
13C
 10
48412.809763
 20
12871.614302
 30
0.0
 11
48435.591763
 21
12873.766302
 31
0.0
  0
LINE
  8
1
  6
CONTINUOUS
 62
     6
  5
13D
 10
48435.591763
 20
12464.953302
 30
0.0
 11
48412.809763
 21
12467.106302
 31
0.0
  0
LINE
  8
1
  6
CONTINUOUS
 62
     6
  5
13E
 10
48608.619763
 20
12455.715302
 30
0.0
 11
48604.055763
 21
12455.799302
 31
0.0
  0
LINE
  8
1
  6
CONTINUOUS
 62
     6
  5
13F
 10
48790.803763
 20
12878.235302
 30
0.0
 11
48794.470763
 21
12877.930302
 31
0.0
  0
LINE
  8
1
  6
CONTINUOUS
 62
     6
  5
140
 10
48806.589763
 20
12466.556302
 30
0.0
 11
48799.041763
 21
12465.989302
 31
0.0
  0
LINE
  8
1
  6
CONTINUOUS
 62
     6
  5
141
 10
48802.582763
 20
12872.471302
 30
0.0
 11
48806.589763
 21
12872.156302
 31
0.0
  0
LINE
  8
1
  6
CONTINUOUS
 62
     6
  5
142
 10
48799.041763
 20
12872.730302
 30
0.0
 11
48802.582763
 21
12872.471302
 31
0.0
  0
LINE
  8
1
  6
CONTINUOUS
 62
     6
  5
143
 10
48813.529763
 20
12875.019302
 30
0.0
 11
48835.338763
 21
12872.737302
 31
0.0
  0
LINE
  8
1
  6
CONTINUOUS
 62
     6
  5
144
 10
48814.991763
 20
12876.264302
 30
0.0
 11
48835.289763
 21
12874.133302
 31
0.0
  0
LINE
  8
1
  6
CONTINUOUS
 62
     6
  5
145
 10
48835.338763
 20
12465.989302
 30
0.0
 11
48813.529763
 21
12463.701302
 31
0.0
  0
LINE
  8
1
  6
CONTINUOUS
 62
     6
  5
146
 10
48823.591763
 20
12463.323302
 30
0.0
 11
48814.991763
 21
12462.451302
 31
0.0
  0
ARC
  8
1
  6
CONTINUOUS
 62
     6
  5
147
 10
49138.192763
 20
12669.360302
 30
0.0
 40
700.66453
 50
178.691818
 51
181.308197
  0
ARC
  8
1
  6
CONTINUOUS
 62
     6
  5
148
 10
49042.053763
 20
12669.360302
 30
0.0
 40
129.99997
 50
304.77038
 51
55.22962
  0
ARC
  8
1
  6
CONTINUOUS
 62
     6
  5
149
 10
48583.688763
 20
12721.124302
 30
0.0
 40
199.99999
 50
141.883483
 51
162.809082
  0
ARC
  8
1
  6
CONTINUOUS
 62
     6
  5
14A
 10
48586.229763
 20
12836.125302
 30
0.0
 40
11.0
 50
12.20213
 51
90.0
  0
ARC
  8
1
  6
CONTINUOUS
 62
     6
  5
14B
 10
47800.059763
 20
12669.360302
 30
0.0
 40
799.99998
 50
347.16143
 51
12.83857
  0
ARC
  8
1
  6
CONTINUOUS
 62
     6
  5
14C
 10
48650.081763
 20
10456.909302
 30
0.0
 40
2399.9999
 50
91.695862
 51
95.249237
  0
ARC
  8
1
  6
CONTINUOUS
 62
     6
  5
14D
 10
48583.688763
 20
12617.595302
 30
0.0
 40
199.99999
 50
197.19093
 51
218.11653
  0
ARC
  8
1
  6
CONTINUOUS
 62
     6
  5
14E
 10
47815.058763
 20
12669.360302
 30
0.0
 40
799.99998
 50
347.79788
 51
12.20213
  0
ARC
  8
1
  6
CONTINUOUS
 62
     6
  5
14F
 10
48586.229763
 20
12502.594302
 30
0.0
 40
11.0
 50
270.0
 51
347.79788
  0
ARC
  8
1
  6
CONTINUOUS
 62
     6
  5
150
 10
48650.081763
 20
14881.810302
 30
0.0
 40
2399.9999
 50
264.75077
 51
268.30415
  0
ARC
  8
1
  6
CONTINUOUS
 62
     6
  5
151
 10
48797.354763
 20
12669.360302
 30
0.0
 40
359.99995
 50
162.38858
 51
177.453262
  0
ARC
  8
1
  6
CONTINUOUS
 62
     6
  5
152
 10
48501.885763
 20
12763.153302
 30
0.0
 40
49.999999
 50
93.676681
 51
162.38858
  0
ARC
  8
1
  6
CONTINUOUS
 62
     6
  5
153
 10
48650.081763
 20
10456.909302
 30
0.0
 40
2360.9981
 50
92.431244
 51
93.676681
  0
ARC
  8
1
  6
CONTINUOUS
 62
     6
  5
154
 10
48551.199763
 20
12785.809302
 30
0.0
 40
30.0
 50
8.69857
 51
92.431244
  0
ARC
  8
1
  6
CONTINUOUS
 62
     6
  5
155
 10
47790.058763
 20
12669.360302
 30
0.0
 40
799.99998
 50
351.30143
 51
8.69857
  0
ARC
  8
1
  6
CONTINUOUS
 62
     6
  5
156
 10
48501.885763
 20
12575.566302
 30
0.0
 40
49.999999
 50
197.61143
 51
266.32333
  0
ARC
  8
1
  6
CONTINUOUS
 62
     6
  5
157
 10
48650.081763
 20
14881.810302
 30
0.0
 40
2360.9981
 50
266.32333
 51
267.56877
  0
ARC
  8
1
  6
CONTINUOUS
 62
     6
  5
158
 10
48551.199763
 20
12552.906302
 30
0.0
 40
30.0
 50
267.56877
 51
351.30143
  0
ARC
  8
1
  6
CONTINUOUS
 62
     6
  5
159
 10
48797.354763
 20
12669.360302
 30
0.0
 40
359.99995
 50
182.546752
 51
197.61143
  0
ARC
  8
1
  6
CONTINUOUS
 62
     6
  5
15A
 10
48630.555763
 20
12457.380302
 30
0.0
 40
22.0
 50
180.470779
 51
358.45469
  0
ARC
  8
1
  6
CONTINUOUS
 62
     6
  5
15B
 10
48743.986763
 20
14008.712302
 30
0.0
 40
1560.9291
 50
266.6018
 51
270.0
  0
ARC
  8
1
  6
CONTINUOUS
 62
     6
  5
15C
 10
48831.833763
 20
12443.984302
 30
0.0
 40
5.999998
 50
186.5
 51
6.5
  0
ARC
  8
1
  6
CONTINUOUS
 62
     6
  5
15D
 10
48743.986763
 20
14008.712302
 30
0.0
 40
1568.5291
 50
266.46768
 51
270.0
  0
ARC
  8
1
  6
CONTINUOUS
 62
     6
  5
15E
 10
48649.965763
 20
10483.358302
 30
0.0
 40
2399.9999
 50
91.943771
 51
94.742752
  0
ARC
  8
1
  6
CONTINUOUS
 62
     6
  5
15F
 10
48576.843763
 20
12872.765302
 30
0.0
 40
13.999998
 50
58.00379
 51
125.50177
  0
ARC
  8
1
  6
CONTINUOUS
 62
     6
  5
160
 10
48444.374763
 20
12865.027302
 30
0.0
 40
13.999998
 50
61.18475
 51
128.682739
  0
ARC
  8
1
  6
CONTINUOUS
 62
     6
  5
161
 10
48666.943763
 20
13955.359302
 30
0.0
 40
1499.9998
 50
273.74977
 51
274.8771
  0
ARC
  8
1
  6
CONTINUOUS
 62
     6
  5
162
 10
48756.487763
 20
12467.526302
 30
0.0
 40
13.999998
 50
239.6952
 51
307.19317
  0
ARC
  8
1
  6
CONTINUOUS
 62
     6
  5
163
 10
48596.269763
 20
12465.436302
 30
0.0
 40
13.999998
 50
234.96394
 51
302.46191
  0
ARC
  8
1
  6
CONTINUOUS
 62
     6
  5
164
 10
48649.965763
 20
14855.362302
 30
0.0
 40
2399.9999
 50
265.25726
 51
268.52194
  0
ARC
  8
1
  6
CONTINUOUS
 62
     6
  5
165
 10
48444.374763
 20
12473.688302
 30
0.0
 40
13.999998
 50
231.31727
 51
298.81526
  0
ARC
  8
1
  6
CONTINUOUS
 62
     6
  5
166
 10
48771.288763
 20
12896.995302
 30
0.0
 40
13.999998
 50
331.51353
 51
39.0115
  0
ARC
  8
1
  6
CONTINUOUS
 62
     6
  5
167
 10
48755.955763
 20
12897.506302
 30
0.0
 40
10.0
 50
268.5
 51
88.5
  0
ARC
  8
1
  6
CONTINUOUS
 62
     6
  5
168
 10
48643.992763
 20
12900.439302
 30
0.0
 40
10.0
 50
88.5
 51
268.5
  0
ARC
  8
1
  6
CONTINUOUS
 62
     6
  5
169
 10
48674.381763
 20
12773.435302
 30
0.0
 40
108.13588
 50
102.737808
 51
135.976776
  0
ARC
  8
1
  6
CONTINUOUS
 62
     6
  5
16A
 10
48666.943763
 20
11383.358302
 30
0.0
 40
1496.7
 50
85.21687
 51
90.246277
  0
ARC
  8
1
  6
CONTINUOUS
 62
     6
  5
16B
 10
48660.705763
 20
12833.938302
 30
0.0
 40
46.107687
 50
90.246277
 51
102.737808
  0
ARC
  8
1
  6
CONTINUOUS
 62
     6
  5
16C
 10
47070.055763
 20
12669.360302
 30
0.0
 40
1599.9999
 50
352.9958
 51
7.00421
  0
ARC
  8
1
  6
CONTINUOUS
 62
     6
  5
16D
 10
48791.328763
 20
12869.867302
 30
0.0
 40
5.0
 50
340.0
 51
85.21687
  0
ARC
  8
1
  6
CONTINUOUS
 62
     6
  5
16E
 10
48767.461763
 20
12813.060302
 30
0.0
 40
7.999999
 50
271.93232
 51
340.0
  0
ARC
  8
1
  6
CONTINUOUS
 62
     6
  5
16F
 10
48573.280763
 20
12755.759302
 30
0.0
 40
199.99999
 50
145.500198
 51
162.699127
  0
ARC
  8
1
  6
CONTINUOUS
 62
     6
  5
170
 10
48674.381763
 20
12565.284302
 30
0.0
 40
108.13588
 50
224.02323
 51
257.2622
  0
ARC
  8
1
  6
CONTINUOUS
 62
     6
  5
171
 10
48666.943763
 20
13955.359302
 30
0.0
 40
1496.7
 50
269.75373
 51
274.78314
  0
ARC
  8
1
  6
CONTINUOUS
 62
     6
  5
172
 10
48660.705763
 20
12504.785302
 30
0.0
 40
46.107687
 50
257.2622
 51
269.75373
  0
ARC
  8
1
  6
CONTINUOUS
 62
     6
  5
173
 10
48791.328763
 20
12468.852302
 30
0.0
 40
5.0
 50
274.78314
 51
20.0
  0
ARC
  8
1
  6
CONTINUOUS
 62
     6
  5
174
 10
48767.461763
 20
12525.656302
 30
0.0
 40
7.999999
 50
20.0
 51
88.06768
  0
ARC
  8
1
  6
CONTINUOUS
 62
     6
  5
175
 10
48666.943763
 20
13955.359302
 30
0.0
 40
1499.9998
 50
270.0
 51
273.13861
  0
ARC
  8
1
  6
CONTINUOUS
 62
     6
  5
176
 10
48573.280763
 20
12582.957302
 30
0.0
 40
199.99999
 50
197.30088
 51
214.49981
  0
ARC
  8
1
  6
CONTINUOUS
 62
     6
  5
177
 10
48628.580763
 20
12246.619302
 30
0.0
 40
211.98525
 50
83.62876
 51
95.296722
  0
ARC
  8
1
  6
CONTINUOUS
 62
     6
  5
178
 10
48607.880763
 20
12892.992302
 30
0.0
 40
10.0
 50
271.00056
 51
351.7478
  0
ARC
  8
1
  6
CONTINUOUS
 62
     6
  5
179
 10
48791.630763
 20
12888.205302
 30
0.0
 40
10.0
 50
185.262527
 51
265.26338
  0
ARC
  8
1
  6
CONTINUOUS
 62
     6
  5
17A
 10
48724.027763
 20
13458.379302
 30
0.0
 40
999.99992
 50
276.40151
 51
280.54869
  0
ARC
  8
1
  6
CONTINUOUS
 62
     6
  5
17B
 10
48840.590763
 20
12464.163302
 30
0.0
 40
1.442241
 50
51.91355
 51
96.5
  0
ARC
  8
1
  6
CONTINUOUS
 62
     6
  5
17C
 10
48818.710763
 20
12461.426302
 30
0.0
 40
1.687318
 50
96.5
 51
130.131362
  0
ARC
  8
1
  6
CONTINUOUS
 62
     6
  5
17D
 10
48723.752763
 20
11878.975302
 30
0.0
 40
999.99992
 50
79.90357
 51
83.59342
  0
ARC
  8
1
  6
CONTINUOUS
 62
     6
  5
17E
 10
48804.395763
 20
12331.853302
 30
0.0
 40
539.99997
 50
56.88861
 51
79.90357
  0
ARC
  8
1
  6
CONTINUOUS
 62
     6
  5
17F
 10
48990.129763
 20
12616.643302
 30
0.0
 40
199.99999
 50
45.43081
 51
56.88861
  0
ARC
  8
1
  6
CONTINUOUS
 62
     6
  5
180
 10
48775.456763
 20
12811.363302
 30
0.0
 40
7.999999
 50
270.0
 51
340.0
  0
ARC
  8
1
  6
CONTINUOUS
 62
     6
  5
181
 10
48808.237763
 20
12332.567302
 30
0.0
 40
539.99997
 50
55.22962
 51
79.45132
  0
ARC
  8
1
  6
CONTINUOUS
 62
     6
  5
182
 10
48724.027763
 20
11880.340302
 30
0.0
 40
999.99992
 50
79.45132
 51
83.61195
  0
ARC
  8
1
  6
CONTINUOUS
 62
     6
  5
183
 10
48723.752763
 20
13459.740302
 30
0.0
 40
999.99992
 50
276.40658
 51
280.09643
  0
ARC
  8
1
  6
CONTINUOUS
 62
     6
  5
184
 10
48804.395763
 20
13006.862302
 30
0.0
 40
539.99997
 50
280.09643
 51
303.1114
  0
ARC
  8
1
  6
CONTINUOUS
 62
     6
  5
185
 10
48990.129763
 20
12722.076302
 30
0.0
 40
199.99999
 50
303.1114
 51
314.56919
  0
ARC
  8
1
  6
CONTINUOUS
 62
     6
  5
186
 10
49042.053763
 20
12669.360302
 30
0.0
 40
125.99998
 50
314.56919
 51
45.43081
  0
ARC
  8
1
  6
CONTINUOUS
 62
     6
  5
187
 10
48775.456763
 20
12527.364302
 30
0.0
 40
7.999999
 50
20.0
 51
90.0
  0
ARC
  8
1
  6
CONTINUOUS
 62
     6
  5
188
 10
48808.237763
 20
13006.152302
 30
0.0
 40
539.99997
 50
280.54869
 51
304.77038
  0
ARC
  8
1
  6
CONTINUOUS
 62
     6
  5
189
 10
48431.062763
 20
12840.870302
 30
0.0
 40
5.999998
 50
95.249237
 51
141.883483
  0
ARC
  8
1
  6
CONTINUOUS
 62
     6
  5
18A
 10
48398.356763
 20
12778.460302
 30
0.0
 40
5.999998
 50
162.809082
 51
180.0
  0
ARC
  8
1
  6
CONTINUOUS
 62
     6
  5
18B
 10
48431.062763
 20
12497.849302
 30
0.0
 40
5.999998
 50
218.11653
 51
264.75077
  0
ARC
  8
1
  6
CONTINUOUS
 62
     6
  5
18C
 10
48398.356763
 20
12560.259302
 30
0.0
 40
5.999998
 50
180.0
 51
197.19093
  0
ARC
  8
1
  6
CONTINUOUS
 62
     6
  5
18D
 10
48583.999763
 20
12884.215302
 30
0.0
 40
0.5
 50
1.75277
 51
58.00379
  0
ARC
  8
1
  6
CONTINUOUS
 62
     6
  5
18E
 10
48569.004763
 20
12883.760302
 30
0.0
 40
0.5
 50
125.50177
 51
181.752777
  0
ARC
  8
1
  6
CONTINUOUS
 62
     6
  5
18F
 10
48450.877763
 20
12876.856302
 30
0.0
 40
0.5
 50
4.93374
 51
61.18475
  0
ARC
  8
1
  6
CONTINUOUS
 62
     6
  5
190
 10
48435.934763
 20
12875.564302
 30
0.0
 40
0.5
 50
128.682739
 51
184.933746
  0
ARC
  8
1
  6
CONTINUOUS
 62
     6
  5
191
 10
48764.647763
 20
12456.772302
 30
0.0
 40
0.5
 50
307.19317
 51
3.44419
  0
ARC
  8
1
  6
CONTINUOUS
 62
     6
  5
192
 10
48749.678763
 20
12455.869302
 30
0.0
 40
0.5
 50
183.444198
 51
239.6952
  0
ARC
  8
1
  6
CONTINUOUS
 62
     6
  5
193
 10
48603.516763
 20
12454.049302
 30
0.0
 40
0.5
 50
302.46191
 51
358.71292
  0
ARC
  8
1
  6
CONTINUOUS
 62
     6
  5
194
 10
48588.519763
 20
12454.385302
 30
0.0
 40
0.5
 50
178.712921
 51
234.96394
  0
ARC
  8
1
  6
CONTINUOUS
 62
     6
  5
195
 10
48450.877763
 20
12461.860302
 30
0.0
 40
0.5
 50
298.81526
 51
355.06626
  0
ARC
  8
1
  6
CONTINUOUS
 62
     6
  5
196
 10
48435.934763
 20
12463.155302
 30
0.0
 40
0.5
 50
175.066268
 51
231.31727
  0
ARC
  8
1
  6
CONTINUOUS
 62
     6
  5
197
 10
48783.153763
 20
12890.553302
 30
0.0
 40
0.5
 50
275.26252
 51
331.51353
  0
ARC
  8
1
  6
CONTINUOUS
 62
     6
  5
198
 10
48781.774763
 20
12905.492302
 30
0.0
 40
0.5
 50
39.0115
 51
95.262527
  0
ARC
  8
1
  6
CONTINUOUS
 62
     6
  5
199
 10
48767.601763
 20
12909.205302
 30
0.0
 40
11.999996
 50
5.26252
 51
88.5
  0
ARC
  8
1
  6
CONTINUOUS
 62
     6
  5
19A
 10
48632.975763
 20
12912.729302
 30
0.0
 40
11.999996
 50
88.5
 51
171.747802
  0
ARC
  8
1
  6
CONTINUOUS
 62
     6
  5
19B
 10
48720.540763
 20
12801.473302
 30
0.0
 40
2.0
 50
91.932327
 51
176.445831
  0
ARC
  8
1
  6
CONTINUOUS
 62
     6
  5
19C
 10
48710.055763
 20
12793.358302
 30
0.0
 40
2.0
 50
90.0
 51
180.0
  0
ARC
  8
1
  6
CONTINUOUS
 62
     6
  5
19D
 10
48716.279763
 20
12797.357302
 30
0.0
 40
2.0
 50
270.0
 51
356.44583
  0
ARC
  8
1
  6
CONTINUOUS
 62
     6
  5
19E
 10
48814.055763
 20
12796.357302
 30
0.0
 40
39.999999
 50
160.0
 51
169.91687
  0
ARC
  8
1
  6
CONTINUOUS
 62
     6
  5
19F
 10
48794.043763
 20
12872.947302
 30
0.0
 40
5.0
 50
340.0
 51
85.1229
  0
ARC
  8
1
  6
CONTINUOUS
 62
     6
  5
1A0
 10
48413.397763
 20
12865.640302
 30
0.0
 40
5.999998
 50
95.671036
 51
145.500198
  0
ARC
  8
1
  6
CONTINUOUS
 62
     6
  5
1A1
 10
48388.053763
 20
12813.455302
 30
0.0
 40
5.999998
 50
162.699127
 51
180.0
  0
ARC
  8
1
  6
CONTINUOUS
 62
     6
  5
1A2
 10
48720.540763
 20
12537.246302
 30
0.0
 40
2.0
 50
183.554183
 51
268.06768
  0
ARC
  8
1
  6
CONTINUOUS
 62
     6
  5
1A3
 10
48710.055763
 20
12545.358302
 30
0.0
 40
2.0
 50
180.0
 51
270.0
  0
ARC
  8
1
  6
CONTINUOUS
 62
     6
  5
1A4
 10
48716.279763
 20
12541.362302
 30
0.0
 40
2.0
 50
3.55418
 51
90.0
  0
ARC
  8
1
  6
CONTINUOUS
 62
     6
  5
1A5
 10
48794.043763
 20
12465.772302
 30
0.0
 40
5.0
 50
274.8771
 51
20.0
  0
ARC
  8
1
  6
CONTINUOUS
 62
     6
  5
1A6
 10
48413.397763
 20
12473.079302
 30
0.0
 40
5.999998
 50
214.49981
 51
264.32897
  0
ARC
  8
1
  6
CONTINUOUS
 62
     6
  5
1A7
 10
48388.053763
 20
12525.264302
 30
0.0
 40
5.999998
 50
180.0
 51
197.30088
  0
ARC
  8
1
  6
CONTINUOUS
 62
     6
  5
1A8
 10
48652.047763
 20
12456.800302
 30
0.0
 40
0.5
 50
358.45469
 51
83.62876
  0
ARC
  8
1
  6
CONTINUOUS
 62
     6
  5
1A9
 10
48609.056763
 20
12457.205302
 30
0.0
 40
0.5
 50
95.296722
 51
180.470779
  0
ARC
  8
1
  6
CONTINUOUS
 62
     6
  5
1AA
 10
48814.055763
 20
12542.362302
 30
0.0
 40
39.999999
 50
190.08314
 51
200.0
  0
ARC
  8
1
  6
CONTINUOUS
 62
     6
  5
1AB
 10
48739.556763
 20
12789.358302
 30
0.0
 40
1.499999
 50
180.0
 51
270.0
  0
ARC
  8
1
  6
CONTINUOUS
 62
     6
  5
1AC
 10
48739.556763
 20
12801.858302
 30
0.0
 40
1.499999
 50
90.0
 51
180.0
  0
ARC
  8
1
  6
CONTINUOUS
 62
     6
  5
1AD
 10
48814.207763
 20
12868.303302
 30
0.0
 40
7.999999
 50
84.39154
 51
137.474227
  0
ARC
  8
1
  6
CONTINUOUS
 62
     6
  5
1AE
 10
48812.753763
 20
12867.061302
 30
0.0
 40
7.999999
 50
84.43093
 51
160.0
  0
ARC
  8
1
  6
CONTINUOUS
 62
     6
  5
1AF
 10
48739.556763
 20
12549.361302
 30
0.0
 40
1.499999
 50
90.0
 51
180.0
  0
ARC
  8
1
  6
CONTINUOUS
 62
     6
  5
1B0
 10
48739.556763
 20
12536.858302
 30
0.0
 40
1.499999
 50
180.0
 51
270.0
  0
ARC
  8
1
  6
CONTINUOUS
 62
     6
  5
1B1
 10
48814.207763
 20
12470.413302
 30
0.0
 40
7.999999
 50
222.52578
 51
275.60847
  0
ARC
  8
1
  6
CONTINUOUS
 62
     6
  5
1B2
 10
48812.753763
 20
12471.665302
 30
0.0
 40
7.999999
 50
200.0
 51
275.56907
  0
LINE
  8
1
  6
DOT
 62
     6
  5
1B3
 10
48242.186763
 20
11461.562302
 30
0.0
 11
48242.186763
 21
11981.562302
 31
0.0
  0
LINE
  8
1
  6
CONTINUOUS
 62
     6
  5
1B4
 10
48707.186763
 20
11271.562302
 30
0.0
 11
48707.186763
 21
12121.562302
 31
0.0
  0
LINE
  8
1
  6
CONTINUOUS
 62
     6
  5
1B5
 10
48372.186763
 20
12221.562302
 30
0.0
 11
48707.186763
 21
12121.562302
 31
0.0
  0
LINE
  8
1
  6
DOT
 62
     6
  5
1B6
 10
48242.186763
 20
11981.562302
 30
0.0
 11
48462.186763
 21
12021.562302
 31
0.0
  0
LINE
  8
1
  6
DOT
 62
     6
  5
1B7
 10
48269.336342
 20
11579.401703
 30
0.0
 11
48253.905386
 21
11628.857203
 31
0.0
  0
LINE
  8
1
  6
DOT
 62
     6
  5
1B8
 10
48253.905386
 20
11628.857203
 30
0.0
 11
48245.168765
 21
11681.292322
 31
0.0
  0
LINE
  8
1
  6
DOT
 62
     6
  5
1B9
 10
48245.168765
 20
11681.292322
 30
0.0
 11
48243.407282
 21
11735.021751
 31
0.0
  0
LINE
  8
1
  6
DOT
 62
     6
  5
1BA
 10
48243.407282
 20
11735.021751
 30
0.0
 11
48248.677551
 21
11788.318582
 31
0.0
  0
LINE
  8
1
  6
DOT
 62
     6
  5
1BB
 10
48248.677551
 20
11788.318582
 30
0.0
 11
48260.810181
 21
11839.469811
 31
0.0
  0
LINE
  8
1
  6
DOT
 62
     6
  5
1BC
 10
48367.166224
 20
11991.852962
 30
0.0
 11
48403.924694
 21
12010.75116
 31
0.0
  0
LINE
  8
1
  6
DOT
 62
     6
  5
1BD
 10
48403.924694
 20
12010.75116
 30
0.0
 11
48442.555755
 21
12020.35459
 31
0.0
  0
LINE
  8
1
  6
DOT
 62
     6
  5
1BE
 10
48442.555755
 20
12020.35459
 30
0.0
 11
48481.817772
 21
12020.35459
 31
0.0
  0
LINE
  8
1
  6
DOT
 62
     6
  5
1BF
 10
48481.817772
 20
12020.35459
 30
0.0
 11
48520.448832
 21
12010.75116
 31
0.0
  0
LINE
  8
1
  6
DOT
 62
     6
  5
1C0
 10
48520.448832
 20
12010.75116
 30
0.0
 11
48557.207302
 21
11991.852962
 31
0.0
  0
LINE
  8
1
  6
DOT
 62
     6
  5
1C1
 10
48242.186763
 20
11461.562302
 30
0.0
 11
48462.186763
 21
11421.562302
 31
0.0
  0
LINE
  8
1
  6
CONTINUOUS
 62
     6
  5
1C2
 10
48692.186763
 20
11271.562302
 30
0.0
 11
48692.186763
 21
12125.950527
 31
0.0
  0
LINE
  8
1
  6
DOT
 62
     6
  5
1C3
 10
48697.186763
 20
11271.562302
 30
0.0
 11
48697.186763
 21
12124.604267
 31
0.0
  0
LINE
  8
1
  6
CONTINUOUS
 62
     6
  5
1C4
 10
48142.186763
 20
11271.562302
 30
0.0
 11
48142.186763
 21
13106.562302
 31
0.0
  0
LINE
  8
1
  6
CONTINUOUS
 62
     6
  5
1C5
 10
48372.186763
 20
12221.562302
 30
0.0
 11
48372.186763
 21
13106.562302
 31
0.0
  0
LINE
  8
1
  6
CONTINUOUS
 62
     6
  5
1C6
 10
48122.186763
 20
13106.562302
 30
0.0
 11
48372.186763
 21
13106.562302
 31
0.0
  0
LINE
  8
5
  6
CONTINUOUS
 62
     5
  5
1C7
 10
47942.185763
 20
13114.360302
 30
0.0
 11
47942.185763
 21
11142.161302
 31
0.0
  0
LINE
  8
5
  6
CONTINUOUS
 62
     5
  5
1C8
 10
47942.185763
 20
11141.860302
 30
0.0
 11
48122.186763
 21
11141.860302
 31
0.0
  0
LINE
  8
3
  6
CONTINUOUS
 62
     2
  5
1C9
 10
48122.186763
 20
12471.562302
 30
0.0
 11
48122.186763
 21
12171.562302
 31
0.0
  0
LINE
  8
1
  6
CONTINUOUS
 62
     5
  5
1CA
 10
48122.186763
 20
11271.562302
 30
0.0
 11
48122.186763
 21
13106.562302
 31
0.0
  0
LINE
  8
5
  6
CONTINUOUS
 62
     5
  5
1CB
 10
48122.186763
 20
13114.360302
 30
0.0
 11
48122.186763
 21
11271.562302
 31
0.0
  0
LINE
  8
1
  6
CONTINUOUS
 62
     6
  5
1CC
 10
48122.186763
 20
11271.562302
 30
0.0
 11
48707.186763
 21
11271.562302
 31
0.0
  0
LINE
  8
1
  6
CONTINUOUS
 62
     5
  5
1CD
 10
47942.185763
 20
13114.360302
 30
0.0
 11
47942.185763
 21
13294.361302
 31
0.0
  0
LINE
  8
4
  6
CENTER1
 62
     2
  5
1CE
 10
48032.186763
 20
13394.269522
 30
0.0
 11
48032.186763
 21
11141.860302
 31
0.0
  0
LINE
  8
5
  6
CONTINUOUS
 62
     3
  5
1CF
 10
48032.186763
 20
13549.361302
 30
0.0
 11
48032.186763
 21
13449.361302
 31
0.0
  0
CIRCLE
  8
5
  6
CONTINUOUS
 62
     3
  5
1D0
 10
48032.186763
 20
13549.361302
 30
0.0
 40
7.5
  0
CIRCLE
  8
1
  6
CONTINUOUS
 62
     6
  5
1D1
 10
48367.186763
 20
11721.562302
 30
0.0
 40
30.0
  0
LINE
  8
1
  6
DOT
 62
     6
  5
1D2
 10
48462.186763
 20
11421.562302
 30
0.0
 11
48423.082803
 21
11426.383425
 31
0.0
  0
LINE
  8
1
  6
DOT
 62
     6
  5
1D3
 10
48423.082803
 20
11426.383425
 30
0.0
 11
48385.235677
 21
11440.69184
 31
0.0
  0
LINE
  8
1
  6
DOT
 62
     6
  5
1D4
 10
48385.235677
 20
11440.69184
 30
0.0
 11
48349.861822
 21
11464.027663
 31
0.0
  0
LINE
  8
1
  6
DOT
 62
     6
  5
1D5
 10
48349.861822
 20
11464.027663
 30
0.0
 11
48318.098182
 21
11495.640862
 31
0.0
  0
LINE
  8
1
  6
DOT
 62
     6
  5
1D6
 10
48318.098182
 20
11495.640862
 30
0.0
 11
48290.965669
 21
11534.515361
 31
0.0
  0
LINE
  8
1
  6
DOT
 62
     6
  5
1D7
 10
48290.965669
 20
11534.515361
 30
0.0
 11
48269.336342
 21
11579.401703
 31
0.0
  0
LINE
  8
1
  6
DOT
 62
     6
  5
1D8
 10
48260.810181
 20
11839.469811
 30
0.0
 11
48279.415221
 21
11886.831396
 31
0.0
  0
LINE
  8
1
  6
DOT
 62
     6
  5
1D9
 10
48279.415221
 20
11886.831396
 30
0.0
 11
48303.894688
 21
11928.881096
 31
0.0
  0
LINE
  8
1
  6
DOT
 62
     6
  5
1DA
 10
48303.894688
 20
11928.881096
 30
0.0
 11
48333.461793
 21
11964.2674
 31
0.0
  0
LINE
  8
1
  6
DOT
 62
     6
  5
1DB
 10
48333.461793
 20
11964.2674
 30
0.0
 11
48367.166224
 21
11991.852962
 31
0.0
  0
LINE
  8
1
  6
DOT
 62
     6
  5
1DC
 10
48557.207302
 20
11991.852962
 30
0.0
 11
48590.911734
 21
11964.2674
 31
0.0
  0
LINE
  8
1
  6
DOT
 62
     6
  5
1DD
 10
48590.911734
 20
11964.2674
 30
0.0
 11
48620.478838
 21
11928.881096
 31
0.0
  0
LINE
  8
1
  6
DOT
 62
     6
  5
1DE
 10
48620.478838
 20
11928.881096
 30
0.0
 11
48644.958306
 21
11886.831396
 31
0.0
  0
LINE
  8
1
  6
DOT
 62
     6
  5
1DF
 10
48644.958306
 20
11886.831396
 30
0.0
 11
48663.563345
 21
11839.469811
 31
0.0
  0
LINE
  8
1
  6
DOT
 62
     6
  5
1E0
 10
48663.563345
 20
11839.469811
 30
0.0
 11
48675.695976
 21
11788.318582
 31
0.0
  0
LINE
  8
1
  6
DOT
 62
     6
  5
1E1
 10
48675.695976
 20
11788.318582
 30
0.0
 11
48680.966245
 21
11735.021751
 31
0.0
  0
LINE
  8
1
  6
DOT
 62
     6
  5
1E2
 10
48680.966245
 20
11735.021751
 30
0.0
 11
48679.204761
 21
11681.292322
 31
0.0
  0
LINE
  8
1
  6
DOT
 62
     6
  5
1E3
 10
48679.204761
 20
11681.292322
 30
0.0
 11
48670.46814
 21
11628.857203
 31
0.0
  0
LINE
  8
1
  6
DOT
 62
     6
  5
1E4
 10
48670.46814
 20
11628.857203
 30
0.0
 11
48655.037185
 21
11579.401703
 31
0.0
  0
LINE
  8
1
  6
DOT
 62
     6
  5
1E5
 10
48655.037185
 20
11579.401703
 30
0.0
 11
48633.407858
 21
11534.515361
 31
0.0
  0
LINE
  8
1
  6
DOT
 62
     6
  5
1E6
 10
48633.407858
 20
11534.515361
 30
0.0
 11
48606.275344
 21
11495.640862
 31
0.0
  0
LINE
  8
1
  6
DOT
 62
     6
  5
1E7
 10
48606.275344
 20
11495.640862
 30
0.0
 11
48574.511705
 21
11464.027663
 31
0.0
  0
LINE
  8
1
  6
DOT
 62
     6
  5
1E8
 10
48574.511705
 20
11464.027663
 30
0.0
 11
48539.13785
 21
11440.69184
 31
0.0
  0
LINE
  8
1
  6
DOT
 62
     6
  5
1E9
 10
48539.13785
 20
11440.69184
 30
0.0
 11
48501.290723
 21
11426.383425
 31
0.0
  0
LINE
  8
1
  6
DOT
 62
     6
  5
1EA
 10
48501.290723
 20
11426.383425
 30
0.0
 11
48462.186763
 21
11421.562302
 31
0.0
  0
LINE
  8
5
  6
CONTINUOUS
 62
     6
  5
1EB
 10
48462.186763
 20
11461.562302
 30
0.0
 11
48428.296665
 21
11465.740608
 31
0.0
  0
LINE
  8
5
  6
CONTINUOUS
 62
     6
  5
1EC
 10
48428.296665
 20
11465.740608
 30
0.0
 11
48395.495822
 21
11478.141235
 31
0.0
  0
LINE
  8
5
  6
CONTINUOUS
 62
     6
  5
1ED
 10
48395.495822
 20
11478.141235
 30
0.0
 11
48364.83848
 21
11498.365615
 31
0.0
  0
LINE
  8
5
  6
CONTINUOUS
 62
     6
  5
1EE
 10
48364.83848
 20
11498.365615
 30
0.0
 11
48337.309993
 21
11525.76372
 31
0.0
  0
LINE
  8
5
  6
CONTINUOUS
 62
     6
  5
1EF
 10
48337.309993
 20
11525.76372
 30
0.0
 11
48313.795148
 21
11559.454953
 31
0.0
  0
LINE
  8
5
  6
CONTINUOUS
 62
     6
  5
1F0
 10
48313.795148
 20
11559.454953
 30
0.0
 11
48295.049731
 21
11598.356449
 31
0.0
  0
LINE
  8
5
  6
CONTINUOUS
 62
     6
  5
1F1
 10
48295.049731
 20
11598.356449
 30
0.0
 11
48281.676236
 21
11641.217883
 31
0.0
  0
LINE
  8
5
  6
CONTINUOUS
 62
     6
  5
1F2
 10
48281.676236
 20
11641.217883
 30
0.0
 11
48274.104498
 21
11686.661652
 31
0.0
  0
LINE
  8
5
  6
CONTINUOUS
 62
     6
  5
1F3
 10
48274.104498
 20
11686.661652
 30
0.0
 11
48272.577879
 21
11733.227157
 31
0.0
  0
LINE
  8
5
  6
CONTINUOUS
 62
     6
  5
1F4
 10
48272.577879
 20
11733.227157
 30
0.0
 11
48277.145446
 21
11779.417744
 31
0.0
  0
LINE
  8
5
  6
CONTINUOUS
 62
     6
  5
1F5
 10
48277.145446
 20
11779.417744
 30
0.0
 11
48287.660392
 21
11823.74881
 31
0.0
  0
LINE
  8
5
  6
CONTINUOUS
 62
     6
  5
1F6
 10
48287.660392
 20
11823.74881
 30
0.0
 11
48303.78476
 21
11864.795517
 31
0.0
  0
LINE
  8
5
  6
CONTINUOUS
 62
     6
  5
1F7
 10
48303.78476
 20
11864.795517
 30
0.0
 11
48325.000298
 21
11901.23859
 31
0.0
  0
LINE
  8
5
  6
CONTINUOUS
 62
     6
  5
1F8
 10
48325.000298
 20
11901.23859
 30
0.0
 11
48350.625122
 21
11931.90672
 31
0.0
  0
LINE
  8
5
  6
CONTINUOUS
 62
     6
  5
1F9
 10
48350.625122
 20
11931.90672
 30
0.0
 11
48379.83563
 21
11955.814207
 31
0.0
  0
LINE
  8
5
  6
CONTINUOUS
 62
     6
  5
1FA
 10
48379.83563
 20
11955.814207
 30
0.0
 11
48411.69297
 21
11972.192645
 31
0.0
  0
LINE
  8
5
  6
CONTINUOUS
 62
     6
  5
1FB
 10
48411.69297
 20
11972.192645
 30
0.0
 11
48445.173222
 21
11980.515618
 31
0.0
  0
LINE
  8
5
  6
CONTINUOUS
 62
     6
  5
1FC
 10
48445.173222
 20
11980.515618
 30
0.0
 11
48479.200304
 21
11980.515618
 31
0.0
  0
LINE
  8
5
  6
CONTINUOUS
 62
     6
  5
1FD
 10
48573.748404
 20
11931.90672
 30
0.0
 11
48599.373228
 21
11901.23859
 31
0.0
  0
LINE
  8
5
  6
CONTINUOUS
 62
     6
  5
1FE
 10
48599.373228
 20
11901.23859
 30
0.0
 11
48620.588767
 21
11864.795517
 31
0.0
  0
LINE
  8
5
  6
CONTINUOUS
 62
     6
  5
1FF
 10
48620.588767
 20
11864.795517
 30
0.0
 11
48636.713135
 21
11823.74881
 31
0.0
  0
LINE
  8
5
  6
CONTINUOUS
 62
     6
  5
200
 10
48636.713135
 20
11823.74881
 30
0.0
 11
48647.228081
 21
11779.417744
 31
0.0
  0
LINE
  8
5
  6
CONTINUOUS
 62
     6
  5
201
 10
48647.228081
 20
11779.417744
 30
0.0
 11
48651.795647
 21
11733.227157
 31
0.0
  0
LINE
  8
5
  6
CONTINUOUS
 62
     6
  5
202
 10
48651.795647
 20
11733.227157
 30
0.0
 11
48650.269028
 21
11686.661652
 31
0.0
  0
LINE
  8
5
  6
CONTINUOUS
 62
     6
  5
203
 10
48650.269028
 20
11686.661652
 30
0.0
 11
48642.69729
 21
11641.217883
 31
0.0
  0
LINE
  8
5
  6
CONTINUOUS
 62
     6
  5
204
 10
48642.69729
 20
11641.217883
 30
0.0
 11
48629.323795
 21
11598.356449
 31
0.0
  0
LINE
  8
5
  6
CONTINUOUS
 62
     6
  5
205
 10
48629.323795
 20
11598.356449
 30
0.0
 11
48610.578379
 21
11559.454953
 31
0.0
  0
LINE
  8
5
  6
CONTINUOUS
 62
     6
  5
206
 10
48610.578379
 20
11559.454953
 30
0.0
 11
48587.063533
 21
11525.76372
 31
0.0
  0
LINE
  8
5
  6
CONTINUOUS
 62
     6
  5
207
 10
48587.063533
 20
11525.76372
 30
0.0
 11
48559.535046
 21
11498.365615
 31
0.0
  0
LINE
  8
5
  6
CONTINUOUS
 62
     6
  5
208
 10
48559.535046
 20
11498.365615
 30
0.0
 11
48528.877705
 21
11478.141235
 31
0.0
  0
LINE
  8
5
  6
CONTINUOUS
 62
     6
  5
209
 10
48528.877705
 20
11478.141235
 30
0.0
 11
48496.076862
 21
11465.740608
 31
0.0
  0
LINE
  8
5
  6
CONTINUOUS
 62
     6
  5
20A
 10
48496.076862
 20
11465.740608
 30
0.0
 11
48462.186763
 21
11461.562302
 31
0.0
  0
LINE
  8
5
  6
CONTINUOUS
 62
     6
  5
20B
 10
48479.200304
 20
11980.515618
 30
0.0
 11
48512.680557
 21
11972.192645
 31
0.0
  0
LINE
  8
5
  6
CONTINUOUS
 62
     6
  5
20C
 10
48512.680557
 20
11972.192645
 30
0.0
 11
48544.537897
 21
11955.814207
 31
0.0
  0
LINE
  8
5
  6
CONTINUOUS
 62
     6
  5
20D
 10
48544.537897
 20
11955.814207
 30
0.0
 11
48573.748404
 21
11931.90672
 31
0.0
  0
LINE
  8
1
  6
CONTINUOUS
 62
     1
  5
20E
 10
49847.186663
 20
11276.860302
 30
0.0
 11
49847.186663
 21
11266.562302
 31
0.0
  0
LINE
  8
1
  6
CONTINUOUS
 62
     1
  5
20F
 10
49847.186663
 20
11276.860302
 30
0.0
 11
49857.186663
 21
11276.860302
 31
0.0
  0
LINE
  8
2
  6
CONTINUOUS
 62
     2
  5
210
 10
49837.999563
 20
11266.860302
 30
0.0
 11
49847.186663
 21
11275.609921
 31
0.0
  0
LINE
  8
2
  6
CONTINUOUS
 62
     2
  5
211
 10
49848.499563
 20
11276.860302
 30
0.0
 11
49857.186663
 21
11285.13373
 31
0.0
  0
LINE
  8
2
  6
CONTINUOUS
 62
     2
  5
212
 10
49855.280401
 20
11266.860302
 30
0.0
 11
49847.186663
 21
11275.358727
 31
0.0
  0
LINE
  8
4
  6
CENTER1
 62
     2
  5
213
 10
47942.185763
 20
13204.361302
 30
0.0
 11
49887.185163
 21
13204.361302
 31
0.0
  0
LINE
  8
4
  6
CENTER1
 62
     2
  5
214
 10
47942.185763
 20
11204.360302
 30
0.0
 11
49887.185163
 21
11204.360302
 31
0.0
  0
LINE
  8
4
  6
CENTER1
 62
     2
  5
215
 10
49782.186163
 20
13394.269522
 30
0.0
 11
49782.186163
 21
11141.860302
 31
0.0
  0
CIRCLE
  8
5
  6
CONTINUOUS
 62
     3
  5
216
 10
49782.186163
 20
13549.361302
 30
0.0
 40
7.5
  0
LINE
  8
1
  6
CONTINUOUS
 62
     5
  5
217
 10
48122.186763
 20
11141.860302
 30
0.0
 11
49857.185163
 21
11141.860302
 31
0.0
  0
LINE
  8
1
  6
CONTINUOUS
 62
     5
  5
218
 10
48122.186763
 20
11266.860302
 30
0.0
 11
49857.185163
 21
11266.860302
 31
0.0
  0
LINE
  8
1
  6
CONTINUOUS
 62
     5
  5
219
 10
49857.185163
 20
11266.860302
 30
0.0
 11
49857.185163
 21
11141.860302
 31
0.0
  0
LINE
  8
1
  6
CONTINUOUS
 62
     6
  5
21A
 10
49742.186663
 20
11939.362302
 30
0.0
 11
49717.186663
 21
11939.362302
 31
0.0
  0
LINE
  8
1
  6
CONTINUOUS
 62
     6
  5
21B
 10
49747.186663
 20
11944.362302
 30
0.0
 11
49707.186663
 21
11944.362302
 31
0.0
  0
LINE
  8
1
  6
CONTINUOUS
 62
     6
  5
21C
 10
49768.186663
 20
11949.362302
 30
0.0
 11
49747.186663
 21
11949.362302
 31
0.0
  0
LINE
  8
1
  6
CONTINUOUS
 62
     6
  5
21D
 10
49747.186663
 20
11934.362302
 30
0.0
 11
49747.186663
 21
11949.362302
 31
0.0
  0
LINE
  8
1
  6
CONTINUOUS
 62
     6
  5
21E
 10
49768.186663
 20
11934.362302
 30
0.0
 11
49747.186663
 21
11934.362302
 31
0.0
  0
LINE
  8
1
  6
CONTINUOUS
 62
     6
  5
21F
 10
49768.186663
 20
11934.362302
 30
0.0
 11
49768.186663
 21
11949.362302
 31
0.0
  0
LINE
  8
1
  6
CONTINUOUS
 62
     6
  5
220
 10
49707.186663
 20
11944.362302
 30
0.0
 11
49707.186663
 21
11974.362302
 31
0.0
  0
LINE
  8
1
  6
CONTINUOUS
 62
     6
  5
221
 10
49742.186663
 20
11299.362302
 30
0.0
 11
49742.186663
 21
11939.362302
 31
0.0
  0
LINE
  8
2
  6
CONTINUOUS
 62
     3
  5
222
 10
49747.186663
 20
11949.362302
 30
0.0
 11
49768.186663
 21
11934.362302
 31
0.0
  0
LINE
  8
2
  6
CONTINUOUS
 62
     3
  5
223
 10
49747.186663
 20
11937.073265
 30
0.0
 11
49750.982013
 21
11934.362302
 31
0.0
  0
LINE
  8
2
  6
CONTINUOUS
 62
     3
  5
224
 10
49764.391314
 20
11949.362302
 30
0.0
 11
49768.186663
 21
11946.651338
 31
0.0
  0
LINE
  8
2
  6
CONTINUOUS
 62
     2
  5
225
 10
49808.999563
 20
11944.660302
 30
0.0
 11
49840.186663
 21
11974.362302
 31
0.0
  0
LINE
  8
2
  6
CONTINUOUS
 62
     2
  5
226
 10
49794.499563
 20
11944.660302
 30
0.0
 11
49825.686663
 21
11974.362302
 31
0.0
  0
LINE
  8
2
  6
CONTINUOUS
 62
     2
  5
227
 10
49779.999563
 20
11944.660302
 30
0.0
 11
49811.186663
 21
11974.362302
 31
0.0
  0
LINE
  8
2
  6
CONTINUOUS
 62
     2
  5
228
 10
49768.186663
 20
11947.219444
 30
0.0
 11
49796.686663
 21
11974.362302
 31
0.0
  0
LINE
  8
2
  6
CONTINUOUS
 62
     2
  5
229
 10
49755.936663
 20
11949.362302
 30
0.0
 11
49782.186663
 21
11974.362302
 31
0.0
  0
LINE
  8
2
  6
CONTINUOUS
 62
     2
  5
22A
 10
49736.499563
 20
11944.660302
 30
0.0
 11
49767.686663
 21
11974.362302
 31
0.0
  0
LINE
  8
2
  6
CONTINUOUS
 62
     2
  5
22B
 10
49721.999563
 20
11944.660302
 30
0.0
 11
49753.186663
 21
11974.362302
 31
0.0
  0
LINE
  8
2
  6
CONTINUOUS
 62
     2
  5
22C
 10
49707.499563
 20
11944.660302
 30
0.0
 11
49738.686663
 21
11974.362302
 31
0.0
  0
LINE
  8
2
  6
CONTINUOUS
 62
     2
  5
22D
 10
49707.186663
 20
11958.171825
 30
0.0
 11
49724.186663
 21
11974.362302
 31
0.0
  0
LINE
  8
1
  6
CONTINUOUS
 62
     6
  5
22E
 10
49857.186663
 20
11944.362302
 30
0.0
 11
49768.186663
 21
11944.362302
 31
0.0
  0
LINE
  8
1
  6
CONTINUOUS
 62
     6
  5
22F
 10
49857.186663
 20
11944.362302
 30
0.0
 11
49857.186663
 21
11974.362302
 31
0.0
  0
LINE
  8
1
  6
CONTINUOUS
 62
     6
  5
230
 10
49707.186663
 20
11974.362302
 30
0.0
 11
49857.186663
 21
11974.362302
 31
0.0
  0
LINE
  8
2
  6
CONTINUOUS
 62
     2
  5
231
 10
49823.499563
 20
11944.660302
 30
0.0
 11
49854.686663
 21
11974.362302
 31
0.0
  0
LINE
  8
2
  6
CONTINUOUS
 62
     3
  5
232
 10
49852.186663
 20
11944.362302
 30
0.0
 11
49857.186663
 21
11949.124206
 31
0.0
  0
LINE
  8
2
  6
CONTINUOUS
 62
     2
  5
233
 10
49837.999563
 20
11944.660302
 30
0.0
 11
49857.186663
 21
11962.93373
 31
0.0
  0
LINE
  8
2
  6
CONTINUOUS
 62
     2
  5
234
 10
49747.186663
 20
11288.648016
 30
0.0
 11
49721.999563
 21
11266.860302
 31
0.0
  0
LINE
  8
1
  6
CONTINUOUS
 62
     6
  5
235
 10
49747.186663
 20
11294.362302
 30
0.0
 11
49707.186663
 21
11294.362302
 31
0.0
  0
LINE
  8
1
  6
CONTINUOUS
 62
     6
  5
236
 10
49768.186663
 20
11289.362302
 30
0.0
 11
49747.186663
 21
11289.362302
 31
0.0
  0
LINE
  8
1
  6
CONTINUOUS
 62
     6
  5
237
 10
49707.186663
 20
11294.362302
 30
0.0
 11
49707.186663
 21
11266.562302
 31
0.0
  0
LINE
  8
1
  6
CONTINUOUS
 62
     6
  5
238
 10
49742.186663
 20
11299.362302
 30
0.0
 11
49717.186663
 21
11299.362302
 31
0.0
  0
LINE
  8
1
  6
CONTINUOUS
 62
     6
  5
239
 10
49768.186663
 20
11304.362302
 30
0.0
 11
49747.186663
 21
11304.362302
 31
0.0
  0
LINE
  8
1
  6
CONTINUOUS
 62
     6
  5
23A
 10
49768.186663
 20
11304.362302
 30
0.0
 11
49768.186663
 21
11289.362302
 31
0.0
  0
LINE
  8
1
  6
CONTINUOUS
 62
     6
  5
23B
 10
49747.186663
 20
11304.362302
 30
0.0
 11
49747.186663
 21
11289.362302
 31
0.0
  0
LINE
  8
2
  6
CONTINUOUS
 62
     2
  5
23C
 10
49765.499563
 20
11266.860302
 30
0.0
 11
49796.686663
 21
11294.362302
 31
0.0
  0
LINE
  8
2
  6
CONTINUOUS
 62
     2
  5
23D
 10
49750.999563
 20
11266.860302
 30
0.0
 11
49782.186663
 21
11294.362302
 31
0.0
  0
LINE
  8
2
  6
CONTINUOUS
 62
     2
  5
23E
 10
49779.999563
 20
11266.860302
 30
0.0
 11
49811.186663
 21
11294.362302
 31
0.0
  0
LINE
  8
2
  6
CONTINUOUS
 62
     2
  5
23F
 10
49794.499563
 20
11266.860302
 30
0.0
 11
49825.686663
 21
11294.362302
 31
0.0
  0
LINE
  8
2
  6
CONTINUOUS
 62
     2
  5
240
 10
49808.999563
 20
11266.860302
 30
0.0
 11
49840.186663
 21
11294.362302
 31
0.0
  0
LINE
  8
2
  6
CONTINUOUS
 62
     2
  5
241
 10
49823.499563
 20
11266.860302
 30
0.0
 11
49852.186663
 21
11291.981349
 31
0.0
  0
LINE
  8
2
  6
CONTINUOUS
 62
     2
  5
242
 10
49707.499563
 20
11266.860302
 30
0.0
 11
49738.686663
 21
11294.362302
 31
0.0
  0
LINE
  8
2
  6
CONTINUOUS
 62
     2
  5
243
 10
49707.186663
 20
11280.371825
 30
0.0
 11
49724.186663
 21
11294.362302
 31
0.0
  0
LINE
  8
2
  6
CONTINUOUS
 62
     2
  5
244
 10
49736.499563
 20
11266.860302
 30
0.0
 11
49762.436663
 21
11289.362302
 31
0.0
  0
LINE
  8
2
  6
CONTINUOUS
 62
     3
  5
245
 10
49747.186663
 20
11304.362302
 30
0.0
 11
49768.186663
 21
11289.362302
 31
0.0
  0
LINE
  8
2
  6
CONTINUOUS
 62
     3
  5
246
 10
49747.186663
 20
11292.073265
 30
0.0
 11
49750.982013
 21
11289.362302
 31
0.0
  0
LINE
  8
2
  6
CONTINUOUS
 62
     3
  5
247
 10
49764.391314
 20
11304.362302
 30
0.0
 11
49768.186663
 21
11301.651338
 31
0.0
  0
LINE
  8
1
  6
CONTINUOUS
 62
     6
  5
248
 10
49857.186663
 20
11294.362302
 30
0.0
 11
49768.186663
 21
11294.362302
 31
0.0
  0
LINE
  8
1
  6
CONTINUOUS
 62
     6
  5
249
 10
49857.186663
 20
11294.362302
 30
0.0
 11
49857.186663
 21
11276.860302
 31
0.0
  0
LINE
  8
1
  6
CONTINUOUS
 62
     6
  5
24A
 10
49717.186663
 20
11299.362302
 30
0.0
 11
49717.186663
 21
11939.362302
 31
0.0
  0
LINE
  8
5
  6
CONTINUOUS
 62
     5
  5
24B
 10
49844.686163
 20
11974.362302
 30
0.0
 11
49724.186663
 21
11974.362302
 31
0.0
  0
LINE
  8
5
  6
CONTINUOUS
 62
     5
  5
24C
 10
49844.686163
 20
13294.361302
 30
0.0
 11
47942.185763
 21
13294.361302
 31
0.0
  0
LINE
  8
1
  6
CONTINUOUS
 62
     5
  5
24D
 10
49844.686163
 20
13294.361302
 30
0.0
 11
49844.686163
 21
11974.362302
 31
0.0
  0
LINE
  8
1
  6
CONTINUOUS
 62
     5
  5
24E
 10
49719.686163
 20
13114.360302
 30
0.0
 11
49719.686163
 21
11974.362302
 31
0.0
  0
LINE
  8
5
  6
CONTINUOUS
 62
     5
  5
24F
 10
48122.186763
 20
13114.360302
 30
0.0
 11
49719.686163
 21
13114.360302
 31
0.0
  0
ARC
  8
1
  6
CONTINUOUS
 62
     6
  5
250
 10
49717.186663
 20
11299.362302
 30
0.0
 40
640.0
 50
90.0
 51
180.0
  0
LINE
  8
1
  6
CONTINUOUS
 62
     6
  5
251
 10
49717.186663
 20
11299.362302
 30
0.0
 11
49077.186663
 21
11299.362302
 31
0.0
  0
LINE
  8
5
  6
CONTINUOUS
 62
     3
  5
252
 10
49782.186163
 20
13549.361302
 30
0.0
 11
49782.186163
 21
13449.361302
 31
0.0
  0
LINE
  8
5
  6
CONTINUOUS
 62
     3
  5
253
 10
49782.186163
 20
13549.361302
 30
0.0
 11
48032.186763
 21
13549.361302
 31
0.0
  0
TEXT
  8
5
  6
CONTINUOUS
 62
     3
  5
254
 10
48867.186463
 20
13549.361302
 30
0.0
 40
60.0
  1
1,750
 41
0.6
  7

 72
     5
 11
49047.186463
 21
13549.361302
 31
0.0
  0
LINE
  8
5
  6
CONTINUOUS
 62
     5
  5
255
 10
48122.186163
 20
10705.453374
 30
0.0
 11
48122.186163
 21
8405.453374
 31
0.0
  0
LINE
  8
2
  6
CONTINUOUS
 62
     2
  5
256
 10
48627.494163
 20
8789.805374
 30
0.0
 11
48627.861163
 21
8785.526374
 31
0.0
  0
LINE
  8
2
  6
CONTINUOUS
 62
     2
  5
257
 10
48696.819163
 20
8931.642374
 30
0.0
 11
48647.210163
 21
8935.290374
 31
0.0
  0
LINE
  8
2
  6
CONTINUOUS
 62
     2
  5
258
 10
48811.757163
 20
8921.021374
 30
0.0
 11
48727.814163
 21
8928.944374
 31
0.0
  0
LINE
  8
2
  6
CONTINUOUS
 62
     2
  5
259
 10
48723.510163
 20
8925.502374
 30
0.0
 11
48700.109163
 21
8927.411374
 31
0.0
  0
LINE
  8
2
  6
CONTINUOUS
 62
     2
  5
25A
 10
49018.784163
 20
8813.453374
 30
0.0
 11
49044.511163
 21
8813.674374
 31
0.0
  0
LINE
  8
2
  6
CONTINUOUS
 62
     2
  5
25B
 10
49044.511163
 20
8813.674374
 30
0.0
 11
49059.400163
 21
8814.003374
 31
0.0
  0
LINE
  8
2
  6
CONTINUOUS
 62
     2
  5
25C
 10
49010.694163
 20
8427.132374
 30
0.0
 11
49010.530163
 21
8438.095374
 31
0.0
  0
LINE
  8
2
  6
CONTINUOUS
 62
     2
  5
25D
 10
48637.817163
 20
8776.453374
 30
0.0
 11
48826.052163
 21
8776.453374
 31
0.0
  0
LINE
  8
2
  6
CONTINUOUS
 62
     2
  5
25E
 10
48641.845163
 20
8775.452374
 30
0.0
 11
48640.809163
 21
8776.453374
 31
0.0
  0
LINE
  8
2
  6
CONTINUOUS
 62
     2
  5
25F
 10
49138.846163
 20
8775.452374
 30
0.0
 11
48588.845163
 21
8775.452374
 31
0.0
  0
LINE
  8
2
  6
CONTINUOUS
 62
     2
  5
260
 10
48768.345163
 20
8775.452374
 30
0.0
 11
48768.345163
 21
8776.453374
 31
0.0
  0
LINE
  8
2
  6
CONTINUOUS
 62
     2
  5
261
 10
48647.843163
 20
8775.452374
 30
0.0
 11
48647.843163
 21
8776.453374
 31
0.0
  0
LINE
  8
2
  6
CONTINUOUS
 62
     2
  5
262
 10
48665.848163
 20
8775.452374
 30
0.0
 11
48665.848163
 21
8776.453374
 31
0.0
  0
LINE
  8
2
  6
CONTINUOUS
 62
     2
  5
263
 10
48625.856163
 20
8791.440374
 30
0.0
 11
48627.494163
 21
8789.805374
 31
0.0
  0
LINE
  8
2
  6
CONTINUOUS
 62
     2
  5
264
 10
48795.747163
 20
8898.166374
 30
0.0
 11
48794.609163
 21
8915.256374
 31
0.0
  0
LINE
  8
2
  6
CONTINUOUS
 62
     2
  5
265
 10
48700.109163
 20
8927.411374
 30
0.0
 11
48699.447163
 21
8929.539374
 31
0.0
  0
LINE
  8
2
  6
CONTINUOUS
 62
     2
  5
266
 10
48643.567163
 20
8933.457374
 30
0.0
 11
48629.450163
 21
8911.392374
 31
0.0
  0
LINE
  8
2
  6
CONTINUOUS
 62
     2
  5
267
 10
48628.817163
 20
8909.336374
 30
0.0
 11
48625.860163
 21
8791.440374
 31
0.0
  0
LINE
  8
2
  6
CONTINUOUS
 62
     2
  5
268
 10
48629.275163
 20
8904.654374
 30
0.0
 11
48643.567163
 21
8926.981374
 31
0.0
  0
LINE
  8
2
  6
CONTINUOUS
 62
     2
  5
269
 10
48793.258163
 20
8916.990374
 30
0.0
 11
48807.372163
 21
8913.952374
 31
0.0
  0
LINE
  8
2
  6
CONTINUOUS
 62
     2
  5
26A
 10
48853.541163
 20
8780.453374
 30
0.0
 11
49015.237163
 21
8780.453374
 31
0.0
  0
LINE
  8
2
  6
CONTINUOUS
 62
     2
  5
26B
 10
48837.216163
 20
8790.453374
 30
0.0
 11
49152.844163
 21
8790.453374
 31
0.0
  0
LINE
  8
2
  6
CONTINUOUS
 62
     2
  5
26C
 10
48853.541163
 20
8790.453374
 30
0.0
 11
48853.541163
 21
8779.452374
 31
0.0
  0
LINE
  8
2
  6
CONTINUOUS
 62
     2
  5
26D
 10
49041.952163
 20
8780.453374
 30
0.0
 11
49091.960163
 21
8780.453374
 31
0.0
  0
LINE
  8
2
  6
CONTINUOUS
 62
     2
  5
26E
 10
49015.237163
 20
8790.453374
 30
0.0
 11
49015.237163
 21
8780.453374
 31
0.0
  0
LINE
  8
2
  6
CONTINUOUS
 62
     2
  5
26F
 10
49041.952163
 20
8785.452374
 30
0.0
 11
49041.952163
 21
8780.453374
 31
0.0
  0
LINE
  8
2
  6
CONTINUOUS
 62
     2
  5
270
 10
49015.237163
 20
8780.453374
 30
0.0
 11
49015.230163
 21
8779.484374
 31
0.0
  0
LINE
  8
2
  6
CONTINUOUS
 62
     2
  5
271
 10
49041.943163
 20
8779.422374
 30
0.0
 11
49041.952163
 21
8780.453374
 31
0.0
  0
LINE
  8
2
  6
CONTINUOUS
 62
     2
  5
272
 10
49040.493163
 20
8826.440374
 30
0.0
 11
49042.671163
 21
8816.326374
 31
0.0
  0
LINE
  8
2
  6
CONTINUOUS
 62
     2
  5
273
 10
49060.814163
 20
8816.351374
 30
0.0
 11
49062.996163
 21
8825.808374
 31
0.0
  0
LINE
  8
2
  6
CONTINUOUS
 62
     2
  5
274
 10
48384.845163
 20
9220.453374
 30
0.0
 11
48598.843163
 21
9220.453374
 31
0.0
  0
LINE
  8
2
  6
CONTINUOUS
 62
     2
  5
275
 10
48382.024163
 20
9216.453374
 30
0.0
 11
48601.622163
 21
9216.453374
 31
0.0
  0
LINE
  8
2
  6
CONTINUOUS
 62
     2
  5
276
 10
48402.805163
 20
8785.452374
 30
0.0
 11
48586.032163
 21
8785.452374
 31
0.0
  0
LINE
  8
2
  6
CONTINUOUS
 62
     2
  5
277
 10
48386.154163
 20
8904.969374
 30
0.0
 11
48381.842163
 21
9209.452374
 31
0.0
  0
LINE
  8
2
  6
CONTINUOUS
 62
     2
  5
278
 10
48381.842163
 20
9215.624374
 30
0.0
 11
48381.842163
 21
9209.452374
 31
0.0
  0
LINE
  8
2
  6
CONTINUOUS
 62
     2
  5
279
 10
48601.790163
 20
9215.627374
 30
0.0
 11
48597.472163
 21
8839.932374
 31
0.0
  0
LINE
  8
2
  6
CONTINUOUS
 62
     2
  5
27A
 10
48382.430163
 20
9217.039374
 30
0.0
 11
48385.262163
 21
9219.867374
 31
0.0
  0
LINE
  8
2
  6
CONTINUOUS
 62
     2
  5
27B
 10
48601.209163
 20
9217.058374
 30
0.0
 11
48598.430163
 21
9219.860374
 31
0.0
  0
LINE
  8
2
  6
CONTINUOUS
 62
     2
  5
27C
 10
48381.842163
 20
9223.452374
 30
0.0
 11
48381.842163
 21
9254.031374
 31
0.0
  0
LINE
  8
2
  6
CONTINUOUS
 62
     2
  5
27D
 10
48394.791163
 20
9261.756374
 30
0.0
 11
48588.264163
 21
9261.756374
 31
0.0
  0
LINE
  8
2
  6
CONTINUOUS
 62
     2
  5
27E
 10
48601.842163
 20
9223.452374
 30
0.0
 11
48601.842163
 21
9254.031374
 31
0.0
  0
LINE
  8
2
  6
CONTINUOUS
 62
     2
  5
27F
 10
49010.575163
 20
8435.452374
 30
0.0
 11
49010.575163
 21
8443.953374
 31
0.0
  0
LINE
  8
2
  6
CONTINUOUS
 62
     2
  5
280
 10
48448.848163
 20
8784.453374
 30
0.0
 11
48448.848163
 21
8715.453374
 31
0.0
  0
LINE
  8
2
  6
CONTINUOUS
 62
     2
  5
281
 10
49010.575163
 20
8443.953374
 30
0.0
 11
49011.489163
 21
8442.581374
 31
0.0
  0
LINE
  8
2
  6
CONTINUOUS
 62
     2
  5
282
 10
48583.844163
 20
8781.452374
 30
0.0
 11
48448.848163
 21
8781.452374
 31
0.0
  0
LINE
  8
2
  6
CONTINUOUS
 62
     2
  5
283
 10
48458.846163
 20
8784.453374
 30
0.0
 11
48458.846163
 21
8781.452374
 31
0.0
  0
LINE
  8
2
  6
CONTINUOUS
 62
     2
  5
284
 10
48583.844163
 20
8781.452374
 30
0.0
 11
48583.844163
 21
8780.453374
 31
0.0
  0
LINE
  8
2
  6
CONTINUOUS
 62
     2
  5
285
 10
48556.846163
 20
8784.453374
 30
0.0
 11
48556.846163
 21
8781.452374
 31
0.0
  0
LINE
  8
2
  6
CONTINUOUS
 62
     2
  5
286
 10
48546.844163
 20
8784.453374
 30
0.0
 11
48546.844163
 21
8781.452374
 31
0.0
  0
LINE
  8
2
  6
CONTINUOUS
 62
     2
  5
287
 10
48489.844163
 20
8476.453374
 30
0.0
 11
48486.845163
 21
8478.953374
 31
0.0
  0
LINE
  8
2
  6
CONTINUOUS
 62
     2
  5
288
 10
48486.845163
 20
8478.953374
 30
0.0
 11
48461.845163
 21
8478.953374
 31
0.0
  0
LINE
  8
2
  6
CONTINUOUS
 62
     2
  5
289
 10
48461.845163
 20
8478.953374
 30
0.0
 11
48458.846163
 21
8476.953374
 31
0.0
  0
LINE
  8
2
  6
CONTINUOUS
 62
     2
  5
28A
 10
48486.845163
 20
8571.952374
 30
0.0
 11
48461.845163
 21
8571.952374
 31
0.0
  0
LINE
  8
2
  6
CONTINUOUS
 62
     2
  5
28B
 10
48489.844163
 20
8574.453374
 30
0.0
 11
48486.845163
 21
8571.952374
 31
0.0
  0
LINE
  8
2
  6
CONTINUOUS
 62
     2
  5
28C
 10
48461.845163
 20
8571.952374
 30
0.0
 11
48458.846163
 21
8573.952374
 31
0.0
  0
LINE
  8
2
  6
CONTINUOUS
 62
     2
  5
28D
 10
48458.846163
 20
8573.952374
 30
0.0
 11
48451.847163
 21
8573.952374
 31
0.0
  0
LINE
  8
2
  6
CONTINUOUS
 62
     2
  5
28E
 10
48458.846163
 20
8476.953374
 30
0.0
 11
48451.847163
 21
8476.953374
 31
0.0
  0
LINE
  8
2
  6
CONTINUOUS
 62
     2
  5
28F
 10
48451.847163
 20
8573.952374
 30
0.0
 11
48451.847163
 21
8476.953374
 31
0.0
  0
LINE
  8
2
  6
CONTINUOUS
 62
     2
  5
290
 10
48492.805163
 20
8476.453374
 30
0.0
 11
48489.844163
 21
8476.453374
 31
0.0
  0
LINE
  8
2
  6
CONTINUOUS
 62
     2
  5
291
 10
48493.284163
 20
8487.968374
 30
0.0
 11
48489.844163
 21
8405.453374
 31
0.0
  0
LINE
  8
2
  6
CONTINUOUS
 62
     2
  5
292
 10
48489.844163
 20
8574.453374
 30
0.0
 11
48492.346163
 21
8574.453374
 31
0.0
  0
LINE
  8
2
  6
CONTINUOUS
 62
     2
  5
293
 10
48449.792163
 20
8711.201374
 30
0.0
 11
48454.846163
 21
8700.453374
 31
0.0
  0
LINE
  8
2
  6
CONTINUOUS
 62
     2
  5
294
 10
48489.844163
 20
8623.453374
 30
0.0
 11
48492.346163
 21
8574.453374
 31
0.0
  0
LINE
  8
2
  6
CONTINUOUS
 62
     2
  5
295
 10
48454.846163
 20
8700.453374
 30
0.0
 11
48489.844163
 21
8623.453374
 31
0.0
  0
LINE
  8
2
  6
CONTINUOUS
 62
     2
  5
296
 10
49010.845163
 20
8405.453374
 30
0.0
 11
48489.844163
 21
8405.453374
 31
0.0
  0
LINE
  8
2
  6
CONTINUOUS
 62
     2
  5
297
 10
48497.599163
 20
8430.452374
 30
0.0
 11
48602.843163
 21
8430.452374
 31
0.0
  0
LINE
  8
2
  6
CONTINUOUS
 62
     2
  5
298
 10
48728.763163
 20
8608.452374
 30
0.0
 11
48651.843163
 21
8608.452374
 31
0.0
  0
LINE
  8
2
  6
CONTINUOUS
 62
     2
  5
299
 10
48725.427163
 20
8710.452374
 30
0.0
 11
48667.966163
 21
8710.452374
 31
0.0
  0
LINE
  8
2
  6
CONTINUOUS
 62
     2
  5
29A
 10
48542.193163
 20
8750.453374
 30
0.0
 11
48451.850163
 21
8750.453374
 31
0.0
  0
LINE
  8
2
  6
CONTINUOUS
 62
     2
  5
29B
 10
48568.737163
 20
8736.804374
 30
0.0
 11
48547.159163
 21
8749.136374
 31
0.0
  0
LINE
  8
2
  6
CONTINUOUS
 62
     2
  5
29C
 10
48606.843163
 20
8434.453374
 30
0.0
 11
48606.843163
 21
8563.452374
 31
0.0
  0
LINE
  8
2
  6
CONTINUOUS
 62
     2
  5
29D
 10
48505.270163
 20
8499.453374
 30
0.0
 11
48594.843163
 21
8499.453374
 31
0.0
  0
LINE
  8
2
  6
CONTINUOUS
 62
     2
  5
29E
 10
48504.024163
 20
8469.452374
 30
0.0
 11
48606.843163
 21
8469.452374
 31
0.0
  0
ARC
  8
2
  6
CONTINUOUS
 62
     2
  5
29F
 10
48637.817163
 20
8786.453374
 30
0.0
 40
10.0
 50
185.32105
 51
270.0
  0
ARC
  8
2
  6
CONTINUOUS
 62
     2
  5
2A0
 10
48696.581163
 20
8928.652374
 30
0.0
 40
2.999999
 50
17.23331
 51
85.507447
  0
ARC
  8
2
  6
CONTINUOUS
 62
     2
  5
2A1
 10
48823.690163
 20
8888.014374
 30
0.0
 40
7.999999
 50
6.7858
 51
85.367264
  0
ARC
  8
2
  6
CONTINUOUS
 62
     2
  5
2A2
 10
48632.817163
 20
8909.237374
 30
0.0
 40
3.999999
 50
147.380753
 51
178.5625
  0
ARC
  8
2
  6
CONTINUOUS
 62
     2
  5
2A3
 10
48646.937163
 20
8931.301374
 30
0.0
 40
3.999999
 50
86.077439
 51
147.380753
  0
ARC
  8
2
  6
CONTINUOUS
 62
     2
  5
2A4
 10
48646.937163
 20
8924.825374
 30
0.0
 40
3.999999
 50
86.077439
 51
147.380753
  0
ARC
  8
2
  6
CONTINUOUS
 62
     2
  5
2A5
 10
49046.951163
 20
8785.452374
 30
0.0
 40
5.0
 50
90.0
 51
180.0
  0
ARC
  8
2
  6
CONTINUOUS
 62
     2
  5
2A6
 10
49091.960163
 20
8782.453374
 30
0.0
 40
2.0
 50
270.0
 51
354.54863
  0
ARC
  8
2
  6
CONTINUOUS
 62
     2
  5
2A7
 10
49019.229163
 20
8779.452374
 30
0.0
 40
3.999999
 50
179.557617
 51
270.0
  0
ARC
  8
2
  6
CONTINUOUS
 62
     2
  5
2A8
 10
49037.943163
 20
8779.452374
 30
0.0
 40
3.999999
 50
270.0
 51
359.55762
  0
ARC
  8
2
  6
CONTINUOUS
 62
     2
  5
2A9
 10
48849.541163
 20
8779.452374
 30
0.0
 40
3.999999
 50
270.0
 51
0.0
  0
ARC
  8
2
  6
CONTINUOUS
 62
     2
  5
2AA
 10
48458.846163
 20
8715.453374
 30
0.0
 40
10.0
 50
180.0
 51
205.16877
  0
ARC
  8
2
  6
CONTINUOUS
 62
     2
  5
2AB
 10
49010.658163
 20
8442.026374
 30
0.0
 40
1.0
 50
15.89789
 51
33.69007
  0
ARC
  8
2
  6
CONTINUOUS
 62
     2
  5
2AC
 10
48826.052163
 20
8786.453374
 30
0.0
 40
10.0
 50
270.0
 51
346.60906
  0
ARC
  8
2
  6
CONTINUOUS
 62
     2
  5
2AD
 10
48833.135163
 20
8779.452374
 30
0.0
 40
3.999999
 50
214.37337
 51
270.0
  0
ARC
  8
2
  6
CONTINUOUS
 62
     2
  5
2AE
 10
48305.172163
 20
3940.529374
 30
0.0
 40
4999.9993
 50
84.39798
 51
86.077439
  0
ARC
  8
2
  6
CONTINUOUS
 62
     2
  5
2AF
 10
48582.032163
 20
5905.789374
 30
0.0
 40
2999.9996
 50
85.367264
 51
88.956574
  0
ARC
  8
2
  6
CONTINUOUS
 62
     2
  5
2B0
 10
48818.843163
 20
8800.453374
 30
0.0
 40
19.999999
 50
348.97945
 51
0.0
  0
ARC
  8
2
  6
CONTINUOUS
 62
     2
  5
2B1
 10
48543.950163
 20
8853.612374
 30
0.0
 40
299.98851
 50
346.60906
 51
349.05013
  0
ARC
  8
2
  6
CONTINUOUS
 62
     2
  5
2B2
 10
48636.516163
 20
8897.293374
 30
0.0
 40
7.999999
 50
88.956574
 51
178.5625
  0
ARC
  8
2
  6
CONTINUOUS
 62
     2
  5
2B3
 10
48793.115163
 20
8915.156374
 30
0.0
 40
1.499999
 50
3.80657
 51
84.39798
  0
ARC
  8
2
  6
CONTINUOUS
 62
     2
  5
2B4
 10
47640.038163
 20
8747.169374
 30
0.0
 40
1199.9999
 50
2.55929
 51
6.7858
  0
ARC
  8
2
  6
CONTINUOUS
 62
     2
  5
2B5
 10
48632.645163
 20
8902.497374
 30
0.0
 40
3.999999
 50
147.380753
 51
178.5625
  0
ARC
  8
2
  6
CONTINUOUS
 62
     2
  5
2B6
 10
49102.770163
 20
12211.596374
 30
0.0
 40
3399.9999
 50
265.52875
 51
267.46654
  0
ARC
  8
2
  6
CONTINUOUS
 62
     2
  5
2B7
 10
49152.844163
 20
8791.454374
 30
0.0
 40
1.0
 50
270.0
 51
9.54886
  0
ARC
  8
2
  6
CONTINUOUS
 62
     2
  5
2B8
 10
49141.457163
 20
8809.453374
 30
0.0
 40
9.0
 50
10.97161
 51
96.652543
  0
ARC
  8
2
  6
CONTINUOUS
 62
     2
  5
2B9
 10
48364.919163
 20
8658.908374
 30
0.0
 40
799.99998
 50
9.54886
 51
10.97161
  0
ARC
  8
2
  6
CONTINUOUS
 62
     2
  5
2BA
 10
49118.838163
 20
8779.888374
 30
0.0
 40
24.999999
 50
155.001099
 51
174.54863
  0
ARC
  8
2
  6
CONTINUOUS
 62
     2
  5
2BB
 10
49018.784163
 20
10313.452374
 30
0.0
 40
1499.9998
 50
267.46654
 51
270.0
  0
ARC
  8
2
  6
CONTINUOUS
 62
     2
  5
2BC
 10
49076.996163
 20
9725.699374
 30
0.0
 40
899.99979
 50
254.39087
 51
274.42421
  0
ARC
  8
2
  6
CONTINUOUS
 62
     2
  5
2BD
 10
49243.236163
 20
9843.402374
 30
0.0
 40
999.99992
 50
254.94193
 51
264.11771
  0
ARC
  8
2
  6
CONTINUOUS
 62
     2
  5
2BE
 10
48366.767163
 20
8654.280374
 30
0.0
 40
799.99998
 50
12.65891
 51
13.6922
  0
ARC
  8
2
  6
CONTINUOUS
 62
     2
  5
2BF
 10
49135.287163
 20
8841.514374
 30
0.0
 40
9.0
 50
13.6922
 51
71.33884
  0
ARC
  8
2
  6
CONTINUOUS
 62
     2
  5
2C0
 10
48658.212163
 20
7428.900374
 30
0.0
 40
1499.9998
 50
71.33884
 51
84.124817
  0
ARC
  8
2
  6
CONTINUOUS
 62
     2
  5
2C1
 10
49146.345163
 20
8829.378374
 30
0.0
 40
1.0
 50
274.42421
 51
12.65891
  0
ARC
  8
2
  6
CONTINUOUS
 62
     2
  5
2C2
 10
48593.741163
 20
7429.243374
 30
0.0
 40
1499.9998
 50
74.94193
 51
81.812104
  0
ARC
  8
2
  6
CONTINUOUS
 62
     2
  5
2C3
 10
49046.982163
 20
8817.348374
 30
0.0
 40
4.430167
 50
193.33194
 51
236.05881
  0
ARC
  8
2
  6
CONTINUOUS
 62
     2
  5
2C4
 10
48727.471163
 20
8924.958374
 30
0.0
 40
3.999999
 50
85.090973
 51
172.192932
  0
ARC
  8
2
  6
CONTINUOUS
 62
     2
  5
2C5
 10
49018.784163
 20
10313.452374
 30
0.0
 40
1499.9998
 50
271.55163
 51
274.65102
  0
ARC
  8
2
  6
CONTINUOUS
 62
     2
  5
2C6
 10
49056.496163
 20
8817.348374
 30
0.0
 40
4.430192
 50
310.97378
 51
346.9965
  0
ARC
  8
2
  6
CONTINUOUS
 62
     2
  5
2C7
 10
48491.842163
 20
8570.453374
 30
0.0
 40
699.99985
 50
81.595246
 51
98.40474
  0
ARC
  8
2
  6
CONTINUOUS
 62
     2
  5
2C8
 10
48592.845163
 20
9254.031374
 30
0.0
 40
9.000289
 50
359.99785
 51
81.593674
  0
ARC
  8
2
  6
CONTINUOUS
 62
     2
  5
2C9
 10
48586.032163
 20
8792.453374
 30
0.0
 40
7.000002
 50
269.99997
 51
349.98783
  0
ARC
  8
2
  6
CONTINUOUS
 62
     2
  5
2CA
 10
48402.805163
 20
8792.453374
 30
0.0
 40
7.000007
 50
188.99143
 51
270.00008
  0
ARC
  8
2
  6
CONTINUOUS
 62
     2
  5
2CB
 10
49186.074163
 20
8916.290374
 30
0.0
 40
799.99998
 50
180.81086
 51
188.98432
  0
ARC
  8
2
  6
CONTINUOUS
 62
     2
  5
2CC
 10
48297.494163
 20
8843.381374
 30
0.0
 40
300.00015
 50
349.99006
 51
359.34131
  0
ARC
  8
2
  6
CONTINUOUS
 62
     2
  5
2CD
 10
48386.672163
 20
9218.453374
 30
0.0
 40
2.000273
 50
89.981095
 51
134.9973
  0
ARC
  8
2
  6
CONTINUOUS
 62
     2
  5
2CE
 10
48383.844163
 20
9215.624374
 30
0.0
 40
1.99992
 50
134.990387
 51
179.994446
  0
ARC
  8
2
  6
CONTINUOUS
 62
     2
  5
2CF
 10
48597.010163
 20
9218.453374
 30
0.0
 40
2.000035
 50
44.75327
 51
90.002411
  0
ARC
  8
2
  6
CONTINUOUS
 62
     2
  5
2D0
 10
48599.792163
 20
9215.650374
 30
0.0
 40
2.000016
 50
359.34221
 51
44.75399
  0
ARC
  8
2
  6
CONTINUOUS
 62
     2
  5
2D1
 10
48598.843163
 20
9223.452374
 30
0.0
 40
2.999999
 50
270.0
 51
0.0
  0
ARC
  8
2
  6
CONTINUOUS
 62
     2
  5
2D2
 10
48384.845163
 20
9223.452374
 30
0.0
 40
2.999999
 50
180.0
 51
270.0
  0
ARC
  8
2
  6
CONTINUOUS
 62
     2
  5
2D3
 10
48390.843163
 20
9254.031374
 30
0.0
 40
9.000363
 50
98.41005
 51
180.00268
  0
ARC
  8
2
  6
CONTINUOUS
 62
     2
  5
2D4
 10
49010.057163
 20
8438.306374
 30
0.0
 40
0.518105
 50
335.86434
 51
0.44928
  0
ARC
  8
2
  6
CONTINUOUS
 62
     2
  5
2D5
 10
48987.577163
 20
8435.452374
 30
0.0
 40
24.999999
 50
344.1021
 51
15.89789
  0
ARC
  8
2
  6
CONTINUOUS
 62
     2
  5
2D6
 10
49138.846163
 20
8767.452374
 30
0.0
 40
7.999971
 50
349.99964
 51
89.999817
  0
ARC
  8
2
  6
CONTINUOUS
 62
     2
  5
2D7
 10
49052.846163
 20
8583.454374
 30
0.0
 40
49.999742
 50
116.539399
 51
185.06452
  0
ARC
  8
2
  6
CONTINUOUS
 62
     2
  5
2D8
 10
48918.800163
 20
8851.841374
 30
0.0
 40
249.99946
 50
296.53948
 51
323.32251
  0
ARC
  8
2
  6
CONTINUOUS
 62
     2
  5
2D9
 10
48999.002163
 20
8792.110374
 30
0.0
 40
150.00029
 50
323.32235
 51
350.00016
  0
ARC
  8
2
  6
CONTINUOUS
 62
     2
  5
2DA
 10
48457.845163
 20
8784.453374
 30
0.0
 40
1.0
 50
0.0
 51
90.0
  0
ARC
  8
2
  6
CONTINUOUS
 62
     2
  5
2DB
 10
48449.845163
 20
8784.453374
 30
0.0
 40
1.0
 50
90.0
 51
180.0
  0
ARC
  8
2
  6
CONTINUOUS
 62
     2
  5
2DC
 10
47010.834163
 20
8402.506374
 30
0.0
 40
2000.0092
 50
1.01957
 51
5.06386
  0
ARC
  8
2
  6
CONTINUOUS
 62
     2
  5
2DD
 10
48588.845163
 20
8780.453374
 30
0.0
 40
5.000128
 50
180.00145
 51
269.99854
  0
ARC
  8
2
  6
CONTINUOUS
 62
     2
  5
2DE
 10
48555.845163
 20
8784.453374
 30
0.0
 40
1.0
 50
0.0
 51
90.0
  0
ARC
  8
2
  6
CONTINUOUS
 62
     2
  5
2DF
 10
48547.845163
 20
8784.453374
 30
0.0
 40
1.0
 50
90.0
 51
180.0
  0
ARC
  8
2
  6
CONTINUOUS
 62
     2
  5
2E0
 10
48728.763163
 20
8620.452374
 30
0.0
 40
12.000091
 50
269.99972
 51
23.54625
  0
ARC
  8
2
  6
CONTINUOUS
 62
     2
  5
2E1
 10
48451.847163
 20
8753.454374
 30
0.0
 40
3.002011
 50
180.05707
 51
270.05707
  0
ARC
  8
2
  6
CONTINUOUS
 62
     2
  5
2E2
 10
49281.811163
 20
8861.453374
 30
0.0
 40
591.27457
 50
194.7961
 51
203.54604
  0
ARC
  8
2
  6
CONTINUOUS
 62
     2
  5
2E3
 10
48667.966163
 20
8910.453374
 30
0.0
 40
200.00028
 50
240.25495
 51
269.99987
  0
ARC
  8
2
  6
CONTINUOUS
 62
     2
  5
2E4
 10
48542.193163
 20
8740.452374
 30
0.0
 40
10.000138
 50
60.25496
 51
90.002961
  0
ARC
  8
2
  6
CONTINUOUS
 62
     2
  5
2E5
 10
48497.599163
 20
8423.453374
 30
0.0
 40
6.999546
 50
90.003861
 51
177.612808
  0
ARC
  8
2
  6
CONTINUOUS
 62
     2
  5
2E6
 10
48602.843163
 20
8434.453374
 30
0.0
 40
3.999999
 50
270.0
 51
0.0
  0
ARC
  8
2
  6
CONTINUOUS
 62
     2
  5
2E7
 10
48651.843163
 20
8563.452374
 30
0.0
 40
44.999994
 50
90.0
 51
180.0
  0
ARC
  8
2
  6
CONTINUOUS
 62
     2
  5
2E8
 10
48504.024163
 20
8457.452374
 30
0.0
 40
11.999709
 50
90.001435
 51
177.613297
  0
ARC
  8
2
  6
CONTINUOUS
 62
     2
  5
2E9
 10
48505.270163
 20
8487.453374
 30
0.0
 40
11.999709
 50
90.001435
 51
177.613297
  0
ARC
  8
2
  6
CONTINUOUS
 62
     2
  5
2EA
 10
48594.843163
 20
8511.453374
 30
0.0
 40
11.999996
 50
270.0
 51
0.0
  0
LINE
  8
2
  6
CONTINUOUS
 62
     2
  5
2EB
 10
48122.186163
 20
8455.452374
 30
0.0
 11
48491.928591
 21
8455.452374
 31
0.0
  0
LINE
  8
1
  6
CONTINUOUS
 62
     6
  5
2EC
 10
48122.186163
 20
9205.453374
 30
0.0
 11
48122.186163
 21
9125.453374
 31
0.0
  0
LINE
  8
1
  6
CONTINUOUS
 62
     6
  5
2ED
 10
48122.186163
 20
9205.453374
 30
0.0
 11
48122.186163
 21
9125.453374
 31
0.0
  0
LINE
  8
1
  6
CONTINUOUS
 62
     6
  5
2EE
 10
48122.186163
 20
9205.453374
 30
0.0
 11
48122.186163
 21
9125.453374
 31
0.0
  0
LINE
  8
1
  6
CONTINUOUS
 62
     6
  5
2EF
 10
48137.186163
 20
9205.453374
 30
0.0
 11
48122.186163
 21
9205.453374
 31
0.0
  0
LINE
  8
1
  6
CONTINUOUS
 62
     6
  5
2F0
 10
48122.186163
 20
9205.453374
 30
0.0
 11
48122.186163
 21
9125.453374
 31
0.0
  0
LINE
  8
1
  6
CONTINUOUS
 62
     6
  5
2F1
 10
48137.186163
 20
9205.453374
 30
0.0
 11
48137.186163
 21
9140.453374
 31
0.0
  0
LINE
  8
1
  6
CONTINUOUS
 62
     6
  5
2F2
 10
48357.186163
 20
9125.453374
 30
0.0
 11
48122.186163
 21
9125.453374
 31
0.0
  0
LINE
  8
1
  6
CONTINUOUS
 62
     6
  5
2F3
 10
48372.186163
 20
9140.453374
 30
0.0
 11
48137.186163
 21
9140.453374
 31
0.0
  0
LINE
  8
1
  6
CONTINUOUS
 62
     6
  5
2F4
 10
48357.186163
 20
9125.453374
 30
0.0
 11
48357.186163
 21
9015.453374
 31
0.0
  0
LINE
  8
1
  6
CONTINUOUS
 62
     6
  5
2F5
 10
48372.186163
 20
9015.453374
 30
0.0
 11
48372.186163
 21
9140.453374
 31
0.0
  0
LINE
  8
1
  6
CONTINUOUS
 62
     6
  5
2F6
 10
48372.186163
 20
9015.453374
 30
0.0
 11
48357.186163
 21
9015.453374
 31
0.0
  0
LINE
  8
5
  6
CONTINUOUS
 62
     5
  5
2F7
 10
48122.186163
 20
10705.453374
 30
0.0
 11
49719.686163
 21
10705.453374
 31
0.0
  0
LINE
  8
5
  6
CONTINUOUS
 62
     5
  5
2F8
 10
48122.186163
 20
8405.453374
 30
0.0
 11
49719.686163
 21
8405.453374
 31
0.0
  0
LINE
  8
5
  6
CONTINUOUS
 62
     4
  5
2F9
 10
49719.686163
 20
10705.453374
 30
0.0
 11
49719.686163
 21
8405.453374
 31
0.0
  0
TEXT
  8
5
  6
CONTINUOUS
 62
     3
  5
2FA
 10
48813.195577
 20
10936.294639
 30
0.0
 40
90.0
  1
平面図
 41
0.837
  7

 72
     5
 11
49083.195577
 21
10936.294639
 31
0.0
  0
LINE
  8
5
  6
CONTINUOUS
 62
     3
  5
2FB
 10
49702.186163
 20
8405.453374
 30
0.0
 11
49502.186163
 21
8405.453374
 31
0.0
  0
CIRCLE
  8
5
  6
CONTINUOUS
 62
     3
  5
2FC
 10
49702.186163
 20
8405.453374
 30
0.0
 40
7.5
  0
CIRCLE
  8
5
  6
CONTINUOUS
 62
     3
  5
2FD
 10
49602.186163
 20
8405.453374
 30
0.0
 40
7.5
  0
ARC
  8
7
  6
CONTINUOUS
 62
     4
  5
2FE
 10
49499.186163
 20
9505.453374
 30
0.0
 40
7.7
 50
90.0
 51
270.0
  0
ARC
  8
7
  6
CONTINUOUS
 62
     4
  5
2FF
 10
49499.186163
 20
9505.453374
 30
0.0
 40
6.8
 50
90.0
 51
270.0
  0
LINE
  8
7
  6
CONTINUOUS
 62
     4
  5
300
 10
49506.186163
 20
9513.053374
 30
0.0
 11
49499.186163
 21
9513.053374
 31
0.0
  0
LINE
  8
7
  6
CONTINUOUS
 62
     4
  5
301
 10
49499.186163
 20
9512.153374
 30
0.0
 11
49505.486163
 21
9512.153374
 31
0.0
  0
ARC
  8
7
  6
CONTINUOUS
 62
     4
  5
302
 10
49464.186163
 20
9505.453374
 30
0.0
 40
41.8
 50
350.63
 51
9.02
  0
LINE
  8
7
  6
CONTINUOUS
 62
     4
  5
303
 10
49499.186163
 20
9498.653374
 30
0.0
 11
49505.386163
 21
9498.653374
 31
0.0
  0
LINE
  8
7
  6
CONTINUOUS
 62
     4
  5
304
 10
49506.186163
 20
9497.753374
 30
0.0
 11
49499.186163
 21
9497.753374
 31
0.0
  0
ARC
  8
7
  6
CONTINUOUS
 62
     4
  5
305
 10
49464.186163
 20
9505.453374
 30
0.0
 40
45.0
 50
299.87
 51
60.13
  0
ARC
  8
7
  6
DIVIDE
 62
     4
  5
306
 10
49464.186163
 20
9505.453374
 30
0.0
 40
42.7
 50
301.61
 51
58.39
  0
CIRCLE
  8
7
  6
CONTINUOUS
 62
     4
  5
307
 10
49499.186163
 20
9505.453374
 30
0.0
 40
4.0
  0
CIRCLE
  8
7
  6
CONTINUOUS
 62
     4
  5
308
 10
49499.186163
 20
9505.453374
 30
0.0
 40
4.4
  0
ARC
  8
7
  6
CONTINUOUS
 62
     4
  5
309
 10
49446.686163
 20
9535.753374
 30
0.0
 40
7.7
 50
210.0
 51
30.0
  0
ARC
  8
7
  6
CONTINUOUS
 62
     4
  5
30A
 10
49446.686163
 20
9535.753374
 30
0.0
 40
6.8
 50
210.0
 51
30.0
  0
LINE
  8
7
  6
CONTINUOUS
 62
     4
  5
30B
 10
49436.586163
 20
9538.053374
 30
0.0
 11
49440.086163
 21
9531.953374
 31
0.0
  0
LINE
  8
7
  6
CONTINUOUS
 62
     4
  5
30C
 10
49440.886163
 20
9532.453374
 30
0.0
 11
49437.686163
 21
9537.853374
 31
0.0
  0
ARC
  8
7
  6
CONTINUOUS
 62
     4
  5
30D
 10
49464.186163
 20
9505.453374
 30
0.0
 40
41.8
 50
110.63
 51
129.02
  0
LINE
  8
7
  6
CONTINUOUS
 62
     4
  5
30E
 10
49452.586163
 20
9539.153374
 30
0.0
 11
49449.486163
 21
9544.553374
 31
0.0
  0
LINE
  8
7
  6
CONTINUOUS
 62
     4
  5
30F
 10
49449.886163
 20
9545.653374
 30
0.0
 11
49453.386163
 21
9539.653374
 31
0.0
  0
ARC
  8
7
  6
DIVIDE
 62
     4
  5
310
 10
49464.186163
 20
9505.453374
 30
0.0
 40
42.7
 50
98.62
 51
160.29
  0
ARC
  8
7
  6
CONTINUOUS
 62
     4
  5
311
 10
49464.186163
 20
9505.453374
 30
0.0
 40
45.0
 50
98.18
 51
161.32
  0
CIRCLE
  8
7
  6
CONTINUOUS
 62
     4
  5
312
 10
49446.686163
 20
9535.753374
 30
0.0
 40
4.0
  0
CIRCLE
  8
7
  6
CONTINUOUS
 62
     4
  5
313
 10
49446.686163
 20
9535.753374
 30
0.0
 40
4.4
  0
ARC
  8
7
  6
CONTINUOUS
 62
     4
  5
314
 10
49446.686163
 20
9475.153374
 30
0.0
 40
7.7
 50
330.0
 51
150.0
  0
ARC
  8
7
  6
CONTINUOUS
 62
     4
  5
315
 10
49446.686163
 20
9475.153374
 30
0.0
 40
6.8
 50
330.0
 51
150.0
  0
LINE
  8
7
  6
CONTINUOUS
 62
     4
  5
316
 10
49449.786163
 20
9465.253374
 30
0.0
 11
49453.286163
 21
9471.353374
 31
0.0
  0
LINE
  8
7
  6
CONTINUOUS
 62
     4
  5
317
 10
49452.486163
 20
9471.753374
 30
0.0
 11
49449.386163
 21
9466.353374
 31
0.0
  0
ARC
  8
7
  6
CONTINUOUS
 62
     4
  5
318
 10
49464.186163
 20
9505.453374
 30
0.0
 40
41.8
 50
230.63
 51
249.02
  0
LINE
  8
7
  6
CONTINUOUS
 62
     4
  5
319
 10
49440.786163
 20
9478.553374
 30
0.0
 11
49437.686163
 21
9473.153374
 31
0.0
  0
LINE
  8
7
  6
CONTINUOUS
 62
     4
  5
31A
 10
49436.486163
 20
9472.953374
 30
0.0
 11
49439.986163
 21
9478.953374
 31
0.0
  0
ARC
  8
7
  6
DIVIDE
 62
     4
  5
31B
 10
49464.186163
 20
9505.453374
 30
0.0
 40
42.7
 50
199.71
 51
261.38
  0
ARC
  8
7
  6
CONTINUOUS
 62
     4
  5
31C
 10
49464.186163
 20
9505.453374
 30
0.0
 40
45.0
 50
198.68
 51
261.82
  0
CIRCLE
  8
7
  6
CONTINUOUS
 62
     4
  5
31D
 10
49446.686163
 20
9475.153374
 30
0.0
 40
4.0
  0
CIRCLE
  8
7
  6
CONTINUOUS
 62
     4
  5
31E
 10
49446.686163
 20
9475.153374
 30
0.0
 40
4.4
  0
ARC
  8
7
  6
CONTINUOUS
 62
     4
  5
31F
 10
49499.186163
 20
9205.453374
 30
0.0
 40
7.7
 50
90.0
 51
270.0
  0
ARC
  8
7
  6
CONTINUOUS
 62
     4
  5
320
 10
49499.186163
 20
9205.453374
 30
0.0
 40
6.8
 50
90.0
 51
270.0
  0
LINE
  8
7
  6
CONTINUOUS
 62
     4
  5
321
 10
49506.186163
 20
9213.053374
 30
0.0
 11
49499.186163
 21
9213.053374
 31
0.0
  0
LINE
  8
7
  6
CONTINUOUS
 62
     4
  5
322
 10
49499.186163
 20
9212.153374
 30
0.0
 11
49505.486163
 21
9212.153374
 31
0.0
  0
ARC
  8
7
  6
CONTINUOUS
 62
     4
  5
323
 10
49464.186163
 20
9205.453374
 30
0.0
 40
41.8
 50
350.63
 51
9.02
  0
LINE
  8
7
  6
CONTINUOUS
 62
     4
  5
324
 10
49499.186163
 20
9198.653374
 30
0.0
 11
49505.386163
 21
9198.653374
 31
0.0
  0
LINE
  8
7
  6
CONTINUOUS
 62
     4
  5
325
 10
49506.186163
 20
9197.753374
 30
0.0
 11
49499.186163
 21
9197.753374
 31
0.0
  0
ARC
  8
7
  6
DIVIDE
 62
     4
  5
326
 10
49464.186163
 20
9205.453374
 30
0.0
 40
42.7
 50
301.61
 51
58.39
  0
ARC
  8
7
  6
CONTINUOUS
 62
     4
  5
327
 10
49464.186163
 20
9205.453374
 30
0.0
 40
45.0
 50
299.87
 51
60.13
  0
CIRCLE
  8
7
  6
CONTINUOUS
 62
     4
  5
328
 10
49499.186163
 20
9205.453374
 30
0.0
 40
4.0
  0
CIRCLE
  8
7
  6
CONTINUOUS
 62
     4
  5
329
 10
49499.186163
 20
9205.453374
 30
0.0
 40
4.4
  0
ARC
  8
7
  6
CONTINUOUS
 62
     4
  5
32A
 10
49446.686163
 20
9175.153374
 30
0.0
 40
7.7
 50
330.0
 51
150.0
  0
ARC
  8
7
  6
CONTINUOUS
 62
     4
  5
32B
 10
49446.686163
 20
9175.153374
 30
0.0
 40
6.8
 50
330.0
 51
150.0
  0
LINE
  8
7
  6
CONTINUOUS
 62
     4
  5
32C
 10
49449.786163
 20
9165.253374
 30
0.0
 11
49453.286163
 21
9171.353374
 31
0.0
  0
LINE
  8
7
  6
CONTINUOUS
 62
     4
  5
32D
 10
49452.486163
 20
9171.753374
 30
0.0
 11
49449.386163
 21
9166.353374
 31
0.0
  0
ARC
  8
7
  6
CONTINUOUS
 62
     4
  5
32E
 10
49464.186163
 20
9205.453374
 30
0.0
 40
41.8
 50
230.63
 51
249.02
  0
LINE
  8
7
  6
CONTINUOUS
 62
     4
  5
32F
 10
49440.786163
 20
9178.553374
 30
0.0
 11
49437.686163
 21
9173.153374
 31
0.0
  0
LINE
  8
7
  6
CONTINUOUS
 62
     4
  5
330
 10
49436.486163
 20
9172.953374
 30
0.0
 11
49439.986163
 21
9178.953374
 31
0.0
  0
ARC
  8
7
  6
DIVIDE
 62
     4
  5
331
 10
49464.186163
 20
9205.453374
 30
0.0
 40
42.7
 50
199.71
 51
261.38
  0
ARC
  8
7
  6
CONTINUOUS
 62
     4
  5
332
 10
49464.186163
 20
9205.453374
 30
0.0
 40
45.0
 50
198.68
 51
261.82
  0
CIRCLE
  8
7
  6
CONTINUOUS
 62
     4
  5
333
 10
49446.686163
 20
9175.153374
 30
0.0
 40
4.0
  0
CIRCLE
  8
7
  6
CONTINUOUS
 62
     4
  5
334
 10
49446.686163
 20
9175.153374
 30
0.0
 40
4.4
  0
ARC
  8
7
  6
CONTINUOUS
 62
     4
  5
335
 10
49446.686163
 20
9235.753374
 30
0.0
 40
7.7
 50
210.0
 51
30.0
  0
ARC
  8
7
  6
CONTINUOUS
 62
     4
  5
336
 10
49446.686163
 20
9235.753374
 30
0.0
 40
6.8
 50
210.0
 51
30.0
  0
LINE
  8
7
  6
CONTINUOUS
 62
     4
  5
337
 10
49436.586163
 20
9238.053374
 30
0.0
 11
49440.086163
 21
9231.953374
 31
0.0
  0
LINE
  8
7
  6
CONTINUOUS
 62
     4
  5
338
 10
49440.886163
 20
9232.453374
 30
0.0
 11
49437.686163
 21
9237.853374
 31
0.0
  0
ARC
  8
7
  6
CONTINUOUS
 62
     4
  5
339
 10
49464.186163
 20
9205.453374
 30
0.0
 40
41.8
 50
110.63
 51
129.02
  0
LINE
  8
7
  6
CONTINUOUS
 62
     4
  5
33A
 10
49452.586163
 20
9239.153374
 30
0.0
 11
49449.486163
 21
9244.553374
 31
0.0
  0
LINE
  8
7
  6
CONTINUOUS
 62
     4
  5
33B
 10
49449.886163
 20
9245.653374
 30
0.0
 11
49453.386163
 21
9239.653374
 31
0.0
  0
ARC
  8
7
  6
DIVIDE
 62
     4
  5
33C
 10
49464.186163
 20
9205.453374
 30
0.0
 40
42.7
 50
98.62
 51
160.29
  0
ARC
  8
7
  6
CONTINUOUS
 62
     4
  5
33D
 10
49464.186163
 20
9205.453374
 30
0.0
 40
45.0
 50
98.18
 51
161.32
  0
CIRCLE
  8
7
  6
CONTINUOUS
 62
     4
  5
33E
 10
49446.686163
 20
9235.753374
 30
0.0
 40
4.0
  0
CIRCLE
  8
7
  6
CONTINUOUS
 62
     4
  5
33F
 10
49446.686163
 20
9235.753374
 30
0.0
 40
4.4
  0
ARC
  8
7
  6
CONTINUOUS
 62
     4
  5
340
 10
49047.686163
 20
9235.753374
 30
0.0
 40
7.7
 50
150.0
 51
330.0
  0
ARC
  8
7
  6
CONTINUOUS
 62
     4
  5
341
 10
49047.686163
 20
9235.753374
 30
0.0
 40
6.8
 50
150.0
 51
330.0
  0
LINE
  8
7
  6
CONTINUOUS
 62
     4
  5
342
 10
49044.586163
 20
9245.653374
 30
0.0
 11
49041.086163
 21
9239.553374
 31
0.0
  0
LINE
  8
7
  6
CONTINUOUS
 62
     4
  5
343
 10
49041.886163
 20
9239.153374
 30
0.0
 11
49044.986163
 21
9244.553374
 31
0.0
  0
ARC
  8
7
  6
CONTINUOUS
 62
     4
  5
344
 10
49030.186163
 20
9205.453374
 30
0.0
 40
41.8
 50
50.63
 51
69.02
  0
LINE
  8
7
  6
CONTINUOUS
 62
     4
  5
345
 10
49053.586163
 20
9232.353374
 30
0.0
 11
49056.686163
 21
9237.753374
 31
0.0
  0
LINE
  8
7
  6
CONTINUOUS
 62
     4
  5
346
 10
49057.886163
 20
9237.953374
 30
0.0
 11
49054.386163
 21
9231.953374
 31
0.0
  0
ARC
  8
7
  6
DIVIDE
 62
     4
  5
347
 10
49030.186163
 20
9205.453374
 30
0.0
 40
42.7
 50
19.71
 51
81.38
  0
ARC
  8
7
  6
CONTINUOUS
 62
     4
  5
348
 10
49030.186163
 20
9205.453374
 30
0.0
 40
45.0
 50
18.68
 51
81.82
  0
CIRCLE
  8
7
  6
CONTINUOUS
 62
     4
  5
349
 10
49047.686163
 20
9235.753374
 30
0.0
 40
4.4
  0
CIRCLE
  8
7
  6
CONTINUOUS
 62
     4
  5
34A
 10
49047.686163
 20
9235.753374
 30
0.0
 40
4.0
  0
ARC
  8
7
  6
CONTINUOUS
 62
     4
  5
34B
 10
49047.686163
 20
9175.153374
 30
0.0
 40
7.7
 50
30.0
 51
210.0
  0
ARC
  8
7
  6
CONTINUOUS
 62
     4
  5
34C
 10
49047.686163
 20
9175.153374
 30
0.0
 40
6.8
 50
30.0
 51
210.0
  0
LINE
  8
7
  6
CONTINUOUS
 62
     4
  5
34D
 10
49057.786163
 20
9172.853374
 30
0.0
 11
49054.286163
 21
9178.953374
 31
0.0
  0
LINE
  8
7
  6
CONTINUOUS
 62
     4
  5
34E
 10
49053.486163
 20
9178.453374
 30
0.0
 11
49056.686163
 21
9173.053374
 31
0.0
  0
ARC
  8
7
  6
CONTINUOUS
 62
     4
  5
34F
 10
49030.186163
 20
9205.453374
 30
0.0
 40
41.8
 50
290.63
 51
309.02
  0
LINE
  8
7
  6
CONTINUOUS
 62
     4
  5
350
 10
49041.786163
 20
9171.753374
 30
0.0
 11
49044.886163
 21
9166.353374
 31
0.0
  0
LINE
  8
7
  6
CONTINUOUS
 62
     4
  5
351
 10
49044.486163
 20
9165.253374
 30
0.0
 11
49040.986163
 21
9171.253374
 31
0.0
  0
ARC
  8
7
  6
CONTINUOUS
 62
     4
  5
352
 10
49030.186163
 20
9205.453374
 30
0.0
 40
45.0
 50
278.18
 51
341.32
  0
ARC
  8
7
  6
DIVIDE
 62
     4
  5
353
 10
49030.186163
 20
9205.453374
 30
0.0
 40
42.7
 50
278.62
 51
340.29
  0
CIRCLE
  8
7
  6
CONTINUOUS
 62
     4
  5
354
 10
49047.686163
 20
9175.153374
 30
0.0
 40
4.0
  0
CIRCLE
  8
7
  6
CONTINUOUS
 62
     4
  5
355
 10
49047.686163
 20
9175.153374
 30
0.0
 40
4.4
  0
ARC
  8
7
  6
CONTINUOUS
 62
     4
  5
356
 10
48995.186163
 20
9205.453374
 30
0.0
 40
7.7
 50
270.0
 51
90.0
  0
ARC
  8
7
  6
CONTINUOUS
 62
     4
  5
357
 10
48995.186163
 20
9205.453374
 30
0.0
 40
6.8
 50
270.0
 51
90.0
  0
LINE
  8
7
  6
CONTINUOUS
 62
     4
  5
358
 10
48988.186163
 20
9197.853374
 30
0.0
 11
48995.186163
 21
9197.853374
 31
0.0
  0
LINE
  8
7
  6
CONTINUOUS
 62
     4
  5
359
 10
48995.186163
 20
9198.753374
 30
0.0
 11
48988.886163
 21
9198.753374
 31
0.0
  0
ARC
  8
7
  6
CONTINUOUS
 62
     4
  5
35A
 10
49030.186163
 20
9205.453374
 30
0.0
 40
41.8
 50
170.63
 51
189.02
  0
LINE
  8
7
  6
CONTINUOUS
 62
     4
  5
35B
 10
48995.186163
 20
9212.253374
 30
0.0
 11
48988.986163
 21
9212.253374
 31
0.0
  0
LINE
  8
7
  6
CONTINUOUS
 62
     4
  5
35C
 10
48988.186163
 20
9213.153374
 30
0.0
 11
48995.186163
 21
9213.153374
 31
0.0
  0
ARC
  8
7
  6
CONTINUOUS
 62
     4
  5
35D
 10
49030.186163
 20
9205.453374
 30
0.0
 40
45.0
 50
119.87
 51
240.13
  0
ARC
  8
7
  6
DIVIDE
 62
     4
  5
35E
 10
49030.186163
 20
9205.453374
 30
0.0
 40
42.7
 50
121.61
 51
238.39
  0
CIRCLE
  8
7
  6
CONTINUOUS
 62
     4
  5
35F
 10
48995.186163
 20
9205.453374
 30
0.0
 40
4.0
  0
CIRCLE
  8
7
  6
CONTINUOUS
 62
     4
  5
360
 10
48995.186163
 20
9205.453374
 30
0.0
 40
4.4
  0
ARC
  8
7
  6
CONTINUOUS
 62
     4
  5
361
 10
49047.686163
 20
9535.753374
 30
0.0
 40
7.7
 50
150.0
 51
330.0
  0
ARC
  8
7
  6
CONTINUOUS
 62
     4
  5
362
 10
49047.686163
 20
9535.753374
 30
0.0
 40
6.8
 50
150.0
 51
330.0
  0
LINE
  8
7
  6
CONTINUOUS
 62
     4
  5
363
 10
49044.586163
 20
9545.653374
 30
0.0
 11
49041.086163
 21
9539.553374
 31
0.0
  0
LINE
  8
7
  6
CONTINUOUS
 62
     4
  5
364
 10
49041.886163
 20
9539.153374
 30
0.0
 11
49044.986163
 21
9544.553374
 31
0.0
  0
ARC
  8
7
  6
CONTINUOUS
 62
     4
  5
365
 10
49030.186163
 20
9505.453374
 30
0.0
 40
41.8
 50
50.63
 51
69.02
  0
LINE
  8
7
  6
CONTINUOUS
 62
     4
  5
366
 10
49053.586163
 20
9532.353374
 30
0.0
 11
49056.686163
 21
9537.753374
 31
0.0
  0
LINE
  8
7
  6
CONTINUOUS
 62
     4
  5
367
 10
49057.886163
 20
9537.953374
 30
0.0
 11
49054.386163
 21
9531.953374
 31
0.0
  0
ARC
  8
7
  6
CONTINUOUS
 62
     4
  5
368
 10
49030.186163
 20
9505.453374
 30
0.0
 40
45.0
 50
18.68
 51
81.82
  0
ARC
  8
7
  6
DIVIDE
 62
     4
  5
369
 10
49030.186163
 20
9505.453374
 30
0.0
 40
42.7
 50
19.71
 51
81.38
  0
CIRCLE
  8
7
  6
CONTINUOUS
 62
     4
  5
36A
 10
49047.686163
 20
9535.753374
 30
0.0
 40
4.4
  0
CIRCLE
  8
7
  6
CONTINUOUS
 62
     4
  5
36B
 10
49047.686163
 20
9535.753374
 30
0.0
 40
4.0
  0
ARC
  8
7
  6
CONTINUOUS
 62
     4
  5
36C
 10
49047.686163
 20
9475.153374
 30
0.0
 40
7.7
 50
30.0
 51
210.0
  0
ARC
  8
7
  6
CONTINUOUS
 62
     4
  5
36D
 10
49047.686163
 20
9475.153374
 30
0.0
 40
6.8
 50
30.0
 51
210.0
  0
LINE
  8
7
  6
CONTINUOUS
 62
     4
  5
36E
 10
49057.786163
 20
9472.853374
 30
0.0
 11
49054.286163
 21
9478.953374
 31
0.0
  0
LINE
  8
7
  6
CONTINUOUS
 62
     4
  5
36F
 10
49053.486163
 20
9478.453374
 30
0.0
 11
49056.686163
 21
9473.053374
 31
0.0
  0
ARC
  8
7
  6
CONTINUOUS
 62
     4
  5
370
 10
49030.186163
 20
9505.453374
 30
0.0
 40
41.8
 50
290.63
 51
309.02
  0
LINE
  8
7
  6
CONTINUOUS
 62
     4
  5
371
 10
49041.786163
 20
9471.753374
 30
0.0
 11
49044.886163
 21
9466.353374
 31
0.0
  0
LINE
  8
7
  6
CONTINUOUS
 62
     4
  5
372
 10
49044.486163
 20
9465.253374
 30
0.0
 11
49040.986163
 21
9471.253374
 31
0.0
  0
ARC
  8
7
  6
DIVIDE
 62
     4
  5
373
 10
49030.186163
 20
9505.453374
 30
0.0
 40
42.7
 50
278.62
 51
340.29
  0
ARC
  8
7
  6
CONTINUOUS
 62
     4
  5
374
 10
49030.186163
 20
9505.453374
 30
0.0
 40
45.0
 50
278.18
 51
341.32
  0
CIRCLE
  8
7
  6
CONTINUOUS
 62
     4
  5
375
 10
49047.686163
 20
9475.153374
 30
0.0
 40
4.0
  0
CIRCLE
  8
7
  6
CONTINUOUS
 62
     4
  5
376
 10
49047.686163
 20
9475.153374
 30
0.0
 40
4.4
  0
ARC
  8
7
  6
CONTINUOUS
 62
     4
  5
377
 10
48995.186163
 20
9505.453374
 30
0.0
 40
7.7
 50
270.0
 51
90.0
  0
ARC
  8
7
  6
CONTINUOUS
 62
     4
  5
378
 10
48995.186163
 20
9505.453374
 30
0.0
 40
6.8
 50
270.0
 51
90.0
  0
LINE
  8
7
  6
CONTINUOUS
 62
     4
  5
379
 10
48988.186163
 20
9497.853374
 30
0.0
 11
48995.186163
 21
9497.853374
 31
0.0
  0
LINE
  8
7
  6
CONTINUOUS
 62
     4
  5
37A
 10
48995.186163
 20
9498.753374
 30
0.0
 11
48988.886163
 21
9498.753374
 31
0.0
  0
ARC
  8
7
  6
CONTINUOUS
 62
     4
  5
37B
 10
49030.186163
 20
9505.453374
 30
0.0
 40
41.8
 50
170.63
 51
189.02
  0
LINE
  8
7
  6
CONTINUOUS
 62
     4
  5
37C
 10
48995.186163
 20
9512.253374
 30
0.0
 11
48988.986163
 21
9512.253374
 31
0.0
  0
LINE
  8
7
  6
CONTINUOUS
 62
     4
  5
37D
 10
48988.186163
 20
9513.153374
 30
0.0
 11
48995.186163
 21
9513.153374
 31
0.0
  0
ARC
  8
7
  6
DIVIDE
 62
     4
  5
37E
 10
49030.186163
 20
9505.453374
 30
0.0
 40
42.7
 50
121.61
 51
238.39
  0
ARC
  8
7
  6
CONTINUOUS
 62
     4
  5
37F
 10
49030.186163
 20
9505.453374
 30
0.0
 40
45.0
 50
119.87
 51
240.13
  0
CIRCLE
  8
7
  6
CONTINUOUS
 62
     4
  5
380
 10
48995.186163
 20
9505.453374
 30
0.0
 40
4.0
  0
CIRCLE
  8
7
  6
CONTINUOUS
 62
     4
  5
381
 10
48995.186163
 20
9505.453374
 30
0.0
 40
4.4
  0
ARC
  8
7
  6
CONTINUOUS
 62
     4
  5
382
 10
49441.586163
 20
9624.853374
 30
0.0
 40
45.0
 50
0.0
 51
90.0
  0
ARC
  8
7
  6
CONTINUOUS
 62
     4
  5
383
 10
49439.786163
 20
9623.053374
 30
0.0
 40
18.0
 50
0.0
 51
90.0
  0
ARC
  8
7
  6
CONTINUOUS
 62
     4
  5
384
 10
49289.786163
 20
9623.053374
 30
0.0
 40
18.0
 50
0.0
 51
90.0
  0
ARC
  8
7
  6
CONTINUOUS
 62
     4
  5
385
 10
49354.586163
 20
9623.053374
 30
0.0
 40
18.0
 50
90.0
 51
180.0
  0
ARC
  8
7
  6
CONTINUOUS
 62
     4
  5
386
 10
49204.586163
 20
9623.053374
 30
0.0
 40
18.0
 50
90.0
 51
180.0
  0
ARC
  8
7
  6
CONTINUOUS
 62
     4
  5
387
 10
49139.786163
 20
9623.053374
 30
0.0
 40
18.0
 50
0.0
 51
90.0
  0
ARC
  8
7
  6
CONTINUOUS
 62
     4
  5
388
 10
49052.786163
 20
9624.853374
 30
0.0
 40
45.0
 50
90.0
 51
180.0
  0
ARC
  8
7
  6
CONTINUOUS
 62
     4
  5
389
 10
49054.586163
 20
9623.053374
 30
0.0
 40
18.0
 50
90.0
 51
180.0
  0
LINE
  8
7
  6
CONTINUOUS
 62
     4
  5
38A
 10
49157.786163
 20
9173.053374
 30
0.0
 11
49157.786163
 21
9087.853374
 31
0.0
  0
LINE
  8
7
  6
CONTINUOUS
 62
     4
  5
38B
 10
49186.586163
 20
9173.053374
 30
0.0
 11
49186.586163
 21
9087.853374
 31
0.0
  0
LINE
  8
7
  6
CONTINUOUS
 62
     4
  5
38C
 10
49307.786163
 20
9173.053374
 30
0.0
 11
49307.786163
 21
9087.853374
 31
0.0
  0
LINE
  8
7
  6
CONTINUOUS
 62
     4
  5
38D
 10
49336.586163
 20
9173.053374
 30
0.0
 11
49336.586163
 21
9087.853374
 31
0.0
  0
LINE
  8
7
  6
CONTINUOUS
 62
     4
  5
38E
 10
49186.586163
 20
9473.053374
 30
0.0
 11
49186.586163
 21
9387.853374
 31
0.0
  0
LINE
  8
7
  6
CONTINUOUS
 62
     4
  5
38F
 10
49289.786163
 20
9519.853374
 30
0.0
 11
49204.586163
 21
9519.853374
 31
0.0
  0
LINE
  8
7
  6
CONTINUOUS
 62
     4
  5
390
 10
49289.786163
 20
9491.053374
 30
0.0
 11
49204.586163
 21
9491.053374
 31
0.0
  0
LINE
  8
7
  6
CONTINUOUS
 62
     4
  5
391
 10
49289.786163
 20
9219.853374
 30
0.0
 11
49204.586163
 21
9219.853374
 31
0.0
  0
LINE
  8
7
  6
CONTINUOUS
 62
     4
  5
392
 10
49289.786163
 20
9191.053374
 30
0.0
 11
49204.586163
 21
9191.053374
 31
0.0
  0
LINE
  8
7
  6
CONTINUOUS
 62
     4
  5
393
 10
49186.586163
 20
9323.053374
 30
0.0
 11
49186.586163
 21
9237.853374
 31
0.0
  0
LINE
  8
7
  6
CONTINUOUS
 62
     4
  5
394
 10
49307.786163
 20
9323.053374
 30
0.0
 11
49307.786163
 21
9237.853374
 31
0.0
  0
LINE
  8
7
  6
CONTINUOUS
 62
     4
  5
395
 10
49307.786163
 20
9473.053374
 30
0.0
 11
49307.786163
 21
9387.853374
 31
0.0
  0
ARC
  8
7
  6
CONTINUOUS
 62
     4
  5
396
 10
49204.586163
 20
9537.853374
 30
0.0
 40
18.0
 50
180.0
 51
270.0
  0
ARC
  8
7
  6
CONTINUOUS
 62
     4
  5
397
 10
49204.586163
 20
9473.053374
 30
0.0
 40
18.0
 50
90.0
 51
180.0
  0
ARC
  8
7
  6
CONTINUOUS
 62
     4
  5
398
 10
49289.786163
 20
9537.853374
 30
0.0
 40
18.0
 50
270.0
 51
0.0
  0
ARC
  8
7
  6
CONTINUOUS
 62
     4
  5
399
 10
49289.786163
 20
9473.053374
 30
0.0
 40
18.0
 50
0.0
 51
90.0
  0
ARC
  8
7
  6
CONTINUOUS
 62
     4
  5
39A
 10
49204.586163
 20
9237.853374
 30
0.0
 40
18.0
 50
180.0
 51
270.0
  0
ARC
  8
7
  6
CONTINUOUS
 62
     4
  5
39B
 10
49289.786163
 20
9173.053374
 30
0.0
 40
18.0
 50
0.0
 51
90.0
  0
ARC
  8
7
  6
CONTINUOUS
 62
     4
  5
39C
 10
49289.786163
 20
9237.853374
 30
0.0
 40
18.0
 50
270.0
 51
0.0
  0
ARC
  8
7
  6
CONTINUOUS
 62
     4
  5
39D
 10
49204.586163
 20
9173.053374
 30
0.0
 40
18.0
 50
90.0
 51
180.0
  0
LINE
  8
7
  6
CONTINUOUS
 62
     4
  5
39E
 10
49336.586163
 20
9323.053374
 30
0.0
 11
49336.586163
 21
9237.853374
 31
0.0
  0
LINE
  8
7
  6
CONTINUOUS
 62
     4
  5
39F
 10
49336.586163
 20
9473.053374
 30
0.0
 11
49336.586163
 21
9387.853374
 31
0.0
  0
ARC
  8
7
  6
CONTINUOUS
 62
     4
  5
3A0
 10
49354.586163
 20
9173.053374
 30
0.0
 40
18.0
 50
90.0
 51
180.0
  0
ARC
  8
7
  6
CONTINUOUS
 62
     4
  5
3A1
 10
49354.586163
 20
9237.853374
 30
0.0
 40
18.0
 50
180.0
 51
270.0
  0
LINE
  8
7
  6
CONTINUOUS
 62
     4
  5
3A2
 10
49157.786163
 20
9323.053374
 30
0.0
 11
49157.786163
 21
9237.853374
 31
0.0
  0
LINE
  8
7
  6
CONTINUOUS
 62
     4
  5
3A3
 10
49157.786163
 20
9473.053374
 30
0.0
 11
49157.786163
 21
9387.853374
 31
0.0
  0
ARC
  8
7
  6
CONTINUOUS
 62
     4
  5
3A4
 10
49139.786163
 20
9537.853374
 30
0.0
 40
18.0
 50
270.0
 51
0.0
  0
ARC
  8
7
  6
CONTINUOUS
 62
     4
  5
3A5
 10
49139.786163
 20
9473.053374
 30
0.0
 40
18.0
 50
0.0
 51
90.0
  0
ARC
  8
7
  6
CONTINUOUS
 62
     4
  5
3A6
 10
49139.786163
 20
9173.053374
 30
0.0
 40
18.0
 50
0.0
 51
90.0
  0
ARC
  8
7
  6
CONTINUOUS
 62
     4
  5
3A7
 10
49139.786163
 20
9237.853374
 30
0.0
 40
18.0
 50
270.0
 51
0.0
  0
ARC
  8
7
  6
CONTINUOUS
 62
     4
  5
3A8
 10
49354.586163
 20
9537.853374
 30
0.0
 40
18.0
 50
180.0
 51
270.0
  0
ARC
  8
7
  6
CONTINUOUS
 62
     4
  5
3A9
 10
49354.586163
 20
9473.053374
 30
0.0
 40
18.0
 50
90.0
 51
180.0
  0
LINE
  8
7
  6
CONTINUOUS
 62
     4
  5
3AA
 10
49441.586163
 20
9041.053374
 30
0.0
 11
49052.786163
 21
9041.053374
 31
0.0
  0
ARC
  8
7
  6
CONTINUOUS
 62
     4
  5
3AB
 10
49052.786163
 20
9086.053374
 30
0.0
 40
45.0
 50
180.0
 51
270.0
  0
ARC
  8
7
  6
CONTINUOUS
 62
     4
  5
3AC
 10
49441.586163
 20
9086.053374
 30
0.0
 40
45.0
 50
270.0
 51
0.0
  0
LINE
  8
7
  6
CONTINUOUS
 62
     4
  5
3AD
 10
49354.586163
 20
9069.853374
 30
0.0
 11
49439.786163
 21
9069.853374
 31
0.0
  0
ARC
  8
7
  6
CONTINUOUS
 62
     4
  5
3AE
 10
49439.786163
 20
9087.853374
 30
0.0
 40
18.0
 50
270.0
 51
0.0
  0
LINE
  8
7
  6
CONTINUOUS
 62
     4
  5
3AF
 10
49139.786163
 20
9069.853374
 30
0.0
 11
49054.586163
 21
9069.853374
 31
0.0
  0
ARC
  8
7
  6
CONTINUOUS
 62
     4
  5
3B0
 10
49054.586163
 20
9087.853374
 30
0.0
 40
18.0
 50
180.0
 51
270.0
  0
LINE
  8
7
  6
CONTINUOUS
 62
     4
  5
3B1
 10
49289.786163
 20
9069.853374
 30
0.0
 11
49204.586163
 21
9069.853374
 31
0.0
  0
ARC
  8
7
  6
CONTINUOUS
 62
     4
  5
3B2
 10
49204.586163
 20
9087.853374
 30
0.0
 40
18.0
 50
180.0
 51
270.0
  0
ARC
  8
7
  6
CONTINUOUS
 62
     4
  5
3B3
 10
49289.786163
 20
9087.853374
 30
0.0
 40
18.0
 50
270.0
 51
0.0
  0
ARC
  8
7
  6
CONTINUOUS
 62
     4
  5
3B4
 10
49354.586163
 20
9087.853374
 30
0.0
 40
18.0
 50
180.0
 51
270.0
  0
ARC
  8
7
  6
CONTINUOUS
 62
     4
  5
3B5
 10
49139.786163
 20
9087.853374
 30
0.0
 40
18.0
 50
270.0
 51
0.0
  0
LINE
  8
7
  6
CONTINUOUS
 62
     4
  5
3B6
 10
49139.786163
 20
9369.853374
 30
0.0
 11
49054.586163
 21
9369.853374
 31
0.0
  0
LINE
  8
7
  6
CONTINUOUS
 62
     4
  5
3B7
 10
49139.786163
 20
9341.053374
 30
0.0
 11
49054.186163
 21
9341.053374
 31
0.0
  0
ARC
  8
7
  6
CONTINUOUS
 62
     4
  5
3B8
 10
49439.786163
 20
9387.853374
 30
0.0
 40
18.0
 50
270.0
 51
0.0
  0
ARC
  8
7
  6
CONTINUOUS
 62
     4
  5
3B9
 10
49439.786163
 20
9323.053374
 30
0.0
 40
18.0
 50
0.0
 51
90.0
  0
LINE
  8
7
  6
CONTINUOUS
 62
     4
  5
3BA
 10
49354.586163
 20
9369.853374
 30
0.0
 11
49439.786163
 21
9369.853374
 31
0.0
  0
LINE
  8
7
  6
CONTINUOUS
 62
     4
  5
3BB
 10
49354.586163
 20
9341.053374
 30
0.0
 11
49440.186163
 21
9341.053374
 31
0.0
  0
ARC
  8
7
  6
CONTINUOUS
 62
     4
  5
3BC
 10
49054.586163
 20
9387.853374
 30
0.0
 40
18.0
 50
180.0
 51
270.0
  0
ARC
  8
7
  6
CONTINUOUS
 62
     4
  5
3BD
 10
49054.586163
 20
9323.053374
 30
0.0
 40
18.0
 50
90.0
 51
180.0
  0
LINE
  8
7
  6
CONTINUOUS
 62
     4
  5
3BE
 10
49289.786163
 20
9369.853374
 30
0.0
 11
49204.586163
 21
9369.853374
 31
0.0
  0
LINE
  8
7
  6
CONTINUOUS
 62
     4
  5
3BF
 10
49289.786163
 20
9341.053374
 30
0.0
 11
49204.286163
 21
9341.053374
 31
0.0
  0
ARC
  8
7
  6
CONTINUOUS
 62
     4
  5
3C0
 10
49204.586163
 20
9387.853374
 30
0.0
 40
18.0
 50
180.0
 51
270.0
  0
ARC
  8
7
  6
CONTINUOUS
 62
     4
  5
3C1
 10
49204.586163
 20
9323.053374
 30
0.0
 40
18.0
 50
90.0
 51
180.0
  0
ARC
  8
7
  6
CONTINUOUS
 62
     4
  5
3C2
 10
49289.786163
 20
9387.853374
 30
0.0
 40
18.0
 50
270.0
 51
0.0
  0
ARC
  8
7
  6
CONTINUOUS
 62
     4
  5
3C3
 10
49289.786163
 20
9323.053374
 30
0.0
 40
18.0
 50
0.0
 51
90.0
  0
ARC
  8
7
  6
CONTINUOUS
 62
     4
  5
3C4
 10
49139.786163
 20
9387.853374
 30
0.0
 40
18.0
 50
270.0
 51
0.0
  0
ARC
  8
7
  6
CONTINUOUS
 62
     4
  5
3C5
 10
49139.786163
 20
9323.053374
 30
0.0
 40
18.0
 50
0.0
 51
90.0
  0
ARC
  8
7
  6
CONTINUOUS
 62
     4
  5
3C6
 10
49354.586163
 20
9387.853374
 30
0.0
 40
18.0
 50
180.0
 51
270.0
  0
ARC
  8
7
  6
CONTINUOUS
 62
     4
  5
3C7
 10
49354.586163
 20
9323.053374
 30
0.0
 40
18.0
 50
90.0
 51
180.0
  0
LINE
  8
7
  6
CONTINUOUS
 62
     4
  5
3C8
 10
49486.586163
 20
9624.853374
 30
0.0
 11
49486.586163
 21
9086.053374
 31
0.0
  0
LINE
  8
7
  6
CONTINUOUS
 62
     4
  5
3C9
 10
49457.786163
 20
9623.053374
 30
0.0
 11
49457.786163
 21
9537.853374
 31
0.0
  0
LINE
  8
7
  6
CONTINUOUS
 62
     4
  5
3CA
 10
49354.586163
 20
9519.853374
 30
0.0
 11
49439.786163
 21
9519.853374
 31
0.0
  0
ARC
  8
7
  6
CONTINUOUS
 62
     4
  5
3CB
 10
49439.786163
 20
9537.853374
 30
0.0
 40
18.0
 50
270.0
 51
0.0
  0
ARC
  8
7
  6
CONTINUOUS
 62
     4
  5
3CC
 10
49439.786163
 20
9473.053374
 30
0.0
 40
18.0
 50
0.0
 51
90.0
  0
LINE
  8
7
  6
CONTINUOUS
 62
     4
  5
3CD
 10
49354.586163
 20
9491.053374
 30
0.0
 11
49439.786163
 21
9491.053374
 31
0.0
  0
LINE
  8
7
  6
CONTINUOUS
 62
     4
  5
3CE
 10
49457.786163
 20
9473.053374
 30
0.0
 11
49457.786163
 21
9387.853374
 31
0.0
  0
LINE
  8
7
  6
CONTINUOUS
 62
     4
  5
3CF
 10
49439.786163
 20
9641.053374
 30
0.0
 11
49354.586163
 21
9641.053374
 31
0.0
  0
LINE
  8
7
  6
CONTINUOUS
 62
     4
  5
3D0
 10
49336.586163
 20
9623.053374
 30
0.0
 11
49336.586163
 21
9537.853374
 31
0.0
  0
LINE
  8
7
  6
CONTINUOUS
 62
     4
  5
3D1
 10
49441.586163
 20
9669.853374
 30
0.0
 11
49052.786163
 21
9669.853374
 31
0.0
  0
LINE
  8
7
  6
CONTINUOUS
 62
     4
  5
3D2
 10
49457.786163
 20
9323.053374
 30
0.0
 11
49457.786163
 21
9237.853374
 31
0.0
  0
ARC
  8
7
  6
CONTINUOUS
 62
     4
  5
3D3
 10
49439.786163
 20
9237.853374
 30
0.0
 40
18.0
 50
270.0
 51
0.0
  0
LINE
  8
7
  6
CONTINUOUS
 62
     4
  5
3D4
 10
49354.586163
 20
9219.853374
 30
0.0
 11
49439.786163
 21
9219.853374
 31
0.0
  0
ARC
  8
7
  6
CONTINUOUS
 62
     4
  5
3D5
 10
49439.786163
 20
9173.053374
 30
0.0
 40
18.0
 50
0.0
 51
90.0
  0
LINE
  8
7
  6
CONTINUOUS
 62
     4
  5
3D6
 10
49354.586163
 20
9191.053374
 30
0.0
 11
49439.786163
 21
9191.053374
 31
0.0
  0
LINE
  8
7
  6
CONTINUOUS
 62
     4
  5
3D7
 10
49457.786163
 20
9173.053374
 30
0.0
 11
49457.786163
 21
9087.853374
 31
0.0
  0
LINE
  8
7
  6
CONTINUOUS
 62
     4
  5
3D8
 10
49307.786163
 20
9623.053374
 30
0.0
 11
49307.786163
 21
9537.853374
 31
0.0
  0
LINE
  8
7
  6
CONTINUOUS
 62
     4
  5
3D9
 10
49204.586163
 20
9641.053374
 30
0.0
 11
49289.786163
 21
9641.053374
 31
0.0
  0
LINE
  8
7
  6
CONTINUOUS
 62
     4
  5
3DA
 10
49186.586163
 20
9623.053374
 30
0.0
 11
49186.586163
 21
9537.853374
 31
0.0
  0
LINE
  8
7
  6
CONTINUOUS
 62
     4
  5
3DB
 10
49157.786163
 20
9623.053374
 30
0.0
 11
49157.786163
 21
9537.853374
 31
0.0
  0
LINE
  8
7
  6
CONTINUOUS
 62
     4
  5
3DC
 10
49054.586163
 20
9641.053374
 30
0.0
 11
49139.786163
 21
9641.053374
 31
0.0
  0
LINE
  8
7
  6
CONTINUOUS
 62
     4
  5
3DD
 10
49036.586163
 20
9623.053374
 30
0.0
 11
49036.586163
 21
9537.853374
 31
0.0
  0
LINE
  8
7
  6
CONTINUOUS
 62
     4
  5
3DE
 10
49139.786163
 20
9519.853374
 30
0.0
 11
49054.586163
 21
9519.853374
 31
0.0
  0
ARC
  8
7
  6
CONTINUOUS
 62
     4
  5
3DF
 10
49054.586163
 20
9537.853374
 30
0.0
 40
18.0
 50
180.0
 51
270.0
  0
ARC
  8
7
  6
CONTINUOUS
 62
     4
  5
3E0
 10
49054.586163
 20
9473.053374
 30
0.0
 40
18.0
 50
90.0
 51
180.0
  0
LINE
  8
7
  6
CONTINUOUS
 62
     4
  5
3E1
 10
49139.786163
 20
9491.053374
 30
0.0
 11
49054.586163
 21
9491.053374
 31
0.0
  0
LINE
  8
7
  6
CONTINUOUS
 62
     4
  5
3E2
 10
49036.586163
 20
9473.053374
 30
0.0
 11
49036.586163
 21
9387.853374
 31
0.0
  0
LINE
  8
7
  6
CONTINUOUS
 62
     4
  5
3E3
 10
49007.786163
 20
9624.853374
 30
0.0
 11
49007.786163
 21
9086.053374
 31
0.0
  0
LINE
  8
7
  6
CONTINUOUS
 62
     4
  5
3E4
 10
49036.586163
 20
9323.053374
 30
0.0
 11
49036.586163
 21
9237.853374
 31
0.0
  0
ARC
  8
7
  6
CONTINUOUS
 62
     4
  5
3E5
 10
49054.586163
 20
9237.853374
 30
0.0
 40
18.0
 50
180.0
 51
270.0
  0
LINE
  8
7
  6
CONTINUOUS
 62
     4
  5
3E6
 10
49139.786163
 20
9219.853374
 30
0.0
 11
49054.586163
 21
9219.853374
 31
0.0
  0
LINE
  8
7
  6
CONTINUOUS
 62
     4
  5
3E7
 10
49139.786163
 20
9191.053374
 30
0.0
 11
49054.586163
 21
9191.053374
 31
0.0
  0
ARC
  8
7
  6
CONTINUOUS
 62
     4
  5
3E8
 10
49054.586163
 20
9173.053374
 30
0.0
 40
18.0
 50
90.0
 51
180.0
  0
LINE
  8
7
  6
CONTINUOUS
 62
     4
  5
3E9
 10
49036.586163
 20
9173.053374
 30
0.0
 11
49036.586163
 21
9087.853374
 31
0.0
  0
LINE
  8
2
  6
CENTER
 62
     2
  5
3EA
 10
49472.186163
 20
9205.453374
 30
0.0
 11
49022.186163
 21
9205.453374
 31
0.0
  0
LINE
  8
2
  6
CENTER
 62
     2
  5
3EB
 10
49472.186163
 20
9505.453374
 30
0.0
 11
49022.186163
 21
9505.453374
 31
0.0
  0
LINE
  8
2
  6
CENTER
 62
     2
  5
3EC
 10
49472.186163
 20
9355.453374
 30
0.0
 11
49022.186163
 21
9355.453374
 31
0.0
  0
LINE
  8
2
  6
CENTER
 62
     2
  5
3ED
 10
49472.186163
 20
9655.453374
 30
0.0
 11
49022.186163
 21
9655.453374
 31
0.0
  0
LINE
  8
2
  6
CENTER
 62
     2
  5
3EE
 10
49022.186163
 20
9655.453374
 30
0.0
 11
49022.186163
 21
9055.453374
 31
0.0
  0
LINE
  8
2
  6
CENTER
 62
     2
  5
3EF
 10
49172.186163
 20
9655.453374
 30
0.0
 11
49172.186163
 21
9055.453374
 31
0.0
  0
LINE
  8
2
  6
CENTER
 62
     2
  5
3F0
 10
49322.186163
 20
9655.453374
 30
0.0
 11
49322.186163
 21
9055.453374
 31
0.0
  0
LINE
  8
2
  6
CENTER
 62
     2
  5
3F1
 10
49472.186163
 20
9655.453374
 30
0.0
 11
49472.186163
 21
9055.453374
 31
0.0
  0
LINE
  8
2
  6
CENTER
 62
     2
  5
3F2
 10
49022.186163
 20
9055.453374
 30
0.0
 11
49472.186163
 21
9055.453374
 31
0.0
  0
LINE
  8
5
  6
CONTINUOUS
 62
     3
  5
3F3
 10
49472.186163
 20
9885.453374
 30
0.0
 11
49472.186163
 21
9685.453374
 31
0.0
  0
LINE
  8
5
  6
CONTINUOUS
 62
     3
  5
3F4
 10
48122.186163
 20
9885.453374
 30
0.0
 11
48122.186163
 21
9685.453374
 31
0.0
  0
LINE
  8
5
  6
CONTINUOUS
 62
     3
  5
3F5
 10
49022.186163
 20
9785.453374
 30
0.0
 11
49022.186163
 21
9685.453374
 31
0.0
  0
CIRCLE
  8
5
  6
CONTINUOUS
 62
     3
  5
3F6
 10
48122.186163
 20
9785.453374
 30
0.0
 40
7.5
  0
CIRCLE
  8
5
  6
CONTINUOUS
 62
     3
  5
3F7
 10
49022.186163
 20
9785.453374
 30
0.0
 40
7.5
  0
CIRCLE
  8
5
  6
CONTINUOUS
 62
     3
  5
3F8
 10
49472.186163
 20
9785.453374
 30
0.0
 40
7.5
  0
TEXT
  8
5
  6
CONTINUOUS
 62
     3
  5
3F9
 10
48512.186163
 20
9785.453374
 30
0.0
 40
60.0
  1
900
 41
0.666667
  7

 72
     5
 11
48632.186163
 21
9785.453374
 31
0.0
  0
LINE
  8
5
  6
CONTINUOUS
 62
     3
  5
3FA
 10
48122.186163
 20
9785.453374
 30
0.0
 11
49022.186163
 21
9785.453374
 31
0.0
  0
TEXT
  8
5
  6
CONTINUOUS
 62
     3
  5
3FB
 10
49187.186163
 20
9785.453374
 30
0.0
 40
60.0
  1
450
 41
0.666667
  7

 72
     5
 11
49307.186163
 21
9785.453374
 31
0.0
  0
LINE
  8
5
  6
CONTINUOUS
 62
     3
  5
3FC
 10
49022.186163
 20
9785.453374
 30
0.0
 11
49472.186163
 21
9785.453374
 31
0.0
  0
CIRCLE
  8
5
  6
CONTINUOUS
 62
     3
  5
3FD
 10
48122.186163
 20
9885.453374
 30
0.0
 40
7.5
  0
CIRCLE
  8
5
  6
CONTINUOUS
 62
     3
  5
3FE
 10
49472.186163
 20
9885.453374
 30
0.0
 40
7.5
  0
LINE
  8
5
  6
CONTINUOUS
 62
     3
  5
3FF
 10
49472.186163
 20
9885.453374
 30
0.0
 11
48122.186163
 21
9885.453374
 31
0.0
  0
TEXT
  8
5
  6
CONTINUOUS
 62
     3
  5
400
 10
48707.186163
 20
9885.453374
 30
0.0
 40
60.0
  1
1,350
 41
0.6
  7

 72
     5
 11
48887.186163
 21
9885.453374
 31
0.0
  0
CIRCLE
  8
5
  6
CONTINUOUS
 62
     3
  5
401
 10
49602.186163
 20
9055.453374
 30
0.0
 40
7.5
  0
CIRCLE
  8
5
  6
CONTINUOUS
 62
     3
  5
402
 10
49602.186163
 20
9655.453374
 30
0.0
 40
7.5
  0
TEXT
  8
5
  6
CONTINUOUS
 62
     3
  5
403
 10
49602.186163
 20
9295.453374
 30
0.0
 40
60.0
  1
600
 50
90.0
 41
0.666667
  7

 72
     5
 11
49602.186163
 21
9415.453374
 31
0.0
  0
LINE
  8
5
  6
CONTINUOUS
 62
     3
  5
404
 10
49602.186163
 20
9055.453374
 30
0.0
 11
49602.186163
 21
9655.453374
 31
0.0
  0
LINE
  8
5
  6
CONTINUOUS
 62
     3
  5
405
 10
49602.186163
 20
9055.453374
 30
0.0
 11
49502.186163
 21
9055.453374
 31
0.0
  0
LINE
  8
5
  6
CONTINUOUS
 62
     3
  5
406
 10
49602.186163
 20
8405.453374
 30
0.0
 11
49602.186163
 21
9055.453374
 31
0.0
  0
TEXT
  8
5
  6
CONTINUOUS
 62
     3
  5
407
 10
49602.186163
 20
8702.54763
 30
0.0
 40
60.0
  1
650
 50
90.0
 41
0.666667
  7

 72
     5
 11
49602.186163
 21
8822.54763
 31
0.0
  0
LINE
  8
5
  6
CONTINUOUS
 62
     3
  5
408
 10
49702.186163
 20
9655.453374
 30
0.0
 11
49502.186163
 21
9655.453374
 31
0.0
  0
LINE
  8
5
  6
CONTINUOUS
 62
     3
  5
409
 10
49702.186163
 20
9655.453374
 30
0.0
 11
49702.186163
 21
8405.453374
 31
0.0
  0
TEXT
  8
5
  6
CONTINUOUS
 62
     3
  5
40A
 10
49702.186163
 20
8972.54763
 30
0.0
 40
60.0
  1
1,250
 50
90.0
 41
0.6
  7

 72
     5
 11
49702.186163
 21
9152.54763
 31
0.0
  0
CIRCLE
  8
5
  6
CONTINUOUS
 62
     3
  5
40B
 10
49702.186163
 20
9655.453374
 30
0.0
 40
7.5
  0
TEXT
  8
5
  6
CONTINUOUS
 62
     3
  5
40C
 10
49092.186163
 20
8891.053374
 30
0.0
 40
60.0
  1
テスリックス
 41
0.837
  7

 72
     5
 11
49452.186163
 21
8891.053374
 31
0.0
  0
LINE
  8
5
  6
CONTINUOUS
 62
     3
  5
40D
 10
49128.788704
 20
9041.053374
 30
0.0
 11
49042.186163
 21
8891.053374
 31
0.0
  0
LINE
  8
5
  6
CONTINUOUS
 62
     3
  5
40E
 10
49042.186163
 20
8891.053374
 30
0.0
 11
49452.186163
 21
8891.053374
 31
0.0
  0
LINE
  8
5
  6
CONTINUOUS
 62
     3
  5
40F
 10
49949.686163
 20
10705.453374
 30
0.0
 11
49749.686163
 21
10705.453374
 31
0.0
  0
LINE
  8
5
  6
CONTINUOUS
 62
     3
  5
410
 10
49949.686163
 20
8405.453374
 30
0.0
 11
49749.686163
 21
8405.453374
 31
0.0
  0
CIRCLE
  8
5
  6
CONTINUOUS
 62
     3
  5
411
 10
49949.686163
 20
8405.453374
 30
0.0
 40
7.5
  0
CIRCLE
  8
5
  6
CONTINUOUS
 62
     3
  5
412
 10
49949.686163
 20
10705.453374
 30
0.0
 40
7.5
  0
TEXT
  8
5
  6
CONTINUOUS
 62
     3
  5
413
 10
49949.686163
 20
9465.453374
 30
0.0
 40
60.0
  1
2,300
 50
90.0
 41
0.6
  7

 72
     5
 11
49949.686163
 21
9645.453374
 31
0.0
  0
LINE
  8
5
  6
CONTINUOUS
 62
     3
  5
414
 10
49949.686163
 20
8405.453374
 30
0.0
 11
49949.686163
 21
10705.453374
 31
0.0
  0
LINE
  8
2
  6
CONTINUOUS
 62
     2
  5
415
 10
49010.142424
 20
8455.452374
 30
0.0
 11
49719.686163
 21
8455.452374
 31
0.0
  0
LINE
  8
2
  6
CONTINUOUS
 62
     2
  5
416
 10
49009.919412
 20
8403.980298
 30
0.0
 11
49009.768412
 21
8425.659298
 31
0.0
  0
LINE
  8
2
  6
CONTINUOUS
 62
     2
  5
417
 10
49010.563412
 20
8426.851298
 30
0.0
 11
49009.768412
 21
8425.659298
 31
0.0
  0
ARC
  8
2
  6
CONTINUOUS
 62
     2
  5
418
 10
49009.732412
 20
8427.406298
 30
0.0
 40
1.0
 50
326.30993
 51
344.1021
  0
LINE
  8
7
  6
CONTINUOUS
 62
     3
  5
419
 10
49476.569427
 20
13094.410281
 30
0.0
 11
49476.569427
 21
13064.360072
 31
0.0
  0
LINE
  8
40
  6
CONTINUOUS
 62
     4
  5
41A
 10
49478.030327
 20
13094.360322
 30
0.0
 11
49447.207787
 21
13094.360322
 31
0.0
  0
LINE
  8
40
  6
CONTINUOUS
 62
     4
  5
41B
 10
49440.964347
 20
13096.360292
 30
0.0
 11
49484.245347
 21
13096.360292
 31
0.0
  0
LINE
  8
40
  6
CONTINUOUS
 62
     4
  5
41C
 10
49417.569507
 20
13114.360302
 30
0.0
 11
49417.569507
 21
13103.873392
 31
0.0
  0
LINE
  8
40
  6
CONTINUOUS
 62
     4
  5
41D
 10
49507.569487
 20
13114.360302
 30
0.0
 11
49507.569487
 21
13103.844762
 31
0.0
  0
LINE
  8
40
  6
CONTINUOUS
 62
     4
  5
41E
 10
49506.823427
 20
13102.360342
 30
0.0
 11
49418.358967
 21
13102.360342
 31
0.0
  0
ARC
  8
40
  6
CONTINUOUS
 62
     4
  5
41F
 10
49419.569407
 20
13103.976082
 30
0.0
 40
2.00004
 50
180.0
 51
255.529705
  0
ARC
  8
40
  6
CONTINUOUS
 62
     4
  5
420
 10
49505.567767
 20
13103.933032
 30
0.0
 40
2.00004
 50
284.069648
 51
360.0
  0
LINE
  8
1
  6
CONTINUOUS
 62
     4
  5
421
 10
49430.258547
 20
13121.546362
 30
0.0
 11
49434.258627
 21
13122.241392
 31
0.0
  0
LINE
  8
1
  6
CONTINUOUS
 62
     4
  5
422
 10
49430.258547
 20
13124.582682
 30
0.0
 11
49434.258627
 21
13125.291922
 31
0.0
  0
LINE
  8
1
  6
CONTINUOUS
 62
     4
  5
423
 10
49430.258547
 20
13127.635802
 30
0.0
 11
49434.258627
 21
13128.345042
 31
0.0
  0
LINE
  8
1
  6
CONTINUOUS
 62
     4
  5
424
 10
49430.258547
 20
13130.688922
 30
0.0
 11
49434.258627
 21
13131.398092
 31
0.0
  0
LINE
  8
1
  6
CONTINUOUS
 62
     4
  5
425
 10
49430.258547
 20
13133.739382
 30
0.0
 11
49434.258627
 21
13134.434342
 31
0.0
  0
LINE
  8
1
  6
CONTINUOUS
 62
     4
  5
426
 10
49430.258547
 20
13136.775492
 30
0.0
 11
49434.258627
 21
13137.484732
 31
0.0
  0
LINE
  8
1
  6
CONTINUOUS
 62
     4
  5
427
 10
49433.863407
 20
13120.651202
 30
0.0
 11
49430.653767
 21
13120.083572
 31
0.0
  0
LINE
  8
1
  6
CONTINUOUS
 62
     4
  5
428
 10
49433.863407
 20
13123.684652
 30
0.0
 11
49430.653767
 21
13123.117092
 31
0.0
  0
LINE
  8
1
  6
CONTINUOUS
 62
     4
  5
429
 10
49433.863407
 20
13126.737772
 30
0.0
 11
49430.653767
 21
13126.170212
 31
0.0
  0
LINE
  8
1
  6
CONTINUOUS
 62
     4
  5
42A
 10
49433.863407
 20
13129.790892
 30
0.0
 11
49430.653767
 21
13129.223402
 31
0.0
  0
LINE
  8
1
  6
CONTINUOUS
 62
     4
  5
42B
 10
49433.863407
 20
13132.844082
 30
0.0
 11
49430.653767
 21
13132.276522
 31
0.0
  0
LINE
  8
1
  6
CONTINUOUS
 62
     4
  5
42C
 10
49433.863407
 20
13135.877602
 30
0.0
 11
49430.653767
 21
13135.310042
 31
0.0
  0
LINE
  8
1
  6
CONTINUOUS
 62
     4
  5
42D
 10
49433.863407
 20
13138.930722
 30
0.0
 11
49430.653767
 21
13138.363092
 31
0.0
  0
LINE
  8
1
  6
CONTINUOUS
 62
     4
  5
42E
 10
49430.258547
 20
13118.494992
 30
0.0
 11
49434.258627
 21
13119.199192
 31
0.0
  0
LINE
  8
1
  6
CONTINUOUS
 62
     4
  5
42F
 10
49432.258587
 20
13108.360322
 30
0.0
 11
49428.008607
 21
13108.360322
 31
0.0
  0
LINE
  8
1
  6
CONTINUOUS
 62
     4
  5
430
 10
49430.258547
 20
13112.448462
 30
0.0
 11
49434.258627
 21
13113.157702
 31
0.0
  0
LINE
  8
1
  6
CONTINUOUS
 62
     4
  5
431
 10
49430.258547
 20
13115.462312
 30
0.0
 11
49434.258627
 21
13116.171552
 31
0.0
  0
LINE
  8
1
  6
CONTINUOUS
 62
     4
  5
432
 10
49433.863407
 20
13111.570032
 30
0.0
 11
49430.653767
 21
13111.002472
 31
0.0
  0
LINE
  8
1
  6
CONTINUOUS
 62
     4
  5
433
 10
49433.863407
 20
13114.583952
 30
0.0
 11
49430.653767
 21
13114.016392
 31
0.0
  0
LINE
  8
1
  6
CONTINUOUS
 62
     4
  5
434
 10
49433.863407
 20
13117.617542
 30
0.0
 11
49430.653767
 21
13117.049982
 31
0.0
  0
LINE
  8
1
  6
CONTINUOUS
 62
     4
  5
435
 10
49429.655567
 20
13108.360322
 30
0.0
 11
49430.858587
 21
13109.563272
 31
0.0
  0
LINE
  8
1
  6
CONTINUOUS
 62
     4
  5
436
 10
49429.655567
 20
13108.360322
 30
0.0
 11
49428.008607
 21
13108.360322
 31
0.0
  0
LINE
  8
1
  6
CONTINUOUS
 62
     4
  5
437
 10
49434.861607
 20
13108.360322
 30
0.0
 11
49433.658587
 21
13109.563272
 31
0.0
  0
LINE
  8
1
  6
CONTINUOUS
 62
     4
  5
438
 10
49434.861607
 20
13108.360322
 30
0.0
 11
49436.508567
 21
13108.360322
 31
0.0
  0
LINE
  8
1
  6
CONTINUOUS
 62
     4
  5
439
 10
49433.863407
 20
13110.043472
 30
0.0
 11
49430.653767
 21
13109.475982
 31
0.0
  0
LINE
  8
1
  6
CONTINUOUS
 62
     4
  5
43A
 10
49431.651827
 20
13104.869282
 30
0.0
 11
49432.865347
 21
13104.869282
 31
0.0
  0
LINE
  8
1
  6
CONTINUOUS
 62
     4
  5
43B
 10
49431.651827
 20
13104.360312
 30
0.0
 11
49431.651827
 21
13104.869282
 31
0.0
  0
LINE
  8
1
  6
CONTINUOUS
 62
     4
  5
43C
 10
49432.865347
 20
13104.360312
 30
0.0
 11
49432.865347
 21
13104.869282
 31
0.0
  0
LINE
  8
1
  6
CONTINUOUS
 62
     4
  5
43D
 10
49431.651827
 20
13104.360312
 30
0.0
 11
49432.865347
 21
13104.360312
 31
0.0
  0
LINE
  8
1
  6
CONTINUOUS
 62
     4
  5
43E
 10
49430.258547
 20
13139.828612
 30
0.0
 11
49434.258627
 21
13140.537852
 31
0.0
  0
LINE
  8
1
  6
CONTINUOUS
 62
     4
  5
43F
 10
49433.649907
 20
13143.483032
 30
0.0
 11
49430.764927
 21
13142.971472
 31
0.0
  0
LINE
  8
1
  6
CONTINUOUS
 62
     4
  5
440
 10
49433.863407
 20
13141.983772
 30
0.0
 11
49430.653767
 21
13141.416212
 31
0.0
  0
LINE
  8
1
  6
CONTINUOUS
 62
     4
  5
441
 10
49433.357027
 20
13144.947292
 30
0.0
 11
49431.079647
 21
13144.544652
 31
0.0
  0
LINE
  8
1
  6
CONTINUOUS
 62
     4
  5
442
 10
49490.880367
 20
13121.546362
 30
0.0
 11
49494.880307
 21
13122.241392
 31
0.0
  0
LINE
  8
1
  6
CONTINUOUS
 62
     4
  5
443
 10
49490.880367
 20
13124.582682
 30
0.0
 11
49494.880307
 21
13125.291922
 31
0.0
  0
LINE
  8
1
  6
CONTINUOUS
 62
     4
  5
444
 10
49490.880367
 20
13127.635802
 30
0.0
 11
49494.880307
 21
13128.345042
 31
0.0
  0
LINE
  8
1
  6
CONTINUOUS
 62
     4
  5
445
 10
49490.880367
 20
13130.688922
 30
0.0
 11
49494.880307
 21
13131.398092
 31
0.0
  0
LINE
  8
1
  6
CONTINUOUS
 62
     4
  5
446
 10
49490.880367
 20
13133.739382
 30
0.0
 11
49494.880307
 21
13134.434342
 31
0.0
  0
LINE
  8
1
  6
CONTINUOUS
 62
     4
  5
447
 10
49490.880367
 20
13136.775492
 30
0.0
 11
49494.880307
 21
13137.484732
 31
0.0
  0
LINE
  8
1
  6
CONTINUOUS
 62
     4
  5
448
 10
49494.485227
 20
13120.651202
 30
0.0
 11
49491.275447
 21
13120.083572
 31
0.0
  0
LINE
  8
1
  6
CONTINUOUS
 62
     4
  5
449
 10
49494.485227
 20
13123.684652
 30
0.0
 11
49491.275447
 21
13123.117092
 31
0.0
  0
LINE
  8
1
  6
CONTINUOUS
 62
     4
  5
44A
 10
49494.485227
 20
13126.737772
 30
0.0
 11
49491.275447
 21
13126.170212
 31
0.0
  0
LINE
  8
1
  6
CONTINUOUS
 62
     4
  5
44B
 10
49494.485227
 20
13129.790892
 30
0.0
 11
49491.275447
 21
13129.223402
 31
0.0
  0
LINE
  8
1
  6
CONTINUOUS
 62
     4
  5
44C
 10
49494.485227
 20
13132.844082
 30
0.0
 11
49491.275447
 21
13132.276522
 31
0.0
  0
LINE
  8
1
  6
CONTINUOUS
 62
     4
  5
44D
 10
49494.485227
 20
13135.877602
 30
0.0
 11
49491.275447
 21
13135.310042
 31
0.0
  0
LINE
  8
1
  6
CONTINUOUS
 62
     4
  5
44E
 10
49494.485227
 20
13138.930722
 30
0.0
 11
49491.275447
 21
13138.363092
 31
0.0
  0
LINE
  8
1
  6
CONTINUOUS
 62
     4
  5
44F
 10
49490.880367
 20
13118.494992
 30
0.0
 11
49494.880307
 21
13119.199192
 31
0.0
  0
LINE
  8
1
  6
CONTINUOUS
 62
     4
  5
450
 10
49492.880407
 20
13108.360322
 30
0.0
 11
49488.630287
 21
13108.360322
 31
0.0
  0
LINE
  8
1
  6
CONTINUOUS
 62
     4
  5
451
 10
49490.880367
 20
13112.448462
 30
0.0
 11
49494.880307
 21
13113.157702
 31
0.0
  0
LINE
  8
1
  6
CONTINUOUS
 62
     4
  5
452
 10
49490.880367
 20
13115.462312
 30
0.0
 11
49494.880307
 21
13116.171552
 31
0.0
  0
LINE
  8
1
  6
CONTINUOUS
 62
     4
  5
453
 10
49494.485227
 20
13111.570032
 30
0.0
 11
49491.275447
 21
13111.002472
 31
0.0
  0
LINE
  8
1
  6
CONTINUOUS
 62
     4
  5
454
 10
49494.485227
 20
13114.583952
 30
0.0
 11
49491.275447
 21
13114.016392
 31
0.0
  0
LINE
  8
1
  6
CONTINUOUS
 62
     4
  5
455
 10
49494.485227
 20
13117.617542
 30
0.0
 11
49491.275447
 21
13117.049982
 31
0.0
  0
LINE
  8
1
  6
CONTINUOUS
 62
     4
  5
456
 10
49490.277387
 20
13108.360322
 30
0.0
 11
49491.480407
 21
13109.563272
 31
0.0
  0
LINE
  8
1
  6
CONTINUOUS
 62
     4
  5
457
 10
49490.277387
 20
13108.360322
 30
0.0
 11
49488.630287
 21
13108.360322
 31
0.0
  0
LINE
  8
1
  6
CONTINUOUS
 62
     4
  5
458
 10
49495.483287
 20
13108.360322
 30
0.0
 11
49494.280407
 21
13109.563272
 31
0.0
  0
LINE
  8
1
  6
CONTINUOUS
 62
     4
  5
459
 10
49495.483287
 20
13108.360322
 30
0.0
 11
49497.130387
 21
13108.360322
 31
0.0
  0
LINE
  8
1
  6
CONTINUOUS
 62
     4
  5
45A
 10
49494.485227
 20
13110.043472
 30
0.0
 11
49491.275447
 21
13109.475982
 31
0.0
  0
LINE
  8
1
  6
CONTINUOUS
 62
     4
  5
45B
 10
49492.273647
 20
13104.869282
 30
0.0
 11
49493.487027
 21
13104.869282
 31
0.0
  0
LINE
  8
1
  6
CONTINUOUS
 62
     4
  5
45C
 10
49492.273647
 20
13104.360312
 30
0.0
 11
49492.273647
 21
13104.869282
 31
0.0
  0
LINE
  8
1
  6
CONTINUOUS
 62
     4
  5
45D
 10
49493.487027
 20
13104.360312
 30
0.0
 11
49493.487027
 21
13104.869282
 31
0.0
  0
LINE
  8
1
  6
CONTINUOUS
 62
     4
  5
45E
 10
49492.273647
 20
13104.360312
 30
0.0
 11
49493.487027
 21
13104.360312
 31
0.0
  0
LINE
  8
1
  6
CONTINUOUS
 62
     4
  5
45F
 10
49490.880367
 20
13139.828612
 30
0.0
 11
49494.880307
 21
13140.537852
 31
0.0
  0
LINE
  8
1
  6
CONTINUOUS
 62
     4
  5
460
 10
49494.271587
 20
13143.483032
 30
0.0
 11
49491.386747
 21
13142.971472
 31
0.0
  0
LINE
  8
1
  6
CONTINUOUS
 62
     4
  5
461
 10
49494.485227
 20
13141.983772
 30
0.0
 11
49491.275447
 21
13141.416212
 31
0.0
  0
LINE
  8
1
  6
CONTINUOUS
 62
     4
  5
462
 10
49493.978847
 20
13144.947292
 30
0.0
 11
49491.701327
 21
13144.544652
 31
0.0
  0
LINE
  8
40
  6
CONTINUOUS
 62
     4
  5
463
 10
49507.544427
 20
13114.360302
 30
0.0
 11
49507.544427
 21
13103.844762
 31
0.0
  0
LINE
  8
40
  6
CONTINUOUS
 62
     4
  5
464
 10
49505.044447
 20
13101.727822
 30
0.0
 11
49505.044447
 21
13109.360342
 31
0.0
  0
LINE
  8
40
  6
CONTINUOUS
 62
     4
  5
465
 10
49444.839407
 20
13095.360342
 30
0.0
 11
49480.370427
 21
13095.360342
 31
0.0
  0
LINE
  8
40
  6
CONTINUOUS
 62
     4
  5
466
 10
49448.569427
 20
13094.360322
 30
0.0
 11
49476.569427
 21
13094.360322
 31
0.0
  0
LINE
  8
40
  6
CONTINUOUS
 62
     4
  5
467
 10
49477.153787
 20
13093.360302
 30
0.0
 11
49448.053387
 21
13093.360302
 31
0.0
  0
LINE
  8
40
  6
CONTINUOUS
 62
     4
  5
468
 10
49476.715447
 20
13092.360212
 30
0.0
 11
49448.450287
 21
13092.360212
 31
0.0
  0
LINE
  8
12
  6
CONTINUOUS
 62
     4
  5
469
 10
49485.956427
 20
13109.360342
 30
0.0
 11
49507.569487
 21
13109.360342
 31
0.0
  0
LINE
  8
12
  6
CONTINUOUS
 62
     4
  5
46A
 10
49420.069487
 20
13101.752602
 30
0.0
 11
49420.069487
 21
13109.360342
 31
0.0
  0
LINE
  8
12
  6
CONTINUOUS
 62
     4
  5
46B
 10
49440.918847
 20
13096.372122
 30
0.0
 11
49440.918847
 21
13096.342582
 31
0.0
  0
LINE
  8
12
  6
CONTINUOUS
 62
     4
  5
46C
 10
49439.200907
 20
13096.815362
 30
0.0
 11
49439.200907
 21
13109.360342
 31
0.0
  0
LINE
  8
12
  6
CONTINUOUS
 62
     4
  5
46D
 10
49440.912687
 20
13096.467602
 30
0.0
 11
49439.287987
 21
13109.465622
 31
0.0
  0
LINE
  8
12
  6
CONTINUOUS
 62
     4
  5
46E
 10
49484.238627
 20
13096.266702
 30
0.0
 11
49484.238627
 21
13096.237232
 31
0.0
  0
LINE
  8
12
  6
CONTINUOUS
 62
     4
  5
46F
 10
49485.956427
 20
13096.710012
 30
0.0
 11
49485.956427
 21
13109.255062
 31
0.0
  0
LINE
  8
12
  6
CONTINUOUS
 62
     4
  5
470
 10
49484.244787
 20
13096.362322
 30
0.0
 11
49485.869487
 21
13109.360342
 31
0.0
  0
LINE
  8
12
  6
CONTINUOUS
 62
     4
  5
471
 10
49439.301147
 20
13109.360342
 30
0.0
 11
49420.069487
 21
13109.360342
 31
0.0
  0
LINE
  8
12
  6
CONTINUOUS
 62
     4
  5
472
 10
49439.301147
 20
13108.360322
 30
0.0
 11
49420.069487
 21
13108.360322
 31
0.0
  0
LINE
  8
12
  6
CONTINUOUS
 62
     4
  5
473
 10
49485.956427
 20
13108.360322
 30
0.0
 11
49507.569487
 21
13108.360322
 31
0.0
  0
LINE
  8
12
  6
CONTINUOUS
 62
     4
  5
474
 10
49436.508567
 20
13108.360322
 30
0.0
 11
49428.008607
 21
13108.360322
 31
0.0
  0
LINE
  8
12
  6
CONTINUOUS
 62
     4
  5
475
 10
49428.008607
 20
13108.360322
 30
0.0
 11
49428.008607
 21
13105.360332
 31
0.0
  0
LINE
  8
12
  6
CONTINUOUS
 62
     4
  5
476
 10
49436.508567
 20
13108.360322
 30
0.0
 11
49436.508567
 21
13105.360332
 31
0.0
  0
LINE
  8
12
  6
CONTINUOUS
 62
     4
  5
477
 10
49436.508567
 20
13105.360332
 30
0.0
 11
49436.508567
 21
13108.360322
 31
0.0
  0
LINE
  8
12
  6
CONTINUOUS
 62
     4
  5
478
 10
49428.008607
 20
13105.360332
 30
0.0
 11
49428.008607
 21
13108.360322
 31
0.0
  0
LINE
  8
12
  6
CONTINUOUS
 62
     4
  5
479
 10
49428.008607
 20
13105.360332
 30
0.0
 11
49436.508567
 21
13105.360332
 31
0.0
  0
ARC
  8
12
  6
CONTINUOUS
 62
     4
  5
47A
 10
49432.258587
 20
13113.891582
 30
0.0
 40
9.53134
 50
243.51896
 51
296.48104
  0
LINE
  8
12
  6
CONTINUOUS
 62
     4
  5
47B
 10
49433.658587
 20
13108.360322
 30
0.0
 11
49433.658587
 21
13139.360312
 31
0.0
  0
LINE
  8
12
  6
CONTINUOUS
 62
     4
  5
47C
 10
49430.858587
 20
13108.360322
 30
0.0
 11
49430.858587
 21
13139.360312
 31
0.0
  0
LINE
  8
12
  6
CONTINUOUS
 62
     4
  5
47D
 10
49433.658587
 20
13139.360312
 30
0.0
 11
49430.858587
 21
13139.360312
 31
0.0
  0
LINE
  8
12
  6
CONTINUOUS
 62
     4
  5
47E
 10
49432.258587
 20
13146.360312
 30
0.0
 11
49430.858587
 21
13139.360312
 31
0.0
  0
LINE
  8
12
  6
CONTINUOUS
 62
     4
  5
47F
 10
49432.258587
 20
13146.360312
 30
0.0
 11
49433.658587
 21
13139.360312
 31
0.0
  0
LINE
  8
12
  6
CENTER
 62
     4
  5
480
 10
49432.258587
 20
13105.360332
 30
0.0
 11
49432.258587
 21
13146.360312
 31
0.0
  0
LINE
  8
12
  6
CENTER
 62
     4
  5
481
 10
49432.258587
 20
13146.360312
 30
0.0
 11
49432.258587
 21
13106.853292
 31
0.0
  0
LINE
  8
12
  6
CONTINUOUS
 62
     4
  5
482
 10
49497.130387
 20
13108.360322
 30
0.0
 11
49488.630287
 21
13108.360322
 31
0.0
  0
LINE
  8
12
  6
CONTINUOUS
 62
     4
  5
483
 10
49488.630287
 20
13108.360322
 30
0.0
 11
49488.630287
 21
13105.360332
 31
0.0
  0
LINE
  8
12
  6
CONTINUOUS
 62
     4
  5
484
 10
49497.130387
 20
13108.360322
 30
0.0
 11
49497.130387
 21
13105.360332
 31
0.0
  0
LINE
  8
12
  6
CONTINUOUS
 62
     4
  5
485
 10
49497.130387
 20
13105.360332
 30
0.0
 11
49497.130387
 21
13108.360322
 31
0.0
  0
LINE
  8
12
  6
CONTINUOUS
 62
     4
  5
486
 10
49488.630287
 20
13105.360332
 30
0.0
 11
49488.630287
 21
13108.360322
 31
0.0
  0
LINE
  8
12
  6
CONTINUOUS
 62
     4
  5
487
 10
49488.630287
 20
13105.360332
 30
0.0
 11
49497.130387
 21
13105.360332
 31
0.0
  0
ARC
  8
12
  6
CONTINUOUS
 62
     4
  5
488
 10
49492.880407
 20
13113.891582
 30
0.0
 40
9.53134
 50
243.51896
 51
296.48104
  0
LINE
  8
12
  6
CONTINUOUS
 62
     4
  5
489
 10
49494.280407
 20
13108.360322
 30
0.0
 11
49494.280407
 21
13139.360312
 31
0.0
  0
LINE
  8
12
  6
CONTINUOUS
 62
     4
  5
48A
 10
49491.480407
 20
13108.360322
 30
0.0
 11
49491.480407
 21
13139.360312
 31
0.0
  0
LINE
  8
12
  6
CONTINUOUS
 62
     4
  5
48B
 10
49494.280407
 20
13139.360312
 30
0.0
 11
49491.480407
 21
13139.360312
 31
0.0
  0
LINE
  8
12
  6
CONTINUOUS
 62
     4
  5
48C
 10
49492.880407
 20
13146.360312
 30
0.0
 11
49491.480407
 21
13139.360312
 31
0.0
  0
LINE
  8
12
  6
CONTINUOUS
 62
     4
  5
48D
 10
49492.880407
 20
13146.360312
 30
0.0
 11
49494.280407
 21
13139.360312
 31
0.0
  0
LINE
  8
12
  6
CENTER
 62
     4
  5
48E
 10
49492.880407
 20
13105.360332
 30
0.0
 11
49492.880407
 21
13146.360312
 31
0.0
  0
LINE
  8
12
  6
CENTER
 62
     4
  5
48F
 10
49492.880407
 20
13146.360312
 30
0.0
 11
49492.880407
 21
13106.853292
 31
0.0
  0
LINE
  8
12
  6
CONTINUOUS
 62
     4
  5
490
 10
49437.967087
 20
13108.607562
 30
0.0
 11
49426.467067
 21
13108.607562
 31
0.0
  0
LINE
  8
12
  6
CONTINUOUS
 62
     4
  5
491
 10
49437.967087
 20
13109.407452
 30
0.0
 11
49426.467067
 21
13109.407452
 31
0.0
  0
LINE
  8
12
  6
CONTINUOUS
 62
     4
  5
492
 10
49437.967087
 20
13108.607562
 30
0.0
 11
49437.967087
 21
13109.407452
 31
0.0
  0
LINE
  8
12
  6
CONTINUOUS
 62
     4
  5
493
 10
49434.967167
 20
13108.607562
 30
0.0
 11
49434.967167
 21
13109.407452
 31
0.0
  0
LINE
  8
12
  6
CONTINUOUS
 62
     4
  5
494
 10
49429.467127
 20
13108.607562
 30
0.0
 11
49429.467127
 21
13109.407452
 31
0.0
  0
LINE
  8
12
  6
CONTINUOUS
 62
     4
  5
495
 10
49426.467067
 20
13108.607562
 30
0.0
 11
49426.467067
 21
13109.407452
 31
0.0
  0
LINE
  8
12
  6
CONTINUOUS
 62
     4
  5
496
 10
49498.585267
 20
13108.607562
 30
0.0
 11
49487.085247
 21
13108.607562
 31
0.0
  0
LINE
  8
12
  6
CONTINUOUS
 62
     4
  5
497
 10
49498.585267
 20
13109.407452
 30
0.0
 11
49487.085247
 21
13109.407452
 31
0.0
  0
LINE
  8
12
  6
CONTINUOUS
 62
     4
  5
498
 10
49498.585267
 20
13108.607562
 30
0.0
 11
49498.585267
 21
13109.407452
 31
0.0
  0
LINE
  8
12
  6
CONTINUOUS
 62
     4
  5
499
 10
49495.585207
 20
13108.607562
 30
0.0
 11
49495.585207
 21
13109.407452
 31
0.0
  0
LINE
  8
12
  6
CONTINUOUS
 62
     4
  5
49A
 10
49490.085167
 20
13108.607562
 30
0.0
 11
49490.085167
 21
13109.407452
 31
0.0
  0
LINE
  8
12
  6
CONTINUOUS
 62
     4
  5
49B
 10
49487.085247
 20
13108.607562
 30
0.0
 11
49487.085247
 21
13109.407452
 31
0.0
  0
LINE
  8
8
  6
CONTINUOUS
 62
     4
  5
49C
 10
49479.569907
 20
13095.153702
 30
0.0
 11
49506.065467
 21
13101.991232
 31
0.0
  0
LINE
  8
8
  6
CONTINUOUS
 62
     4
  5
49D
 10
49445.757667
 20
13095.123252
 30
0.0
 11
49419.026627
 21
13102.021612
 31
0.0
  0
ARC
  8
8
  6
CONTINUOUS
 62
     4
  5
49E
 10
49444.601687
 20
13091.324352
 30
0.0
 40
4.00008
 50
360.0
 51
75.529706
  0
LINE
  8
50
  6
CENTER
 62
     4
  5
49F
 10
49432.217147
 20
13108.607562
 30
0.0
 11
49432.217147
 21
13110.729542
 31
0.0
  0
LINE
  8
50
  6
CENTER
 62
     4
  5
4A0
 10
49492.835187
 20
13108.607562
 30
0.0
 11
49492.835187
 21
13110.729542
 31
0.0
  0
ARC
  8
8
  6
CONTINUOUS
 62
     4
  5
4A1
 10
49480.563907
 20
13091.273462
 30
0.0
 40
4.00008
 50
104.470294
 51
180.0
  0
LINE
  8
40
  6
CONTINUOUS
 62
     4
  5
4A2
 10
49016.342
 20
13094.360322
 30
0.0
 11
49047.16454
 21
13094.360322
 31
0.0
  0
LINE
  8
40
  6
CONTINUOUS
 62
     4
  5
4A3
 10
49053.40798
 20
13096.360292
 30
0.0
 11
49010.12698
 21
13096.360292
 31
0.0
  0
LINE
  8
40
  6
CONTINUOUS
 62
     4
  5
4A4
 10
49076.80282
 20
13114.360302
 30
0.0
 11
49076.80282
 21
13103.873392
 31
0.0
  0
LINE
  8
40
  6
CONTINUOUS
 62
     4
  5
4A5
 10
48986.80284
 20
13114.360302
 30
0.0
 11
48986.80284
 21
13103.844762
 31
0.0
  0
LINE
  8
40
  6
CONTINUOUS
 62
     4
  5
4A6
 10
48987.5489
 20
13102.360342
 30
0.0
 11
49076.01336
 21
13102.360342
 31
0.0
  0
ARC
  8
40
  6
CONTINUOUS
 62
     4
  5
4A7
 10
49074.80292
 20
13103.976082
 30
0.0
 40
2.00004
 50
284.470295
 51
360.0
  0
ARC
  8
40
  6
CONTINUOUS
 62
     4
  5
4A8
 10
48988.80456
 20
13103.933032
 30
0.0
 40
2.00004
 50
180.0
 51
255.930352
  0
LINE
  8
1
  6
CONTINUOUS
 62
     4
  5
4A9
 10
49064.11378
 20
13121.546362
 30
0.0
 11
49060.1137
 21
13122.241392
 31
0.0
  0
LINE
  8
1
  6
CONTINUOUS
 62
     4
  5
4AA
 10
49064.11378
 20
13124.582682
 30
0.0
 11
49060.1137
 21
13125.291922
 31
0.0
  0
LINE
  8
1
  6
CONTINUOUS
 62
     4
  5
4AB
 10
49064.11378
 20
13127.635802
 30
0.0
 11
49060.1137
 21
13128.345042
 31
0.0
  0
LINE
  8
1
  6
CONTINUOUS
 62
     4
  5
4AC
 10
49064.11378
 20
13130.688922
 30
0.0
 11
49060.1137
 21
13131.398092
 31
0.0
  0
LINE
  8
1
  6
CONTINUOUS
 62
     4
  5
4AD
 10
49064.11378
 20
13133.739382
 30
0.0
 11
49060.1137
 21
13134.434342
 31
0.0
  0
LINE
  8
1
  6
CONTINUOUS
 62
     4
  5
4AE
 10
49064.11378
 20
13136.775492
 30
0.0
 11
49060.1137
 21
13137.484732
 31
0.0
  0
LINE
  8
1
  6
CONTINUOUS
 62
     4
  5
4AF
 10
49060.50892
 20
13120.651202
 30
0.0
 11
49063.71856
 21
13120.083572
 31
0.0
  0
LINE
  8
1
  6
CONTINUOUS
 62
     4
  5
4B0
 10
49060.50892
 20
13123.684652
 30
0.0
 11
49063.71856
 21
13123.117092
 31
0.0
  0
LINE
  8
1
  6
CONTINUOUS
 62
     4
  5
4B1
 10
49060.50892
 20
13126.737772
 30
0.0
 11
49063.71856
 21
13126.170212
 31
0.0
  0
LINE
  8
1
  6
CONTINUOUS
 62
     4
  5
4B2
 10
49060.50892
 20
13129.790892
 30
0.0
 11
49063.71856
 21
13129.223402
 31
0.0
  0
LINE
  8
1
  6
CONTINUOUS
 62
     4
  5
4B3
 10
49060.50892
 20
13132.844082
 30
0.0
 11
49063.71856
 21
13132.276522
 31
0.0
  0
LINE
  8
1
  6
CONTINUOUS
 62
     4
  5
4B4
 10
49060.50892
 20
13135.877602
 30
0.0
 11
49063.71856
 21
13135.310042
 31
0.0
  0
LINE
  8
1
  6
CONTINUOUS
 62
     4
  5
4B5
 10
49060.50892
 20
13138.930722
 30
0.0
 11
49063.71856
 21
13138.363092
 31
0.0
  0
LINE
  8
1
  6
CONTINUOUS
 62
     4
  5
4B6
 10
49064.11378
 20
13118.494992
 30
0.0
 11
49060.1137
 21
13119.199192
 31
0.0
  0
LINE
  8
1
  6
CONTINUOUS
 62
     4
  5
4B7
 10
49062.11374
 20
13108.360322
 30
0.0
 11
49066.36372
 21
13108.360322
 31
0.0
  0
LINE
  8
1
  6
CONTINUOUS
 62
     4
  5
4B8
 10
49064.11378
 20
13112.448462
 30
0.0
 11
49060.1137
 21
13113.157702
 31
0.0
  0
LINE
  8
1
  6
CONTINUOUS
 62
     4
  5
4B9
 10
49064.11378
 20
13115.462312
 30
0.0
 11
49060.1137
 21
13116.171552
 31
0.0
  0
LINE
  8
1
  6
CONTINUOUS
 62
     4
  5
4BA
 10
49060.50892
 20
13111.570032
 30
0.0
 11
49063.71856
 21
13111.002472
 31
0.0
  0
LINE
  8
1
  6
CONTINUOUS
 62
     4
  5
4BB
 10
49060.50892
 20
13114.583952
 30
0.0
 11
49063.71856
 21
13114.016392
 31
0.0
  0
LINE
  8
1
  6
CONTINUOUS
 62
     4
  5
4BC
 10
49060.50892
 20
13117.617542
 30
0.0
 11
49063.71856
 21
13117.049982
 31
0.0
  0
LINE
  8
1
  6
CONTINUOUS
 62
     4
  5
4BD
 10
49064.71676
 20
13108.360322
 30
0.0
 11
49063.51374
 21
13109.563272
 31
0.0
  0
LINE
  8
1
  6
CONTINUOUS
 62
     4
  5
4BE
 10
49064.71676
 20
13108.360322
 30
0.0
 11
49066.36372
 21
13108.360322
 31
0.0
  0
LINE
  8
1
  6
CONTINUOUS
 62
     4
  5
4BF
 10
49059.51072
 20
13108.360322
 30
0.0
 11
49060.71374
 21
13109.563272
 31
0.0
  0
LINE
  8
1
  6
CONTINUOUS
 62
     4
  5
4C0
 10
49059.51072
 20
13108.360322
 30
0.0
 11
49057.86376
 21
13108.360322
 31
0.0
  0
LINE
  8
1
  6
CONTINUOUS
 62
     4
  5
4C1
 10
49060.50892
 20
13110.043472
 30
0.0
 11
49063.71856
 21
13109.475982
 31
0.0
  0
LINE
  8
1
  6
CONTINUOUS
 62
     4
  5
4C2
 10
49062.7205
 20
13104.869282
 30
0.0
 11
49061.50698
 21
13104.869282
 31
0.0
  0
LINE
  8
1
  6
CONTINUOUS
 62
     4
  5
4C3
 10
49062.7205
 20
13104.360312
 30
0.0
 11
49062.7205
 21
13104.869282
 31
0.0
  0
LINE
  8
1
  6
CONTINUOUS
 62
     4
  5
4C4
 10
49061.50698
 20
13104.360312
 30
0.0
 11
49061.50698
 21
13104.869282
 31
0.0
  0
LINE
  8
1
  6
CONTINUOUS
 62
     4
  5
4C5
 10
49062.7205
 20
13104.360312
 30
0.0
 11
49061.50698
 21
13104.360312
 31
0.0
  0
LINE
  8
1
  6
CONTINUOUS
 62
     4
  5
4C6
 10
49064.11378
 20
13139.828612
 30
0.0
 11
49060.1137
 21
13140.537852
 31
0.0
  0
LINE
  8
1
  6
CONTINUOUS
 62
     4
  5
4C7
 10
49060.72242
 20
13143.483032
 30
0.0
 11
49063.6074
 21
13142.971472
 31
0.0
  0
LINE
  8
1
  6
CONTINUOUS
 62
     4
  5
4C8
 10
49060.50892
 20
13141.983772
 30
0.0
 11
49063.71856
 21
13141.416212
 31
0.0
  0
LINE
  8
1
  6
CONTINUOUS
 62
     4
  5
4C9
 10
49061.0153
 20
13144.947292
 30
0.0
 11
49063.29268
 21
13144.544652
 31
0.0
  0
LINE
  8
1
  6
CONTINUOUS
 62
     4
  5
4CA
 10
49003.49196
 20
13121.546362
 30
0.0
 11
48999.49202
 21
13122.241392
 31
0.0
  0
LINE
  8
1
  6
CONTINUOUS
 62
     4
  5
4CB
 10
49003.49196
 20
13124.582682
 30
0.0
 11
48999.49202
 21
13125.291922
 31
0.0
  0
LINE
  8
1
  6
CONTINUOUS
 62
     4
  5
4CC
 10
49003.49196
 20
13127.635802
 30
0.0
 11
48999.49202
 21
13128.345042
 31
0.0
  0
LINE
  8
1
  6
CONTINUOUS
 62
     4
  5
4CD
 10
49003.49196
 20
13130.688922
 30
0.0
 11
48999.49202
 21
13131.398092
 31
0.0
  0
LINE
  8
1
  6
CONTINUOUS
 62
     4
  5
4CE
 10
49003.49196
 20
13133.739382
 30
0.0
 11
48999.49202
 21
13134.434342
 31
0.0
  0
LINE
  8
1
  6
CONTINUOUS
 62
     4
  5
4CF
 10
49003.49196
 20
13136.775492
 30
0.0
 11
48999.49202
 21
13137.484732
 31
0.0
  0
LINE
  8
1
  6
CONTINUOUS
 62
     4
  5
4D0
 10
48999.8871
 20
13120.651202
 30
0.0
 11
49003.09688
 21
13120.083572
 31
0.0
  0
LINE
  8
1
  6
CONTINUOUS
 62
     4
  5
4D1
 10
48999.8871
 20
13123.684652
 30
0.0
 11
49003.09688
 21
13123.117092
 31
0.0
  0
LINE
  8
1
  6
CONTINUOUS
 62
     4
  5
4D2
 10
48999.8871
 20
13126.737772
 30
0.0
 11
49003.09688
 21
13126.170212
 31
0.0
  0
LINE
  8
1
  6
CONTINUOUS
 62
     4
  5
4D3
 10
48999.8871
 20
13129.790892
 30
0.0
 11
49003.09688
 21
13129.223402
 31
0.0
  0
LINE
  8
1
  6
CONTINUOUS
 62
     4
  5
4D4
 10
48999.8871
 20
13132.844082
 30
0.0
 11
49003.09688
 21
13132.276522
 31
0.0
  0
LINE
  8
1
  6
CONTINUOUS
 62
     4
  5
4D5
 10
48999.8871
 20
13135.877602
 30
0.0
 11
49003.09688
 21
13135.310042
 31
0.0
  0
LINE
  8
1
  6
CONTINUOUS
 62
     4
  5
4D6
 10
48999.8871
 20
13138.930722
 30
0.0
 11
49003.09688
 21
13138.363092
 31
0.0
  0
LINE
  8
1
  6
CONTINUOUS
 62
     4
  5
4D7
 10
49003.49196
 20
13118.494992
 30
0.0
 11
48999.49202
 21
13119.199192
 31
0.0
  0
LINE
  8
1
  6
CONTINUOUS
 62
     4
  5
4D8
 10
49001.49192
 20
13108.360322
 30
0.0
 11
49005.74204
 21
13108.360322
 31
0.0
  0
LINE
  8
1
  6
CONTINUOUS
 62
     4
  5
4D9
 10
49003.49196
 20
13112.448462
 30
0.0
 11
48999.49202
 21
13113.157702
 31
0.0
  0
LINE
  8
1
  6
CONTINUOUS
 62
     4
  5
4DA
 10
49003.49196
 20
13115.462312
 30
0.0
 11
48999.49202
 21
13116.171552
 31
0.0
  0
LINE
  8
1
  6
CONTINUOUS
 62
     4
  5
4DB
 10
48999.8871
 20
13111.570032
 30
0.0
 11
49003.09688
 21
13111.002472
 31
0.0
  0
LINE
  8
1
  6
CONTINUOUS
 62
     4
  5
4DC
 10
48999.8871
 20
13114.583952
 30
0.0
 11
49003.09688
 21
13114.016392
 31
0.0
  0
LINE
  8
1
  6
CONTINUOUS
 62
     4
  5
4DD
 10
48999.8871
 20
13117.617542
 30
0.0
 11
49003.09688
 21
13117.049982
 31
0.0
  0
LINE
  8
1
  6
CONTINUOUS
 62
     4
  5
4DE
 10
49004.09494
 20
13108.360322
 30
0.0
 11
49002.89192
 21
13109.563272
 31
0.0
  0
LINE
  8
1
  6
CONTINUOUS
 62
     4
  5
4DF
 10
49004.09494
 20
13108.360322
 30
0.0
 11
49005.74204
 21
13108.360322
 31
0.0
  0
LINE
  8
1
  6
CONTINUOUS
 62
     4
  5
4E0
 10
48998.88904
 20
13108.360322
 30
0.0
 11
49000.09192
 21
13109.563272
 31
0.0
  0
LINE
  8
1
  6
CONTINUOUS
 62
     4
  5
4E1
 10
48998.88904
 20
13108.360322
 30
0.0
 11
48997.24194
 21
13108.360322
 31
0.0
  0
LINE
  8
1
  6
CONTINUOUS
 62
     4
  5
4E2
 10
48999.8871
 20
13110.043472
 30
0.0
 11
49003.09688
 21
13109.475982
 31
0.0
  0
LINE
  8
1
  6
CONTINUOUS
 62
     4
  5
4E3
 10
49002.09868
 20
13104.869282
 30
0.0
 11
49000.8853
 21
13104.869282
 31
0.0
  0
LINE
  8
1
  6
CONTINUOUS
 62
     4
  5
4E4
 10
49002.09868
 20
13104.360312
 30
0.0
 11
49002.09868
 21
13104.869282
 31
0.0
  0
LINE
  8
1
  6
CONTINUOUS
 62
     4
  5
4E5
 10
49000.8853
 20
13104.360312
 30
0.0
 11
49000.8853
 21
13104.869282
 31
0.0
  0
LINE
  8
1
  6
CONTINUOUS
 62
     4
  5
4E6
 10
49002.09868
 20
13104.360312
 30
0.0
 11
49000.8853
 21
13104.360312
 31
0.0
  0
LINE
  8
1
  6
CONTINUOUS
 62
     4
  5
4E7
 10
49003.49196
 20
13139.828612
 30
0.0
 11
48999.49202
 21
13140.537852
 31
0.0
  0
LINE
  8
1
  6
CONTINUOUS
 62
     4
  5
4E8
 10
49000.10074
 20
13143.483032
 30
0.0
 11
49002.98558
 21
13142.971472
 31
0.0
  0
LINE
  8
1
  6
CONTINUOUS
 62
     4
  5
4E9
 10
48999.8871
 20
13141.983772
 30
0.0
 11
49003.09688
 21
13141.416212
 31
0.0
  0
LINE
  8
1
  6
CONTINUOUS
 62
     4
  5
4EA
 10
49000.39348
 20
13144.947292
 30
0.0
 11
49002.671
 21
13144.544652
 31
0.0
  0
LINE
  8
40
  6
CONTINUOUS
 62
     4
  5
4EB
 10
48986.8279
 20
13114.360302
 30
0.0
 11
48986.8279
 21
13103.844762
 31
0.0
  0
LINE
  8
40
  6
CONTINUOUS
 62
     4
  5
4EC
 10
48989.32788
 20
13101.727822
 30
0.0
 11
48989.32788
 21
13109.360342
 31
0.0
  0
LINE
  8
40
  6
CONTINUOUS
 62
     4
  5
4ED
 10
49049.53292
 20
13095.360342
 30
0.0
 11
49014.0019
 21
13095.360342
 31
0.0
  0
LINE
  8
40
  6
CONTINUOUS
 62
     4
  5
4EE
 10
49045.8029
 20
13094.360322
 30
0.0
 11
49017.8029
 21
13094.360322
 31
0.0
  0
LINE
  8
40
  6
CONTINUOUS
 62
     4
  5
4EF
 10
49017.21854
 20
13093.360302
 30
0.0
 11
49046.31894
 21
13093.360302
 31
0.0
  0
LINE
  8
40
  6
CONTINUOUS
 62
     4
  5
4F0
 10
49017.65688
 20
13092.360212
 30
0.0
 11
49045.92204
 21
13092.360212
 31
0.0
  0
LINE
  8
12
  6
CONTINUOUS
 62
     4
  5
4F1
 10
49008.4159
 20
13109.360342
 30
0.0
 11
48986.80284
 21
13109.360342
 31
0.0
  0
LINE
  8
12
  6
CONTINUOUS
 62
     4
  5
4F2
 10
49074.30284
 20
13101.752602
 30
0.0
 11
49074.30284
 21
13109.360342
 31
0.0
  0
LINE
  8
12
  6
CONTINUOUS
 62
     4
  5
4F3
 10
49053.45348
 20
13096.372122
 30
0.0
 11
49053.45348
 21
13096.342582
 31
0.0
  0
LINE
  8
12
  6
CONTINUOUS
 62
     4
  5
4F4
 10
49055.17142
 20
13096.815362
 30
0.0
 11
49055.17142
 21
13109.360342
 31
0.0
  0
LINE
  8
12
  6
CONTINUOUS
 62
     4
  5
4F5
 10
49053.45964
 20
13096.467602
 30
0.0
 11
49055.08434
 21
13109.465622
 31
0.0
  0
LINE
  8
12
  6
CONTINUOUS
 62
     4
  5
4F6
 10
49010.1337
 20
13096.266702
 30
0.0
 11
49010.1337
 21
13096.237232
 31
0.0
  0
LINE
  8
12
  6
CONTINUOUS
 62
     4
  5
4F7
 10
49008.4159
 20
13096.710012
 30
0.0
 11
49008.4159
 21
13109.255062
 31
0.0
  0
LINE
  8
12
  6
CONTINUOUS
 62
     4
  5
4F8
 10
49010.12754
 20
13096.362322
 30
0.0
 11
49008.50284
 21
13109.360342
 31
0.0
  0
LINE
  8
12
  6
CONTINUOUS
 62
     4
  5
4F9
 10
49055.07118
 20
13109.360342
 30
0.0
 11
49074.30284
 21
13109.360342
 31
0.0
  0
LINE
  8
12
  6
CONTINUOUS
 62
     4
  5
4FA
 10
49055.07118
 20
13108.360322
 30
0.0
 11
49074.30284
 21
13108.360322
 31
0.0
  0
LINE
  8
12
  6
CONTINUOUS
 62
     4
  5
4FB
 10
49008.4159
 20
13108.360322
 30
0.0
 11
48986.80284
 21
13108.360322
 31
0.0
  0
LINE
  8
12
  6
CONTINUOUS
 62
     4
  5
4FC
 10
49057.86376
 20
13108.360322
 30
0.0
 11
49066.36372
 21
13108.360322
 31
0.0
  0
LINE
  8
12
  6
CONTINUOUS
 62
     4
  5
4FD
 10
49066.36372
 20
13108.360322
 30
0.0
 11
49066.36372
 21
13105.360332
 31
0.0
  0
LINE
  8
12
  6
CONTINUOUS
 62
     4
  5
4FE
 10
49057.86376
 20
13108.360322
 30
0.0
 11
49057.86376
 21
13105.360332
 31
0.0
  0
LINE
  8
12
  6
CONTINUOUS
 62
     4
  5
4FF
 10
49057.86376
 20
13105.360332
 30
0.0
 11
49057.86376
 21
13108.360322
 31
0.0
  0
LINE
  8
12
  6
CONTINUOUS
 62
     4
  5
500
 10
49066.36372
 20
13105.360332
 30
0.0
 11
49066.36372
 21
13108.360322
 31
0.0
  0
LINE
  8
12
  6
CONTINUOUS
 62
     4
  5
501
 10
49066.36372
 20
13105.360332
 30
0.0
 11
49057.86376
 21
13105.360332
 31
0.0
  0
ARC
  8
12
  6
CONTINUOUS
 62
     4
  5
502
 10
49062.11374
 20
13113.891582
 30
0.0
 40
9.53134
 50
243.51896
 51
296.48104
  0
LINE
  8
12
  6
CONTINUOUS
 62
     4
  5
503
 10
49060.71374
 20
13108.360322
 30
0.0
 11
49060.71374
 21
13139.360312
 31
0.0
  0
LINE
  8
12
  6
CONTINUOUS
 62
     4
  5
504
 10
49063.51374
 20
13108.360322
 30
0.0
 11
49063.51374
 21
13139.360312
 31
0.0
  0
LINE
  8
12
  6
CONTINUOUS
 62
     4
  5
505
 10
49060.71374
 20
13139.360312
 30
0.0
 11
49063.51374
 21
13139.360312
 31
0.0
  0
LINE
  8
12
  6
CONTINUOUS
 62
     4
  5
506
 10
49062.11374
 20
13146.360312
 30
0.0
 11
49063.51374
 21
13139.360312
 31
0.0
  0
LINE
  8
12
  6
CONTINUOUS
 62
     4
  5
507
 10
49062.11374
 20
13146.360312
 30
0.0
 11
49060.71374
 21
13139.360312
 31
0.0
  0
LINE
  8
12
  6
CENTER
 62
     4
  5
508
 10
49062.11374
 20
13105.360332
 30
0.0
 11
49062.11374
 21
13146.360312
 31
0.0
  0
LINE
  8
12
  6
CENTER
 62
     4
  5
509
 10
49062.11374
 20
13146.360312
 30
0.0
 11
49062.11374
 21
13106.853292
 31
0.0
  0
LINE
  8
12
  6
CONTINUOUS
 62
     4
  5
50A
 10
48997.24194
 20
13108.360322
 30
0.0
 11
49005.74204
 21
13108.360322
 31
0.0
  0
LINE
  8
12
  6
CONTINUOUS
 62
     4
  5
50B
 10
49005.74204
 20
13108.360322
 30
0.0
 11
49005.74204
 21
13105.360332
 31
0.0
  0
LINE
  8
12
  6
CONTINUOUS
 62
     4
  5
50C
 10
48997.24194
 20
13108.360322
 30
0.0
 11
48997.24194
 21
13105.360332
 31
0.0
  0
LINE
  8
12
  6
CONTINUOUS
 62
     4
  5
50D
 10
48997.24194
 20
13105.360332
 30
0.0
 11
48997.24194
 21
13108.360322
 31
0.0
  0
LINE
  8
12
  6
CONTINUOUS
 62
     4
  5
50E
 10
49005.74204
 20
13105.360332
 30
0.0
 11
49005.74204
 21
13108.360322
 31
0.0
  0
LINE
  8
12
  6
CONTINUOUS
 62
     4
  5
50F
 10
49005.74204
 20
13105.360332
 30
0.0
 11
48997.24194
 21
13105.360332
 31
0.0
  0
ARC
  8
12
  6
CONTINUOUS
 62
     4
  5
510
 10
49001.49192
 20
13113.891582
 30
0.0
 40
9.53134
 50
243.51896
 51
296.48104
  0
LINE
  8
12
  6
CONTINUOUS
 62
     4
  5
511
 10
49000.09192
 20
13108.360322
 30
0.0
 11
49000.09192
 21
13139.360312
 31
0.0
  0
LINE
  8
12
  6
CONTINUOUS
 62
     4
  5
512
 10
49002.89192
 20
13108.360322
 30
0.0
 11
49002.89192
 21
13139.360312
 31
0.0
  0
LINE
  8
12
  6
CONTINUOUS
 62
     4
  5
513
 10
49000.09192
 20
13139.360312
 30
0.0
 11
49002.89192
 21
13139.360312
 31
0.0
  0
LINE
  8
12
  6
CONTINUOUS
 62
     4
  5
514
 10
49001.49192
 20
13146.360312
 30
0.0
 11
49002.89192
 21
13139.360312
 31
0.0
  0
LINE
  8
12
  6
CONTINUOUS
 62
     4
  5
515
 10
49001.49192
 20
13146.360312
 30
0.0
 11
49000.09192
 21
13139.360312
 31
0.0
  0
LINE
  8
12
  6
CENTER
 62
     4
  5
516
 10
49001.49192
 20
13105.360332
 30
0.0
 11
49001.49192
 21
13146.360312
 31
0.0
  0
LINE
  8
12
  6
CENTER
 62
     4
  5
517
 10
49001.49192
 20
13146.360312
 30
0.0
 11
49001.49192
 21
13106.853292
 31
0.0
  0
LINE
  8
12
  6
CONTINUOUS
 62
     4
  5
518
 10
49056.40524
 20
13108.607562
 30
0.0
 11
49067.90526
 21
13108.607562
 31
0.0
  0
LINE
  8
12
  6
CONTINUOUS
 62
     4
  5
519
 10
49056.40524
 20
13109.407452
 30
0.0
 11
49067.90526
 21
13109.407452
 31
0.0
  0
LINE
  8
12
  6
CONTINUOUS
 62
     4
  5
51A
 10
49056.40524
 20
13108.607562
 30
0.0
 11
49056.40524
 21
13109.407452
 31
0.0
  0
LINE
  8
12
  6
CONTINUOUS
 62
     4
  5
51B
 10
49059.40516
 20
13108.607562
 30
0.0
 11
49059.40516
 21
13109.407452
 31
0.0
  0
LINE
  8
12
  6
CONTINUOUS
 62
     4
  5
51C
 10
49064.9052
 20
13108.607562
 30
0.0
 11
49064.9052
 21
13109.407452
 31
0.0
  0
LINE
  8
12
  6
CONTINUOUS
 62
     4
  5
51D
 10
49067.90526
 20
13108.607562
 30
0.0
 11
49067.90526
 21
13109.407452
 31
0.0
  0
LINE
  8
12
  6
CONTINUOUS
 62
     4
  5
51E
 10
48995.78706
 20
13108.607562
 30
0.0
 11
49007.28708
 21
13108.607562
 31
0.0
  0
LINE
  8
12
  6
CONTINUOUS
 62
     4
  5
51F
 10
48995.78706
 20
13109.407452
 30
0.0
 11
49007.28708
 21
13109.407452
 31
0.0
  0
LINE
  8
12
  6
CONTINUOUS
 62
     4
  5
520
 10
48995.78706
 20
13108.607562
 30
0.0
 11
48995.78706
 21
13109.407452
 31
0.0
  0
LINE
  8
12
  6
CONTINUOUS
 62
     4
  5
521
 10
48998.78712
 20
13108.607562
 30
0.0
 11
48998.78712
 21
13109.407452
 31
0.0
  0
LINE
  8
12
  6
CONTINUOUS
 62
     4
  5
522
 10
49004.28716
 20
13108.607562
 30
0.0
 11
49004.28716
 21
13109.407452
 31
0.0
  0
LINE
  8
12
  6
CONTINUOUS
 62
     4
  5
523
 10
49007.28708
 20
13108.607562
 30
0.0
 11
49007.28708
 21
13109.407452
 31
0.0
  0
LINE
  8
8
  6
CONTINUOUS
 62
     4
  5
524
 10
49014.80242
 20
13095.153702
 30
0.0
 11
48988.30686
 21
13101.991232
 31
0.0
  0
LINE
  8
8
  6
CONTINUOUS
 62
     4
  5
525
 10
49048.61466
 20
13095.123252
 30
0.0
 11
49075.3457
 21
13102.021612
 31
0.0
  0
ARC
  8
8
  6
CONTINUOUS
 62
     4
  5
526
 10
49049.77064
 20
13091.324352
 30
0.0
 40
4.00008
 50
104.470294
 51
180.0
  0
LINE
  8
50
  6
CENTER
 62
     4
  5
527
 10
49062.15518
 20
13108.607562
 30
0.0
 11
49062.15518
 21
13110.729542
 31
0.0
  0
LINE
  8
50
  6
CENTER
 62
     4
  5
528
 10
49001.53714
 20
13108.607562
 30
0.0
 11
49001.53714
 21
13110.729542
 31
0.0
  0
ARC
  8
8
  6
CONTINUOUS
 62
     4
  5
529
 10
49013.80842
 20
13091.273462
 30
0.0
 40
4.00008
 50
360.0
 51
75.529706
  0
LINE
  8
40
  6
DOT
 62
     3
  5
52A
 10
49455.069487
 20
13058.360092
 30
0.0
 11
49470.069507
 21
13058.360092
 31
0.0
  0
LINE
  8
40
  6
DOT
 62
     3
  5
52B
 10
49455.069487
 20
13058.360092
 30
0.0
 11
49455.069487
 21
13064.360212
 31
0.0
  0
LINE
  8
40
  6
DOT
 62
     3
  5
52C
 10
49470.069507
 20
13058.360092
 30
0.0
 11
49470.069507
 21
13064.360212
 31
0.0
  0
LINE
  8
40
  6
CONTINUOUS
 62
     4
  5
52D
 10
49476.569427
 20
13064.360072
 30
0.0
 11
49476.569427
 21
13086.944404
 31
0.0
  0
LINE
  8
40
  6
CONTINUOUS
 62
     4
  5
52E
 10
49448.569427
 20
13064.360072
 30
0.0
 11
49448.569427
 21
13086.944404
 31
0.0
  0
LINE
  8
40
  6
CONTINUOUS
 62
     4
  5
52F
 10
49476.569427
 20
13064.360212
 30
0.0
 11
49448.569427
 21
13064.360212
 31
0.0
  0
LINE
  8
40
  6
DOT
 62
     3
  5
530
 10
49039.30284
 20
13058.360092
 30
0.0
 11
49024.30282
 21
13058.360092
 31
0.0
  0
LINE
  8
40
  6
DOT
 62
     3
  5
531
 10
49039.30284
 20
13058.360092
 30
0.0
 11
49039.30284
 21
13064.360212
 31
0.0
  0
LINE
  8
40
  6
DOT
 62
     3
  5
532
 10
49024.30282
 20
13058.360092
 30
0.0
 11
49024.30282
 21
13064.360212
 31
0.0
  0
LINE
  8
40
  6
CONTINUOUS
 62
     4
  5
533
 10
49045.8029
 20
13064.360072
 30
0.0
 11
49045.8029
 21
13086.944404
 31
0.0
  0
LINE
  8
7
  6
CONTINUOUS
 62
     4
  5
534
 10
49017.8029
 20
13094.410281
 30
0.0
 11
49017.8029
 21
13064.360072
 31
0.0
  0
LINE
  8
7
  6
CONTINUOUS
 62
     4
  5
535
 10
49017.8029
 20
13039.318231
 30
0.0
 11
49476.569427
 21
13039.318231
 31
0.0
  0
ARC
  8
7
  6
CONTINUOUS
 62
     4
  5
536
 10
49017.8029
 20
13049.334967
 30
0.0
 40
10.016736
 50
180.0
 51
270.0
  0
LINE
  8
7
  6
CONTINUOUS
 62
     4
  5
537
 10
49007.786163
 20
13049.334967
 30
0.0
 11
49007.786163
 21
13064.360072
 31
0.0
  0
LINE
  8
40
  6
CONTINUOUS
 62
     4
  5
538
 10
49017.8029
 20
13064.360072
 30
0.0
 11
49017.8029
 21
13086.944404
 31
0.0
  0
LINE
  8
40
  6
CONTINUOUS
 62
     4
  5
539
 10
49017.8029
 20
13064.360212
 30
0.0
 11
49045.8029
 21
13064.360212
 31
0.0
  0
LINE
  8
7
  6
CONTINUOUS
 62
     4
  5
53A
 10
49486.586163
 20
13049.334967
 30
0.0
 11
49486.586163
 21
13064.360072
 31
0.0
  0
LINE
  8
7
  6
CONTINUOUS
 62
     4
  5
53B
 10
49007.786163
 20
13064.360072
 30
0.0
 11
49486.586163
 21
13064.360072
 31
0.0
  0
ARC
  8
7
  6
CONTINUOUS
 62
     4
  5
53C
 10
49476.569427
 20
13049.334967
 30
0.0
 40
10.016736
 50
270.0
 51
360.0
  0
TEXT
  8
5
  6
CONTINUOUS
 62
     3
  5
53D
 10
49092.186163
 20
12889.318231
 30
0.0
 40
60.0
  1
テスリックス
 41
0.837
  7

 72
     5
 11
49452.186163
 21
12889.318231
 31
0.0
  0
LINE
  8
5
  6
CONTINUOUS
 62
     3
  5
53E
 10
49128.788704
 20
13039.318231
 30
0.0
 11
49042.186163
 21
12889.318231
 31
0.0
  0
LINE
  8
5
  6
CONTINUOUS
 62
     3
  5
53F
 10
49042.186163
 20
12889.318231
 30
0.0
 11
49452.186163
 21
12889.318231
 31
0.0
  0
LINE
  8
5
  6
CONTINUOUS
 62
     3
  5
540
 10
50087.185163
 20
11204.360302
 30
0.0
 11
49887.185163
 21
11204.360302
 31
0.0
  0
LINE
  8
5
  6
CONTINUOUS
 62
     3
  5
541
 10
50087.185163
 20
13204.361302
 30
0.0
 11
49887.185163
 21
13204.361302
 31
0.0
  0
LINE
  8
5
  6
CONTINUOUS
 62
     3
  5
542
 10
49987.185163
 20
11944.362302
 30
0.0
 11
49887.185163
 21
11944.362302
 31
0.0
  0
LINE
  8
5
  6
CONTINUOUS
 62
     3
  5
543
 10
49987.185163
 20
11294.362302
 30
0.0
 11
49887.185163
 21
11294.362302
 31
0.0
  0
CIRCLE
  8
5
  6
CONTINUOUS
 62
     3
  5
544
 10
50087.185163
 20
11204.360302
 30
0.0
 40
7.5
  0
CIRCLE
  8
5
  6
CONTINUOUS
 62
     3
  5
545
 10
50087.185163
 20
13204.361302
 30
0.0
 40
7.5
  0
CIRCLE
  8
5
  6
CONTINUOUS
 62
     3
  5
546
 10
49987.185163
 20
11204.360302
 30
0.0
 40
7.5
  0
CIRCLE
  8
5
  6
CONTINUOUS
 62
     3
  5
547
 10
49987.185163
 20
11294.362302
 30
0.0
 40
7.5
  0
CIRCLE
  8
5
  6
CONTINUOUS
 62
     3
  5
548
 10
49987.185163
 20
11944.362302
 30
0.0
 40
7.5
  0
CIRCLE
  8
5
  6
CONTINUOUS
 62
     3
  5
549
 10
49987.185163
 20
13204.361302
 30
0.0
 40
7.5
  0
TEXT
  8
5
  6
CONTINUOUS
 62
     3
  5
54A
 10
50087.185163
 20
12114.360802
 30
0.0
 40
60.0
  1
2,000
 50
90.0
 41
0.6
  7

 72
     5
 11
50087.185163
 21
12294.360802
 31
0.0
  0
LINE
  8
5
  6
CONTINUOUS
 62
     3
  5
54B
 10
50087.185163
 20
11204.360302
 30
0.0
 11
50087.185163
 21
13204.361302
 31
0.0
  0
TEXT
  8
5
  6
CONTINUOUS
 62
     3
  5
54C
 10
49987.185163
 20
11204.361302
 30
0.0
 40
60.0
  1
90
 50
90.0
 41
0.75
  7

 72
     5
 11
49987.185163
 21
11294.361302
 31
0.0
  0
LINE
  8
5
  6
CONTINUOUS
 62
     3
  5
54D
 10
49987.185163
 20
11204.360302
 30
0.0
 11
49987.185163
 21
11294.362302
 31
0.0
  0
TEXT
  8
5
  6
CONTINUOUS
 62
     3
  5
54E
 10
49987.185163
 20
11559.362302
 30
0.0
 40
60.0
  1
650
 50
90.0
 41
0.666667
  7

 72
     5
 11
49987.185163
 21
11679.362302
 31
0.0
  0
LINE
  8
5
  6
CONTINUOUS
 62
     3
  5
54F
 10
49987.185163
 20
11294.362302
 30
0.0
 11
49987.185163
 21
11944.362302
 31
0.0
  0
TEXT
  8
5
  6
CONTINUOUS
 62
     3
  5
550
 10
49987.185163
 20
12484.361802
 30
0.0
 40
60.0
  1
1,260
 50
90.0
 41
0.6
  7

 72
     5
 11
49987.185163
 21
12664.361802
 31
0.0
  0
LINE
  8
5
  6
CONTINUOUS
 62
     3
  5
551
 10
49987.185163
 20
11944.362302
 30
0.0
 11
49987.185163
 21
13204.361302
 31
0.0
  0
ENDSEC
  0
EOF
