  0
SECTION
  2
HEADER
  9
$ACADVER
  1
AC1009
  9
$INSBASE
 10
0.0
 20
0.0
 30
0.0
  9
$EXTMIN
 10
47543.370748
 20
8374.192667
 30
0.0
  9
$EXTMAX
 10
50010.871748
 20
13410.341642
 30
0.0
  9
$LIMMIN
 10
46732.395087
 20
7820.98695
  9
$LIMMAX
 10
50932.395087
 20
13760.98695
  9
$ORTHOMODE
 70
     0
  9
$REGENMODE
 70
     1
  9
$FILLMODE
 70
     1
  9
$QTEXTMODE
 70
     0
  9
$MIRRTEXT
 70
     1
  9
$DRAGMODE
 70
     2
  9
$LTSCALE
 40
20.0
  9
$OSMODE
 70
     0
  9
$ATTMODE
 70
     1
  9
$TEXTSIZE
 40
0.2
  9
$TRACEWID
 40
0.05
  9
$TEXTSTYLE
  7
STANDARD
  9
$CLAYER
  8
0
  9
$CELTYPE
  6
CONTINUOUS
  9
$CECOLOR
 62
   256
  9
$DIMSCALE
 40
1.0
  9
$DIMASZ
 40
0.18
  9
$DIMEXO
 40
0.0625
  9
$DIMDLI
 40
0.38
  9
$DIMRND
 40
0.0
  9
$DIMDLE
 40
0.0
  9
$DIMEXE
 40
0.18
  9
$DIMTP
 40
0.0
  9
$DIMTM
 40
0.0
  9
$DIMTXT
 40
0.18
  9
$DIMCEN
 40
0.09
  9
$DIMTSZ
 40
0.0
  9
$DIMTOL
 70
     0
  9
$DIMLIM
 70
     0
  9
$DIMTIH
 70
     1
  9
$DIMTOH
 70
     1
  9
$DIMSE1
 70
     0
  9
$DIMSE2
 70
     0
  9
$DIMTAD
 70
     0
  9
$DIMZIN
 70
     0
  9
$DIMBLK
  1

  9
$DIMASO
 70
     1
  9
$DIMSHO
 70
     1
  9
$DIMPOST
  1

  9
$DIMAPOST
  1

  9
$DIMALT
 70
     0
  9
$DIMALTD
 70
     2
  9
$DIMALTF
 40
25.4
  9
$DIMLFAC
 40
1.0
  9
$DIMTOFL
 70
     0
  9
$DIMTVP
 40
0.0
  9
$DIMTIX
 70
     0
  9
$DIMSOXD
 70
     0
  9
$DIMSAH
 70
     0
  9
$DIMBLK1
  1

  9
$DIMBLK2
  1

  9
$DIMSTYLE
  2
STANDARD
  9
$DIMCLRD
 70
     0
  9
$DIMCLRE
 70
     0
  9
$DIMCLRT
 70
     0
  9
$DIMTFAC
 40
1.0
  9
$DIMGAP
 40
0.09
  9
$LUNITS
 70
     2
  9
$LUPREC
 70
     4
  9
$AXISMODE
 70
     0
  9
$AXISUNIT
 10
0.0
 20
0.0
  9
$SKETCHINC
 40
0.1
  9
$FILLETRAD
 40
0.0
  9
$AUNITS
 70
     0
  9
$AUPREC
 70
     0
  9
$MENU
  1
acad
  9
$ELEVATION
 40
0.0
  9
$PELEVATION
 40
0.0
  9
$THICKNESS
 40
0.0
  9
$LIMCHECK
 70
     0
  9
$BLIPMODE
 70
     1
  9
$CHAMFERA
 40
0.0
  9
$CHAMFERB
 40
0.0
  9
$SKPOLY
 70
     0
  9
$TDCREATE
 40
0.000000000
  9
$TDUPDATE
 40
0.000000000
  9
$TDINDWG
 40
0.0000000000
  9
$TDUSRTIMER
 40
0.0000000000
  9
$USRTIMER
 70
     1
  9
$ANGBASE
 50
0.0
  9
$ANGDIR
 70
     0
  9
$PDMODE
 70
     0
  9
$PDSIZE
 40
0.0
  9
$PLINEWID
 40
0.0
  9
$COORDS
 70
     0
  9
$SPLFRAME
 70
     0
  9
$SPLINETYPE
 70
     6
  9
$SPLINESEGS
 70
     8
  9
$ATTDIA
 70
     0
  9
$ATTREQ
 70
     1
  9
$HANDLING
 70
     1
  9
$HANDSEED
  5
50D
  9
$SURFTAB1
 70
     6
  9
$SURFTAB2
 70
     6
  9
$SURFTYPE
 70
     6
  9
$SURFU
 70
     6
  9
$SURFV
 70
     6
  9
$UCSNAME
  2

  9
$UCSORG
 10
0.0
 20
0.0
 30
0.0
  9
$UCSXDIR
 10
1.0
 20
0.0
 30
0.0
  9
$UCSYDIR
 10
0.0
 20
1.0
 30
0.0
  9
$PUCSNAME
  2

  9
$PUCSORG
 10
0.0
 20
0.0
 30
0.0
  9
$PUCSXDIR
 10
1.0
 20
0.0
 30
0.0
  9
$PUCSYDIR
 10
0.0
 20
1.0
 30
0.0
  9
$USERI1
 70
     0
  9
$USERI2
 70
     0
  9
$USERI3
 70
     0
  9
$USERI4
 70
     0
  9
$USERI5
 70
     0
  9
$USERR1
 40
0.0
  9
$USERR2
 40
0.0
  9
$USERR3
 40
0.0
  9
$USERR4
 40
0.0
  9
$USERR5
 40
0.0
  9
$WORLDVIEW
 70
     1
  9
$SHADEDGE
 70
     3
  9
$SHADEDIF
 70
    70
  9
$TILEMODE
 70
     1
  9
$MAXACTVP
 70
    16
  9
$PINSBASE
 10
0.0
 20
0.0
 30
0.0
  9
$PLIMCHECK
 70
     0
  9
$PEXTMIN
 10
1.000000E+20
 20
1.000000E+20
 30
1.000000E+20
  9
$PEXTMAX
 10
-1.000000E+20
 20
-1.000000E+20
 30
-1.000000E+20
  9
$PLIMMIN
 10
0.0
 20
0.0
  9
$PLIMMAX
 10
12.0
 20
9.0
  9
$UNITMODE
 70
     0
  9
$VISRETAIN
 70
     0
  9
$PLINEGEN
 70
     1
  9
$PSLTSCALE
 70
     0
  9
$TREEDEPTH
 70
  3020
  9
$DWGCODEPAGE
  3
dos932
  0
ENDSEC
  0
SECTION
  2
TABLES
  0
TABLE
  2
VPORT
 70
     1
  0
VPORT
  2
*ACTIVE
 70
     0
 10
0.0
 20
0.0
 11
1.0
 21
1.0
 12
48832.395087
 22
10790.98695
 13
0.0
 23
0.0
 14
1000.0
 24
1000.0
 15
1000.0
 25
1000.0
 16
0.0
 26
0.0
 36
1.0
 17
0.0
 27
0.0
 37
0.0
 40
5940.0
 41
0.707071
 42
50.0
 43
0.0
 44
0.0
 50
0.0
 51
0.0
 71
     0
 72
   100
 73
     1
 74
     1
 75
     0
 76
     0
 77
     0
 78
     0
  0
ENDTAB
  0
TABLE
  2
LTYPE
 70
     9
  0
LTYPE
  2
CONTINUOUS
 70
    64
  3
Solid line
 72
    65
 73
     0
 40
0.0
  0
LTYPE
  2
HIDDEN
 70
    64
  3
__ __ __ __ __ __ __ __ __ __ __ __ __ __ __ __
 72
    65
 73
     5
 40
8.0
 49
1.0
 49
-2.0
 49
2.0
 49
-2.0
 49
1.0
  0
LTYPE
  2
DOT
 70
    64
  3
. . . . . . . . . . . . . . . . . . . . . . . .
 72
    65
 73
     3
 40
1.6
 49
0.4
 49
-0.8
 49
0.4
  0
LTYPE
  2
CENTER
 70
    64
  3
____ _ ____ _ ____ _ ____ _ ____ _ ____ _ ____ 
 72
    65
 73
     5
 40
12.0
 49
5.0
 49
-0.8
 49
0.4
 49
-0.8
 49
5.0
  0
LTYPE
  2
DIVIDE
 70
    64
  3
____ . . ____ . . ____ . . ____ . . ____ . . __
 72
    65
 73
     7
 40
13.2
 49
5.0
 49
-0.8
 49
0.4
 49
-0.8
 49
0.4
 49
-0.8
 49
5.0
  0
LTYPE
  2
DASHED1
 70
     0
  3
Solid Line
 72
    65
 73
     2
 40
2.5
 49
1.25
 49
-1.25
  0
LTYPE
  2
DASHED3
 70
     0
  3
Solid Line
 72
    65
 73
     2
 40
5.0
 49
3.75
 49
-1.25
  0
LTYPE
  2
CENTER1
 70
     0
  3
Solid Line
 72
    65
 73
     4
 40
10.0
 49
6.25
 49
-1.25
 49
1.25
 49
-1.25
  0
LTYPE
  2
PHANTOM1
 70
     0
  3
Solid Line
 72
    65
 73
     6
 40
9.5
 49
3.25
 49
-1.25
 49
1.25
 49
-1.25
 49
1.25
 49
-1.25
  0
ENDTAB
  0
TABLE
  2
LAYER
 70
    19
  0
LAYER
  2
0
 70
     0
 62
     7
  6
CONTINUOUS
  0
LAYER
  2
1
 70
     0
 62
     1
  6
CONTINUOUS
  0
LAYER
  2
2
 70
     0
 62
     1
  6
CONTINUOUS
  0
LAYER
  2
3
 70
     0
 62
     1
  6
CONTINUOUS
  0
LAYER
  2
4
 70
     0
 62
     1
  6
CONTINUOUS
  0
LAYER
  2
5
 70
     0
 62
     1
  6
CONTINUOUS
  0
LAYER
  2
6
 70
     0
 62
     1
  6
CONTINUOUS
  0
LAYER
  2
7
 70
     0
 62
     1
  6
CONTINUOUS
  0
LAYER
  2
8
 70
     0
 62
     1
  6
CONTINUOUS
  0
LAYER
  2
9
 70
     0
 62
     1
  6
CONTINUOUS
  0
LAYER
  2
10
 70
     0
 62
     1
  6
CONTINUOUS
  0
LAYER
  2
11
 70
     0
 62
     1
  6
CONTINUOUS
  0
LAYER
  2
12
 70
     0
 62
     1
  6
CONTINUOUS
  0
LAYER
  2
13
 70
     0
 62
     1
  6
CONTINUOUS
  0
LAYER
  2
14
 70
     0
 62
     1
  6
CONTINUOUS
  0
LAYER
  2
15
 70
     0
 62
     1
  6
CONTINUOUS
  0
LAYER
  2
16
 70
     0
 62
     1
  6
CONTINUOUS
  0
LAYER
  2
40
 70
     0
 62
     1
  6
CONTINUOUS
  0
LAYER
  2
50
 70
     0
 62
     1
  6
CONTINUOUS
  0
ENDTAB
  0
TABLE
  2
STYLE
 70
     3
  0
STYLE
  2
STANDARD
 70
     0
 40
0.0
 41
1.0
 50
0.0
 71
     0
 42
0.0
  3
txt
  4

  0
STYLE
  2

 70
     0
 40
1000.0
 41
1.0
 50
0.0
 71
     0
 42
1000.0
  3
txt
  4
extfont
  0
STYLE
  2

 70
     0
 40
1000.0
 41
1.0
 50
0.0
 71
     0
 42
1000.0
  3
txt
  4
extfont
  0
ENDTAB
  0
TABLE
  2
VIEW
 70
     0
  0
ENDTAB
  0
TABLE
  2
UCS
 70
     0
  0
ENDTAB
  0
TABLE
  2
APPID
 70
     1
  0
APPID
  2
ACAD
 70
     0
  0
ENDTAB
  0
TABLE
  2
DIMSTYLE
 70
     1
  0
DIMSTYLE
  2
STANDARD
 70
     0
  3

  4

  5

  6

  7

 40
1.0
 41
0.18
 42
0.0625
 43
0.38
 44
0.18
 45
0.0
 46
0.0
 47
0.0
 48
0.0
 71
     0
 72
     0
 73
     1
 74
     1
 75
     0
 76
     0
 77
     0
 78
     0
140
0.18
141
0.09
142
0.0
143
25.4
144
1.0
145
0.0
146
1.0
147
0.09
170
     0
171
     2
172
     0
173
     0
174
     0
175
     0
176
     0
177
     0
178
     0
  0
ENDTAB
  0
ENDSEC
  0
SECTION
  2
BLOCKS
  0
ENDSEC
  0
SECTION
  2
ENTITIES
  0
LINE
  8
1
  6
CONTINUOUS
 62
     6
  5
102
 10
48278.965748
 20
11948.748242
 30
0.0
 11
48277.209748
 21
11948.594242
 31
0.0
  0
LINE
  8
1
  6
CONTINUOUS
 62
     6
  5
103
 10
48696.932748
 20
12117.212242
 30
0.0
 11
48698.696748
 21
12117.170242
 31
0.0
  0
LINE
  8
1
  6
CONTINUOUS
 62
     6
  5
104
 10
48694.161748
 20
12278.196242
 30
0.0
 11
48695.931748
 21
12278.303242
 31
0.0
  0
LINE
  8
1
  6
CONTINUOUS
 62
     6
  5
105
 10
48689.156748
 20
11964.684242
 30
0.0
 11
48690.913748
 21
11964.530242
 31
0.0
  0
LINE
  8
1
  6
CONTINUOUS
 62
     6
  5
106
 10
48270.748748
 20
12081.717242
 30
0.0
 11
48268.985748
 21
12081.664242
 31
0.0
  0
LINE
  8
1
  6
CONTINUOUS
 62
     6
  5
107
 10
48246.903748
 20
12293.124242
 30
0.0
 11
48246.745748
 21
12294.889242
 31
0.0
  0
LINE
  8
1
  6
CONTINUOUS
 62
     6
  5
108
 10
48305.604748
 20
12093.214242
 30
0.0
 11
48305.604748
 21
12099.386242
 31
0.0
  0
LINE
  8
1
  6
CONTINUOUS
 62
     6
  5
109
 10
48296.872748
 20
12092.213242
 30
0.0
 11
48305.604748
 21
12093.214242
 31
0.0
  0
LINE
  8
1
  6
CONTINUOUS
 62
     6
  5
10A
 10
48661.132748
 20
12099.386242
 30
0.0
 11
48661.132748
 21
12093.214242
 31
0.0
  0
LINE
  8
1
  6
CONTINUOUS
 62
     6
  5
10B
 10
48661.132748
 20
12093.214242
 30
0.0
 11
48669.874748
 21
12092.213242
 31
0.0
  0
LINE
  8
1
  6
CONTINUOUS
 62
     6
  5
10C
 10
48592.472748
 20
11905.515242
 30
0.0
 11
48374.271748
 21
11905.515242
 31
0.0
  0
LINE
  8
1
  6
CONTINUOUS
 62
     6
  5
10D
 10
48689.408748
 20
12336.741242
 30
0.0
 11
48709.426748
 21
12339.025242
 31
0.0
  0
LINE
  8
1
  6
CONTINUOUS
 62
     6
  5
10E
 10
48704.946748
 20
12257.143242
 30
0.0
 11
48704.946748
 21
12338.514242
 31
0.0
  0
LINE
  8
1
  6
CONTINUOUS
 62
     6
  5
10F
 10
48712.547748
 20
12257.143242
 30
0.0
 11
48712.547748
 21
12340.344242
 31
0.0
  0
LINE
  8
1
  6
CONTINUOUS
 62
     6
  5
110
 10
48268.502748
 20
12097.659242
 30
0.0
 11
48270.266748
 21
12097.709242
 31
0.0
  0
LINE
  8
1
  6
CONTINUOUS
 62
     6
  5
111
 10
48275.833748
 20
11964.530242
 30
0.0
 11
48277.590748
 21
11964.684242
 31
0.0
  0
LINE
  8
1
  6
CONTINUOUS
 62
     6
  5
112
 10
48696.890748
 20
12262.333242
 30
0.0
 11
48695.120748
 21
12262.225242
 31
0.0
  0
LINE
  8
1
  6
CONTINUOUS
 62
     6
  5
113
 10
48698.339748
 20
12101.179242
 30
0.0
 11
48696.575748
 21
12101.216242
 31
0.0
  0
LINE
  8
1
  6
CONTINUOUS
 62
     6
  5
114
 10
48689.534748
 20
11948.594242
 30
0.0
 11
48687.778748
 21
11948.748242
 31
0.0
  0
LINE
  8
1
  6
CONTINUOUS
 62
     6
  5
115
 10
48262.840748
 20
12294.588242
 30
0.0
 11
48265.447748
 21
12294.831242
 31
0.0
  0
LINE
  8
1
  6
CONTINUOUS
 62
     6
  5
116
 10
48262.675748
 20
12296.352242
 30
0.0
 11
48262.840748
 21
12294.588242
 31
0.0
  0
LINE
  8
1
  6
CONTINUOUS
 62
     6
  5
117
 10
48228.005748
 20
12146.449242
 30
0.0
 11
48231.529748
 21
12281.075242
 31
0.0
  0
LINE
  8
1
  6
CONTINUOUS
 62
     6
  5
118
 10
48245.230748
 20
12269.372242
 30
0.0
 11
48242.297748
 21
12157.411242
 31
0.0
  0
LINE
  8
1
  6
CONTINUOUS
 62
     6
  5
119
 10
48262.287748
 20
12156.890242
 30
0.0
 11
48265.219748
 21
12268.851242
 31
0.0
  0
LINE
  8
1
  6
CONTINUOUS
 62
     6
  5
11A
 10
48242.427748
 20
12292.709242
 30
0.0
 11
48246.903748
 21
12293.124242
 31
0.0
  0
LINE
  8
1
  6
CONTINUOUS
 62
     6
  5
11B
 10
48355.492748
 20
12231.429242
 30
0.0
 11
48351.132748
 21
12231.702242
 31
0.0
  0
LINE
  8
1
  6
CONTINUOUS
 62
     6
  5
11C
 10
48349.256748
 20
12233.628242
 30
0.0
 11
48347.668748
 21
12280.884242
 31
0.0
  0
LINE
  8
1
  6
CONTINUOUS
 62
     6
  5
11D
 10
48284.579748
 20
12309.181242
 30
0.0
 11
48342.404748
 21
12288.135242
 31
0.0
  0
LINE
  8
1
  6
CONTINUOUS
 62
     6
  5
11E
 10
48281.495748
 20
12311.902242
 30
0.0
 11
48342.695748
 21
12289.626242
 31
0.0
  0
LINE
  8
1
  6
CONTINUOUS
 62
     6
  5
11F
 10
48357.368748
 20
12229.436242
 30
0.0
 11
48357.368748
 21
12223.212242
 31
0.0
  0
LINE
  8
1
  6
CONTINUOUS
 62
     6
  5
120
 10
48615.604748
 20
12231.702242
 30
0.0
 11
48611.243748
 21
12231.429242
 31
0.0
  0
LINE
  8
1
  6
CONTINUOUS
 62
     6
  5
121
 10
48619.075748
 20
12280.884242
 30
0.0
 11
48617.480748
 21
12233.628242
 31
0.0
  0
LINE
  8
1
  6
CONTINUOUS
 62
     6
  5
122
 10
48624.339748
 20
12288.135242
 30
0.0
 11
48682.164748
 21
12309.181242
 31
0.0
  0
LINE
  8
1
  6
CONTINUOUS
 62
     6
  5
123
 10
48627.467748
 20
11895.212242
 30
0.0
 11
48339.276748
 21
11895.212242
 31
0.0
  0
LINE
  8
1
  6
CONTINUOUS
 62
     6
  5
124
 10
48624.052748
 20
12289.626242
 30
0.0
 11
48685.251748
 21
12311.902242
 31
0.0
  0
LINE
  8
1
  6
CONTINUOUS
 62
     6
  5
125
 10
48607.373748
 20
12221.212242
 30
0.0
 11
48359.373748
 21
12221.212242
 31
0.0
  0
LINE
  8
1
  6
CONTINUOUS
 62
     6
  5
126
 10
48609.368748
 20
12223.212242
 30
0.0
 11
48609.368748
 21
12229.436242
 31
0.0
  0
LINE
  8
1
  6
CONTINUOUS
 62
     6
  5
127
 10
48697.373748
 20
12165.617242
 30
0.0
 11
48697.373748
 21
12180.100242
 31
0.0
  0
LINE
  8
1
  6
CONTINUOUS
 62
     6
  5
128
 10
48261.174748
 20
12130.934242
 30
0.0
 11
48238.280748
 21
12134.255242
 31
0.0
  0
LINE
  8
1
  6
CONTINUOUS
 62
     6
  5
129
 10
48689.632748
 20
12331.674242
 30
0.0
 11
48687.134748
 21
12353.585242
 31
0.0
  0
LINE
  8
1
  6
CONTINUOUS
 62
     6
  5
12A
 10
48364.871748
 20
12255.945242
 30
0.0
 11
48453.374748
 21
12255.945242
 31
0.0
  0
LINE
  8
1
  6
CONTINUOUS
 62
     6
  5
12B
 10
48453.374748
 20
12255.945242
 30
0.0
 11
48453.605748
 21
12255.710242
 31
0.0
  0
LINE
  8
1
  6
CONTINUOUS
 62
     6
  5
12C
 10
48453.605748
 20
12255.710242
 30
0.0
 11
48513.138748
 21
12255.710242
 31
0.0
  0
LINE
  8
1
  6
CONTINUOUS
 62
     6
  5
12D
 10
48364.871748
 20
12255.945242
 30
0.0
 11
48364.871748
 21
12252.713242
 31
0.0
  0
LINE
  8
1
  6
CONTINUOUS
 62
     6
  5
12E
 10
48363.373748
 20
12251.215242
 30
0.0
 11
48350.873748
 21
12251.215242
 31
0.0
  0
LINE
  8
1
  6
CONTINUOUS
 62
     6
  5
12F
 10
48349.368748
 20
12288.613242
 30
0.0
 11
48349.368748
 21
12252.713242
 31
0.0
  0
LINE
  8
1
  6
CONTINUOUS
 62
     6
  5
130
 10
48344.109748
 20
12296.128242
 30
0.0
 11
48282.934748
 21
12318.392242
 31
0.0
  0
LINE
  8
1
  6
CONTINUOUS
 62
     6
  5
131
 10
48513.369748
 20
12255.945242
 30
0.0
 11
48601.872748
 21
12255.945242
 31
0.0
  0
LINE
  8
1
  6
CONTINUOUS
 62
     6
  5
132
 10
48513.138748
 20
12255.710242
 30
0.0
 11
48513.369748
 21
12255.945242
 31
0.0
  0
LINE
  8
1
  6
CONTINUOUS
 62
     6
  5
133
 10
48601.872748
 20
12252.713242
 30
0.0
 11
48601.872748
 21
12255.945242
 31
0.0
  0
LINE
  8
1
  6
CONTINUOUS
 62
     6
  5
134
 10
48615.873748
 20
12251.215242
 30
0.0
 11
48603.370748
 21
12251.215242
 31
0.0
  0
LINE
  8
1
  6
CONTINUOUS
 62
     6
  5
135
 10
48617.368748
 20
12252.713242
 30
0.0
 11
48617.368748
 21
12288.613242
 31
0.0
  0
LINE
  8
1
  6
CONTINUOUS
 62
     6
  5
136
 10
48683.802748
 20
12318.392242
 30
0.0
 11
48622.638748
 21
12296.128242
 31
0.0
  0
LINE
  8
1
  6
CONTINUOUS
 62
     6
  5
137
 10
48688.121748
 20
12348.678242
 30
0.0
 11
48708.068748
 21
12350.951242
 31
0.0
  0
LINE
  8
1
  6
CONTINUOUS
 62
     6
  5
138
 10
48688.121748
 20
12348.678242
 30
0.0
 11
48689.408748
 21
12336.748242
 31
0.0
  0
LINE
  8
1
  6
CONTINUOUS
 62
     6
  5
139
 10
48270.266748
 20
12097.709242
 30
0.0
 11
48269.734748
 21
12121.212242
 31
0.0
  0
LINE
  8
1
  6
CONTINUOUS
 62
     6
  5
13A
 10
48281.117748
 20
11925.966242
 30
0.0
 11
48278.965748
 21
11948.748242
 31
0.0
  0
LINE
  8
1
  6
CONTINUOUS
 62
     6
  5
13B
 10
48687.778748
 20
11948.748242
 30
0.0
 11
48685.625748
 21
11925.966242
 31
0.0
  0
LINE
  8
1
  6
CONTINUOUS
 62
     6
  5
13C
 10
48697.016748
 20
12121.776242
 30
0.0
 11
48696.932748
 21
12117.212242
 31
0.0
  0
LINE
  8
1
  6
CONTINUOUS
 62
     6
  5
13D
 10
48274.496748
 20
12303.960242
 30
0.0
 11
48274.801748
 21
12307.627242
 31
0.0
  0
LINE
  8
1
  6
CONTINUOUS
 62
     6
  5
13E
 10
48686.175748
 20
12319.746242
 30
0.0
 11
48686.742748
 21
12312.198242
 31
0.0
  0
LINE
  8
1
  6
CONTINUOUS
 62
     6
  5
13F
 10
48280.260748
 20
12315.739242
 30
0.0
 11
48280.575748
 21
12319.746242
 31
0.0
  0
LINE
  8
1
  6
CONTINUOUS
 62
     6
  5
140
 10
48280.001748
 20
12312.198242
 30
0.0
 11
48280.260748
 21
12315.739242
 31
0.0
  0
LINE
  8
1
  6
CONTINUOUS
 62
     6
  5
141
 10
48277.712748
 20
12326.686242
 30
0.0
 11
48279.994748
 21
12348.495242
 31
0.0
  0
LINE
  8
1
  6
CONTINUOUS
 62
     6
  5
142
 10
48276.467748
 20
12328.148242
 30
0.0
 11
48278.598748
 21
12348.446242
 31
0.0
  0
LINE
  8
1
  6
CONTINUOUS
 62
     6
  5
143
 10
48686.742748
 20
12348.495242
 30
0.0
 11
48689.030748
 21
12326.686242
 31
0.0
  0
LINE
  8
1
  6
CONTINUOUS
 62
     6
  5
144
 10
48689.408748
 20
12336.748242
 30
0.0
 11
48690.280748
 21
12328.148242
 31
0.0
  0
ARC
  8
1
  6
CONTINUOUS
 62
     6
  5
145
 10
48483.371748
 20
12651.349242
 30
0.0
 40
700.66453
 50
268.691818
 51
271.308197
  0
ARC
  8
1
  6
CONTINUOUS
 62
     6
  5
146
 10
48483.371748
 20
12555.210242
 30
0.0
 40
129.99997
 50
34.77038
 51
145.22962
  0
ARC
  8
1
  6
CONTINUOUS
 62
     6
  5
147
 10
48431.607748
 20
12096.845242
 30
0.0
 40
199.99999
 50
231.883483
 51
252.809082
  0
ARC
  8
1
  6
CONTINUOUS
 62
     6
  5
148
 10
48316.606748
 20
12099.386242
 30
0.0
 40
11.0
 50
102.20213
 51
180.0
  0
ARC
  8
1
  6
CONTINUOUS
 62
     6
  5
149
 10
48483.371748
 20
11313.216242
 30
0.0
 40
799.99998
 50
77.16143
 51
102.83857
  0
ARC
  8
1
  6
CONTINUOUS
 62
     6
  5
14A
 10
50695.822748
 20
12163.238242
 30
0.0
 40
2399.9999
 50
181.695862
 51
185.249237
  0
ARC
  8
1
  6
CONTINUOUS
 62
     6
  5
14B
 10
48535.136748
 20
12096.845242
 30
0.0
 40
199.99999
 50
287.19093
 51
308.11653
  0
ARC
  8
1
  6
CONTINUOUS
 62
     6
  5
14C
 10
48483.371748
 20
11328.215242
 30
0.0
 40
799.99998
 50
77.79788
 51
102.20213
  0
ARC
  8
1
  6
CONTINUOUS
 62
     6
  5
14D
 10
48650.137748
 20
12099.386242
 30
0.0
 40
11.0
 50
0.0
 51
77.79788
  0
ARC
  8
1
  6
CONTINUOUS
 62
     6
  5
14E
 10
46270.921748
 20
12163.238242
 30
0.0
 40
2399.9999
 50
354.75077
 51
358.30415
  0
ARC
  8
1
  6
CONTINUOUS
 62
     6
  5
14F
 10
48483.371748
 20
12310.511242
 30
0.0
 40
359.99995
 50
252.38858
 51
267.453262
  0
ARC
  8
1
  6
CONTINUOUS
 62
     6
  5
150
 10
48389.578748
 20
12015.042242
 30
0.0
 40
49.999999
 50
183.676681
 51
252.38858
  0
ARC
  8
1
  6
CONTINUOUS
 62
     6
  5
151
 10
50695.822748
 20
12163.238242
 30
0.0
 40
2360.9981
 50
182.431244
 51
183.676681
  0
ARC
  8
1
  6
CONTINUOUS
 62
     6
  5
152
 10
48366.922748
 20
12064.356242
 30
0.0
 40
30.0
 50
98.69857
 51
182.431244
  0
ARC
  8
1
  6
CONTINUOUS
 62
     6
  5
153
 10
48483.371748
 20
11303.215242
 30
0.0
 40
799.99998
 50
81.30143
 51
98.69857
  0
ARC
  8
1
  6
CONTINUOUS
 62
     6
  5
154
 10
48577.165748
 20
12015.042242
 30
0.0
 40
49.999999
 50
287.61143
 51
356.32333
  0
ARC
  8
1
  6
CONTINUOUS
 62
     6
  5
155
 10
46270.921748
 20
12163.238242
 30
0.0
 40
2360.9981
 50
356.32333
 51
357.56877
  0
ARC
  8
1
  6
CONTINUOUS
 62
     6
  5
156
 10
48599.825748
 20
12064.356242
 30
0.0
 40
30.0
 50
357.56877
 51
81.30143
  0
ARC
  8
1
  6
CONTINUOUS
 62
     6
  5
157
 10
48483.371748
 20
12310.511242
 30
0.0
 40
359.99995
 50
272.546752
 51
287.61143
  0
ARC
  8
1
  6
CONTINUOUS
 62
     6
  5
158
 10
48695.351748
 20
12143.712242
 30
0.0
 40
22.0
 50
270.470779
 51
88.45469
  0
ARC
  8
1
  6
CONTINUOUS
 62
     6
  5
159
 10
47144.019748
 20
12257.143242
 30
0.0
 40
1560.9291
 50
356.6018
 51
0.0
  0
ARC
  8
1
  6
CONTINUOUS
 62
     6
  5
15A
 10
48708.747748
 20
12344.990242
 30
0.0
 40
5.999998
 50
276.5
 51
96.5
  0
ARC
  8
1
  6
CONTINUOUS
 62
     6
  5
15B
 10
47144.019748
 20
12257.143242
 30
0.0
 40
1568.5291
 50
356.46768
 51
0.0
  0
ARC
  8
1
  6
CONTINUOUS
 62
     6
  5
15C
 10
50669.373748
 20
12163.122242
 30
0.0
 40
2399.9999
 50
181.943771
 51
184.742752
  0
ARC
  8
1
  6
CONTINUOUS
 62
     6
  5
15D
 10
48279.966748
 20
12090.000242
 30
0.0
 40
13.999998
 50
148.00379
 51
215.50177
  0
ARC
  8
1
  6
CONTINUOUS
 62
     6
  5
15E
 10
48287.704748
 20
11957.531242
 30
0.0
 40
13.999998
 50
151.18475
 51
218.682739
  0
ARC
  8
1
  6
CONTINUOUS
 62
     6
  5
15F
 10
47197.372748
 20
12180.100242
 30
0.0
 40
1499.9998
 50
3.74977
 51
4.8771
  0
ARC
  8
1
  6
CONTINUOUS
 62
     6
  5
160
 10
48685.205748
 20
12269.644242
 30
0.0
 40
13.999998
 50
329.6952
 51
37.19317
  0
ARC
  8
1
  6
CONTINUOUS
 62
     6
  5
161
 10
48687.295748
 20
12109.426242
 30
0.0
 40
13.999998
 50
324.96394
 51
32.46191
  0
ARC
  8
1
  6
CONTINUOUS
 62
     6
  5
162
 10
46297.369748
 20
12163.122242
 30
0.0
 40
2399.9999
 50
355.25726
 51
358.52194
  0
ARC
  8
1
  6
CONTINUOUS
 62
     6
  5
163
 10
48679.043748
 20
11957.531242
 30
0.0
 40
13.999998
 50
321.31727
 51
28.81526
  0
ARC
  8
1
  6
CONTINUOUS
 62
     6
  5
164
 10
48255.736748
 20
12284.445242
 30
0.0
 40
13.999998
 50
61.51353
 51
129.0115
  0
ARC
  8
1
  6
CONTINUOUS
 62
     6
  5
165
 10
48255.225748
 20
12269.112242
 30
0.0
 40
10.0
 50
358.5
 51
178.5
  0
ARC
  8
1
  6
CONTINUOUS
 62
     6
  5
166
 10
48252.292748
 20
12157.149242
 30
0.0
 40
10.0
 50
178.5
 51
358.5
  0
ARC
  8
1
  6
CONTINUOUS
 62
     6
  5
167
 10
48379.296748
 20
12187.538242
 30
0.0
 40
108.13588
 50
192.737808
 51
225.976776
  0
ARC
  8
1
  6
CONTINUOUS
 62
     6
  5
168
 10
49769.373748
 20
12180.100242
 30
0.0
 40
1496.7
 50
175.21687
 51
180.246277
  0
ARC
  8
1
  6
CONTINUOUS
 62
     6
  5
169
 10
48318.793748
 20
12173.862242
 30
0.0
 40
46.107687
 50
180.246277
 51
192.737808
  0
ARC
  8
1
  6
CONTINUOUS
 62
     6
  5
16A
 10
48483.371748
 20
10583.212242
 30
0.0
 40
1599.9999
 50
82.9958
 51
97.00421
  0
ARC
  8
1
  6
CONTINUOUS
 62
     6
  5
16B
 10
48282.864748
 20
12304.485242
 30
0.0
 40
5.0
 50
70.0
 51
175.21687
  0
ARC
  8
1
  6
CONTINUOUS
 62
     6
  5
16C
 10
48339.671748
 20
12280.618242
 30
0.0
 40
7.999999
 50
1.93232
 51
70.0
  0
ARC
  8
1
  6
CONTINUOUS
 62
     6
  5
16D
 10
48396.972748
 20
12086.437242
 30
0.0
 40
199.99999
 50
235.500198
 51
252.699127
  0
ARC
  8
1
  6
CONTINUOUS
 62
     6
  5
16E
 10
48587.447748
 20
12187.538242
 30
0.0
 40
108.13588
 50
314.02323
 51
347.2622
  0
ARC
  8
1
  6
CONTINUOUS
 62
     6
  5
16F
 10
47197.372748
 20
12180.100242
 30
0.0
 40
1496.7
 50
359.75373
 51
4.78314
  0
ARC
  8
1
  6
CONTINUOUS
 62
     6
  5
170
 10
48647.946748
 20
12173.862242
 30
0.0
 40
46.107687
 50
347.2622
 51
359.75373
  0
ARC
  8
1
  6
CONTINUOUS
 62
     6
  5
171
 10
48683.879748
 20
12304.485242
 30
0.0
 40
5.0
 50
4.78314
 51
110.0
  0
ARC
  8
1
  6
CONTINUOUS
 62
     6
  5
172
 10
48627.075748
 20
12280.618242
 30
0.0
 40
7.999999
 50
110.0
 51
178.06768
  0
ARC
  8
1
  6
CONTINUOUS
 62
     6
  5
173
 10
47197.372748
 20
12180.100242
 30
0.0
 40
1499.9998
 50
0.0
 51
3.13861
  0
ARC
  8
1
  6
CONTINUOUS
 62
     6
  5
174
 10
48569.774748
 20
12086.437242
 30
0.0
 40
199.99999
 50
287.30088
 51
304.49981
  0
ARC
  8
1
  6
CONTINUOUS
 62
     6
  5
175
 10
48906.112748
 20
12141.737242
 30
0.0
 40
211.98525
 50
173.62876
 51
185.296722
  0
ARC
  8
1
  6
CONTINUOUS
 62
     6
  5
176
 10
48259.739748
 20
12121.037242
 30
0.0
 40
10.0
 50
1.00056
 51
81.7478
  0
ARC
  8
1
  6
CONTINUOUS
 62
     6
  5
177
 10
48264.526748
 20
12304.787242
 30
0.0
 40
10.0
 50
275.262527
 51
355.26338
  0
ARC
  8
1
  6
CONTINUOUS
 62
     6
  5
178
 10
47694.352748
 20
12237.184242
 30
0.0
 40
999.99992
 50
6.40151
 51
10.54869
  0
ARC
  8
1
  6
CONTINUOUS
 62
     6
  5
179
 10
48688.568748
 20
12353.747242
 30
0.0
 40
1.442241
 50
141.91355
 51
186.5
  0
ARC
  8
1
  6
CONTINUOUS
 62
     6
  5
17A
 10
48691.305748
 20
12331.867242
 30
0.0
 40
1.687318
 50
186.5
 51
220.131362
  0
ARC
  8
1
  6
CONTINUOUS
 62
     6
  5
17B
 10
49273.756748
 20
12236.909242
 30
0.0
 40
999.99992
 50
169.90357
 51
173.59342
  0
ARC
  8
1
  6
CONTINUOUS
 62
     6
  5
17C
 10
48820.878748
 20
12317.552242
 30
0.0
 40
539.99997
 50
146.88861
 51
169.90357
  0
ARC
  8
1
  6
CONTINUOUS
 62
     6
  5
17D
 10
48536.088748
 20
12503.286242
 30
0.0
 40
199.99999
 50
135.43081
 51
146.88861
  0
ARC
  8
1
  6
CONTINUOUS
 62
     6
  5
17E
 10
48341.368748
 20
12288.613242
 30
0.0
 40
7.999999
 50
0.0
 51
70.0
  0
ARC
  8
1
  6
CONTINUOUS
 62
     6
  5
17F
 10
48820.164748
 20
12321.394242
 30
0.0
 40
539.99997
 50
145.22962
 51
169.45132
  0
ARC
  8
1
  6
CONTINUOUS
 62
     6
  5
180
 10
49272.391748
 20
12237.184242
 30
0.0
 40
999.99992
 50
169.45132
 51
173.61195
  0
ARC
  8
1
  6
CONTINUOUS
 62
     6
  5
181
 10
47692.991748
 20
12236.909242
 30
0.0
 40
999.99992
 50
6.40658
 51
10.09643
  0
ARC
  8
1
  6
CONTINUOUS
 62
     6
  5
182
 10
48145.869748
 20
12317.552242
 30
0.0
 40
539.99997
 50
10.09643
 51
33.1114
  0
ARC
  8
1
  6
CONTINUOUS
 62
     6
  5
183
 10
48430.655748
 20
12503.286242
 30
0.0
 40
199.99999
 50
33.1114
 51
44.56919
  0
ARC
  8
1
  6
CONTINUOUS
 62
     6
  5
184
 10
48483.371748
 20
12555.210242
 30
0.0
 40
125.99998
 50
44.56919
 51
135.43081
  0
ARC
  8
1
  6
CONTINUOUS
 62
     6
  5
185
 10
48625.367748
 20
12288.613242
 30
0.0
 40
7.999999
 50
110.0
 51
180.0
  0
ARC
  8
1
  6
CONTINUOUS
 62
     6
  5
186
 10
48146.579748
 20
12321.394242
 30
0.0
 40
539.99997
 50
10.54869
 51
34.77038
  0
ARC
  8
1
  6
CONTINUOUS
 62
     6
  5
187
 10
48311.861748
 20
11944.219242
 30
0.0
 40
5.999998
 50
185.249237
 51
231.883483
  0
ARC
  8
1
  6
CONTINUOUS
 62
     6
  5
188
 10
48374.271748
 20
11911.513242
 30
0.0
 40
5.999998
 50
252.809082
 51
270.0
  0
ARC
  8
1
  6
CONTINUOUS
 62
     6
  5
189
 10
48654.882748
 20
11944.219242
 30
0.0
 40
5.999998
 50
308.11653
 51
354.75077
  0
ARC
  8
1
  6
CONTINUOUS
 62
     6
  5
18A
 10
48592.472748
 20
11911.513242
 30
0.0
 40
5.999998
 50
270.0
 51
287.19093
  0
ARC
  8
1
  6
CONTINUOUS
 62
     6
  5
18B
 10
48268.516748
 20
12097.156242
 30
0.0
 40
0.5
 50
91.75277
 51
148.00379
  0
ARC
  8
1
  6
CONTINUOUS
 62
     6
  5
18C
 10
48268.971748
 20
12082.161242
 30
0.0
 40
0.5
 50
215.50177
 51
271.752777
  0
ARC
  8
1
  6
CONTINUOUS
 62
     6
  5
18D
 10
48275.875748
 20
11964.034242
 30
0.0
 40
0.5
 50
94.93374
 51
151.18475
  0
ARC
  8
1
  6
CONTINUOUS
 62
     6
  5
18E
 10
48277.167748
 20
11949.091242
 30
0.0
 40
0.5
 50
218.682739
 51
274.933746
  0
ARC
  8
1
  6
CONTINUOUS
 62
     6
  5
18F
 10
48695.959748
 20
12277.804242
 30
0.0
 40
0.5
 50
37.19317
 51
93.44419
  0
ARC
  8
1
  6
CONTINUOUS
 62
     6
  5
190
 10
48696.862748
 20
12262.835242
 30
0.0
 40
0.5
 50
273.444198
 51
329.6952
  0
ARC
  8
1
  6
CONTINUOUS
 62
     6
  5
191
 10
48698.682748
 20
12116.673242
 30
0.0
 40
0.5
 50
32.46191
 51
88.71292
  0
ARC
  8
1
  6
CONTINUOUS
 62
     6
  5
192
 10
48698.346748
 20
12101.676242
 30
0.0
 40
0.5
 50
268.712921
 51
324.96394
  0
ARC
  8
1
  6
CONTINUOUS
 62
     6
  5
193
 10
48690.871748
 20
11964.034242
 30
0.0
 40
0.5
 50
28.81526
 51
85.06626
  0
ARC
  8
1
  6
CONTINUOUS
 62
     6
  5
194
 10
48689.576748
 20
11949.091242
 30
0.0
 40
0.5
 50
265.066268
 51
321.31727
  0
ARC
  8
1
  6
CONTINUOUS
 62
     6
  5
195
 10
48262.178748
 20
12296.310242
 30
0.0
 40
0.5
 50
5.26252
 51
61.51353
  0
ARC
  8
1
  6
CONTINUOUS
 62
     6
  5
196
 10
48247.239748
 20
12294.931242
 30
0.0
 40
0.5
 50
129.0115
 51
185.262527
  0
ARC
  8
1
  6
CONTINUOUS
 62
     6
  5
197
 10
48243.526748
 20
12280.758242
 30
0.0
 40
11.999996
 50
95.26252
 51
178.5
  0
ARC
  8
1
  6
CONTINUOUS
 62
     6
  5
198
 10
48240.002748
 20
12146.132242
 30
0.0
 40
11.999996
 50
178.5
 51
261.747802
  0
ARC
  8
1
  6
CONTINUOUS
 62
     6
  5
199
 10
48351.258748
 20
12233.697242
 30
0.0
 40
2.0
 50
181.932327
 51
266.445831
  0
ARC
  8
1
  6
CONTINUOUS
 62
     6
  5
19A
 10
48359.373748
 20
12223.212242
 30
0.0
 40
2.0
 50
180.0
 51
270.0
  0
ARC
  8
1
  6
CONTINUOUS
 62
     6
  5
19B
 10
48355.374748
 20
12229.436242
 30
0.0
 40
2.0
 50
0.0
 51
86.44583
  0
ARC
  8
1
  6
CONTINUOUS
 62
     6
  5
19C
 10
48356.374748
 20
12327.212242
 30
0.0
 40
39.999999
 50
250.0
 51
259.91687
  0
ARC
  8
1
  6
CONTINUOUS
 62
     6
  5
19D
 10
48279.784748
 20
12307.200242
 30
0.0
 40
5.0
 50
70.0
 51
175.1229
  0
ARC
  8
1
  6
CONTINUOUS
 62
     6
  5
19E
 10
48287.091748
 20
11926.554242
 30
0.0
 40
5.999998
 50
185.671036
 51
235.500198
  0
ARC
  8
1
  6
CONTINUOUS
 62
     6
  5
19F
 10
48339.276748
 20
11901.210242
 30
0.0
 40
5.999998
 50
252.699127
 51
270.0
  0
ARC
  8
1
  6
CONTINUOUS
 62
     6
  5
1A0
 10
48615.485748
 20
12233.697242
 30
0.0
 40
2.0
 50
273.554183
 51
358.06768
  0
ARC
  8
1
  6
CONTINUOUS
 62
     6
  5
1A1
 10
48607.373748
 20
12223.212242
 30
0.0
 40
2.0
 50
270.0
 51
0.0
  0
ARC
  8
1
  6
CONTINUOUS
 62
     6
  5
1A2
 10
48611.369748
 20
12229.436242
 30
0.0
 40
2.0
 50
93.55418
 51
180.0
  0
ARC
  8
1
  6
CONTINUOUS
 62
     6
  5
1A3
 10
48686.959748
 20
12307.200242
 30
0.0
 40
5.0
 50
4.8771
 51
110.0
  0
ARC
  8
1
  6
CONTINUOUS
 62
     6
  5
1A4
 10
48679.652748
 20
11926.554242
 30
0.0
 40
5.999998
 50
304.49981
 51
354.32897
  0
ARC
  8
1
  6
CONTINUOUS
 62
     6
  5
1A5
 10
48627.467748
 20
11901.210242
 30
0.0
 40
5.999998
 50
270.0
 51
287.30088
  0
ARC
  8
1
  6
CONTINUOUS
 62
     6
  5
1A6
 10
48695.931748
 20
12165.204242
 30
0.0
 40
0.5
 50
88.45469
 51
173.62876
  0
ARC
  8
1
  6
CONTINUOUS
 62
     6
  5
1A7
 10
48695.526748
 20
12122.213242
 30
0.0
 40
0.5
 50
185.296722
 51
270.470779
  0
ARC
  8
1
  6
CONTINUOUS
 62
     6
  5
1A8
 10
48610.369748
 20
12327.212242
 30
0.0
 40
39.999999
 50
280.08314
 51
290.0
  0
ARC
  8
1
  6
CONTINUOUS
 62
     6
  5
1A9
 10
48363.373748
 20
12252.713242
 30
0.0
 40
1.499999
 50
270.0
 51
0.0
  0
ARC
  8
1
  6
CONTINUOUS
 62
     6
  5
1AA
 10
48350.873748
 20
12252.713242
 30
0.0
 40
1.499999
 50
180.0
 51
270.0
  0
ARC
  8
1
  6
CONTINUOUS
 62
     6
  5
1AB
 10
48284.428748
 20
12327.364242
 30
0.0
 40
7.999999
 50
174.39154
 51
227.474227
  0
ARC
  8
1
  6
CONTINUOUS
 62
     6
  5
1AC
 10
48285.670748
 20
12325.910242
 30
0.0
 40
7.999999
 50
174.43093
 51
250.0
  0
ARC
  8
1
  6
CONTINUOUS
 62
     6
  5
1AD
 10
48603.370748
 20
12252.713242
 30
0.0
 40
1.499999
 50
180.0
 51
270.0
  0
ARC
  8
1
  6
CONTINUOUS
 62
     6
  5
1AE
 10
48615.873748
 20
12252.713242
 30
0.0
 40
1.499999
 50
270.0
 51
0.0
  0
ARC
  8
1
  6
CONTINUOUS
 62
     6
  5
1AF
 10
48682.318748
 20
12327.364242
 30
0.0
 40
7.999999
 50
312.52578
 51
5.60847
  0
ARC
  8
1
  6
CONTINUOUS
 62
     6
  5
1B0
 10
48681.066748
 20
12325.910242
 30
0.0
 40
7.999999
 50
290.0
 51
5.56907
  0
LINE
  8
1
  6
DOT
 62
     6
  5
1B1
 10
49691.169748
 20
11755.343242
 30
0.0
 11
49171.169748
 21
11755.343242
 31
0.0
  0
LINE
  8
1
  6
CONTINUOUS
 62
     6
  5
1B2
 10
49881.169748
 20
12220.343242
 30
0.0
 11
49031.169748
 21
12220.343242
 31
0.0
  0
LINE
  8
1
  6
CONTINUOUS
 62
     6
  5
1B3
 10
48931.169748
 20
11885.343242
 30
0.0
 11
49031.169748
 21
12220.343242
 31
0.0
  0
LINE
  8
1
  6
DOT
 62
     6
  5
1B4
 10
49171.169748
 20
11755.343242
 30
0.0
 11
49131.169748
 21
11975.343242
 31
0.0
  0
LINE
  8
1
  6
DOT
 62
     6
  5
1B5
 10
49573.330346
 20
11782.49282
 30
0.0
 11
49523.874846
 21
11767.061865
 31
0.0
  0
LINE
  8
1
  6
DOT
 62
     6
  5
1B6
 10
49523.874846
 20
11767.061865
 30
0.0
 11
49471.439727
 21
11758.325244
 31
0.0
  0
LINE
  8
1
  6
DOT
 62
     6
  5
1B7
 10
49471.439727
 20
11758.325244
 30
0.0
 11
49417.710299
 21
11756.56376
 31
0.0
  0
LINE
  8
1
  6
DOT
 62
     6
  5
1B8
 10
49417.710299
 20
11756.56376
 30
0.0
 11
49364.413468
 21
11761.834029
 31
0.0
  0
LINE
  8
1
  6
DOT
 62
     6
  5
1B9
 10
49364.413468
 20
11761.834029
 30
0.0
 11
49313.262238
 21
11773.96666
 31
0.0
  0
LINE
  8
1
  6
DOT
 62
     6
  5
1BA
 10
49160.879087
 20
11880.322703
 30
0.0
 11
49141.98089
 21
11917.081173
 31
0.0
  0
LINE
  8
1
  6
DOT
 62
     6
  5
1BB
 10
49141.98089
 20
11917.081173
 30
0.0
 11
49132.37746
 21
11955.712233
 31
0.0
  0
LINE
  8
1
  6
DOT
 62
     6
  5
1BC
 10
49132.37746
 20
11955.712233
 30
0.0
 11
49132.37746
 21
11994.97425
 31
0.0
  0
LINE
  8
1
  6
DOT
 62
     6
  5
1BD
 10
49132.37746
 20
11994.97425
 30
0.0
 11
49141.98089
 21
12033.605311
 31
0.0
  0
LINE
  8
1
  6
DOT
 62
     6
  5
1BE
 10
49141.98089
 20
12033.605311
 30
0.0
 11
49160.879087
 21
12070.363781
 31
0.0
  0
LINE
  8
1
  6
DOT
 62
     6
  5
1BF
 10
49691.169748
 20
11755.343242
 30
0.0
 11
49731.169748
 21
11975.343242
 31
0.0
  0
LINE
  8
1
  6
CONTINUOUS
 62
     6
  5
1C0
 10
49881.169748
 20
12205.343242
 30
0.0
 11
49026.781523
 21
12205.343242
 31
0.0
  0
LINE
  8
1
  6
DOT
 62
     6
  5
1C1
 10
49881.169748
 20
12210.343242
 30
0.0
 11
49028.127782
 21
12210.343242
 31
0.0
  0
LINE
  8
1
  6
CONTINUOUS
 62
     6
  5
1C2
 10
49881.169748
 20
11655.343242
 30
0.0
 11
48046.169748
 21
11655.343242
 31
0.0
  0
LINE
  8
1
  6
CONTINUOUS
 62
     6
  5
1C3
 10
48931.169748
 20
11885.343242
 30
0.0
 11
48046.169748
 21
11885.343242
 31
0.0
  0
LINE
  8
1
  6
CONTINUOUS
 62
     6
  5
1C4
 10
48046.169748
 20
11635.343242
 30
0.0
 11
48046.169748
 21
11885.343242
 31
0.0
  0
LINE
  8
1
  6
CONTINUOUS
 62
     6
  5
1C5
 10
47828.370748
 20
12982.843142
 30
0.0
 11
48068.371748
 21
12982.843142
 31
0.0
  0
LINE
  8
2
  6
CONTINUOUS
 62
     2
  5
1C6
 10
48050.371748
 20
12982.843142
 30
0.0
 11
48068.371748
 21
12965.700285
 31
0.0
  0
LINE
  8
2
  6
CONTINUOUS
 62
     2
  5
1C7
 10
48068.371748
 20
12979.509808
 30
0.0
 11
48064.871748
 21
12982.843142
 31
0.0
  0
LINE
  8
5
  6
CONTINUOUS
 62
     5
  5
1C8
 10
48038.371748
 20
11455.342242
 30
0.0
 11
50010.570748
 21
11455.342242
 31
0.0
  0
LINE
  8
5
  6
CONTINUOUS
 62
     5
  5
1C9
 10
50010.871748
 20
11455.342242
 30
0.0
 11
50010.871748
 21
11635.343242
 31
0.0
  0
LINE
  8
3
  6
CONTINUOUS
 62
     2
  5
1CA
 10
48681.169748
 20
11635.343242
 30
0.0
 11
48981.169748
 21
11635.343242
 31
0.0
  0
LINE
  8
1
  6
CONTINUOUS
 62
     1
  5
1CB
 10
49875.871748
 20
13110.343142
 30
0.0
 11
49886.169748
 21
13110.343142
 31
0.0
  0
LINE
  8
1
  6
CONTINUOUS
 62
     1
  5
1CC
 10
49875.871748
 20
13110.343142
 30
0.0
 11
49875.871748
 21
13120.343142
 31
0.0
  0
LINE
  8
2
  6
CONTINUOUS
 62
     2
  5
1CD
 10
49885.871748
 20
13101.156042
 30
0.0
 11
49877.122129
 21
13110.343142
 31
0.0
  0
LINE
  8
2
  6
CONTINUOUS
 62
     2
  5
1CE
 10
49875.871748
 20
13111.656042
 30
0.0
 11
49867.598319
 21
13120.343142
 31
0.0
  0
LINE
  8
2
  6
CONTINUOUS
 62
     2
  5
1CF
 10
49885.871748
 20
13118.43688
 30
0.0
 11
49877.373323
 21
13110.343142
 31
0.0
  0
LINE
  8
1
  6
CONTINUOUS
 62
     5
  5
1D0
 10
49881.169748
 20
11635.343242
 30
0.0
 11
48046.169748
 21
11635.343242
 31
0.0
  0
LINE
  8
1
  6
CONTINUOUS
 62
     5
  5
1D1
 10
47833.370748
 20
12982.842642
 30
0.0
 11
47833.370748
 21
13107.842642
 31
0.0
  0
LINE
  8
5
  6
CONTINUOUS
 62
     5
  5
1D2
 10
48038.371748
 20
11635.343242
 30
0.0
 11
49881.169748
 21
11635.343242
 31
0.0
  0
LINE
  8
1
  6
CONTINUOUS
 62
     6
  5
1D3
 10
49881.169748
 20
11635.343242
 30
0.0
 11
49881.169748
 21
12220.343242
 31
0.0
  0
LINE
  8
7
  6
CONTINUOUS
 62
     3
  5
1D4
 10
48714.755011
 20
12967.818037
 30
0.0
 11
48714.755011
 21
12937.767828
 31
0.0
  0
LINE
  8
40
  6
CONTINUOUS
 62
     4
  5
1D5
 10
48716.215911
 20
12967.768078
 30
0.0
 11
48685.393371
 21
12967.768078
 31
0.0
  0
LINE
  8
40
  6
CONTINUOUS
 62
     4
  5
1D6
 10
48679.149931
 20
12969.768048
 30
0.0
 11
48722.430931
 21
12969.768048
 31
0.0
  0
LINE
  8
40
  6
CONTINUOUS
 62
     4
  5
1D7
 10
48655.755091
 20
12987.768058
 30
0.0
 11
48655.755091
 21
12977.281148
 31
0.0
  0
LINE
  8
40
  6
CONTINUOUS
 62
     4
  5
1D8
 10
48745.755071
 20
12987.768058
 30
0.0
 11
48745.755071
 21
12977.252518
 31
0.0
  0
LINE
  8
40
  6
CONTINUOUS
 62
     4
  5
1D9
 10
48745.009011
 20
12975.768098
 30
0.0
 11
48656.544551
 21
12975.768098
 31
0.0
  0
ARC
  8
40
  6
CONTINUOUS
 62
     4
  5
1DA
 10
48657.754991
 20
12977.383838
 30
0.0
 40
2.00004
 50
180.0
 51
255.529705
  0
ARC
  8
40
  6
CONTINUOUS
 62
     4
  5
1DB
 10
48743.753351
 20
12977.340788
 30
0.0
 40
2.00004
 50
284.069648
 51
360.0
  0
LINE
  8
1
  6
CONTINUOUS
 62
     4
  5
1DC
 10
48668.444131
 20
12994.954118
 30
0.0
 11
48672.444211
 21
12995.649148
 31
0.0
  0
LINE
  8
1
  6
CONTINUOUS
 62
     4
  5
1DD
 10
48668.444131
 20
12997.990438
 30
0.0
 11
48672.444211
 21
12998.699678
 31
0.0
  0
LINE
  8
1
  6
CONTINUOUS
 62
     4
  5
1DE
 10
48668.444131
 20
13001.043558
 30
0.0
 11
48672.444211
 21
13001.752798
 31
0.0
  0
LINE
  8
1
  6
CONTINUOUS
 62
     4
  5
1DF
 10
48668.444131
 20
13004.096678
 30
0.0
 11
48672.444211
 21
13004.805848
 31
0.0
  0
LINE
  8
1
  6
CONTINUOUS
 62
     4
  5
1E0
 10
48668.444131
 20
13007.147138
 30
0.0
 11
48672.444211
 21
13007.842098
 31
0.0
  0
LINE
  8
1
  6
CONTINUOUS
 62
     4
  5
1E1
 10
48668.444131
 20
13010.183248
 30
0.0
 11
48672.444211
 21
13010.892488
 31
0.0
  0
LINE
  8
1
  6
CONTINUOUS
 62
     4
  5
1E2
 10
48672.048991
 20
12994.058958
 30
0.0
 11
48668.839351
 21
12993.491328
 31
0.0
  0
LINE
  8
1
  6
CONTINUOUS
 62
     4
  5
1E3
 10
48672.048991
 20
12997.092408
 30
0.0
 11
48668.839351
 21
12996.524848
 31
0.0
  0
LINE
  8
1
  6
CONTINUOUS
 62
     4
  5
1E4
 10
48672.048991
 20
13000.145528
 30
0.0
 11
48668.839351
 21
12999.577968
 31
0.0
  0
LINE
  8
1
  6
CONTINUOUS
 62
     4
  5
1E5
 10
48672.048991
 20
13003.198648
 30
0.0
 11
48668.839351
 21
13002.631158
 31
0.0
  0
LINE
  8
1
  6
CONTINUOUS
 62
     4
  5
1E6
 10
48672.048991
 20
13006.251838
 30
0.0
 11
48668.839351
 21
13005.684278
 31
0.0
  0
LINE
  8
1
  6
CONTINUOUS
 62
     4
  5
1E7
 10
48672.048991
 20
13009.285358
 30
0.0
 11
48668.839351
 21
13008.717798
 31
0.0
  0
LINE
  8
1
  6
CONTINUOUS
 62
     4
  5
1E8
 10
48672.048991
 20
13012.338478
 30
0.0
 11
48668.839351
 21
13011.770848
 31
0.0
  0
LINE
  8
1
  6
CONTINUOUS
 62
     4
  5
1E9
 10
48668.444131
 20
12991.902748
 30
0.0
 11
48672.444211
 21
12992.606948
 31
0.0
  0
LINE
  8
1
  6
CONTINUOUS
 62
     4
  5
1EA
 10
48670.444171
 20
12981.768078
 30
0.0
 11
48666.194191
 21
12981.768078
 31
0.0
  0
LINE
  8
1
  6
CONTINUOUS
 62
     4
  5
1EB
 10
48668.444131
 20
12985.856218
 30
0.0
 11
48672.444211
 21
12986.565458
 31
0.0
  0
LINE
  8
1
  6
CONTINUOUS
 62
     4
  5
1EC
 10
48668.444131
 20
12988.870068
 30
0.0
 11
48672.444211
 21
12989.579308
 31
0.0
  0
LINE
  8
1
  6
CONTINUOUS
 62
     4
  5
1ED
 10
48672.048991
 20
12984.977788
 30
0.0
 11
48668.839351
 21
12984.410228
 31
0.0
  0
LINE
  8
1
  6
CONTINUOUS
 62
     4
  5
1EE
 10
48672.048991
 20
12987.991708
 30
0.0
 11
48668.839351
 21
12987.424148
 31
0.0
  0
LINE
  8
1
  6
CONTINUOUS
 62
     4
  5
1EF
 10
48672.048991
 20
12991.025298
 30
0.0
 11
48668.839351
 21
12990.457738
 31
0.0
  0
LINE
  8
1
  6
CONTINUOUS
 62
     4
  5
1F0
 10
48667.841151
 20
12981.768078
 30
0.0
 11
48669.044171
 21
12982.971028
 31
0.0
  0
LINE
  8
1
  6
CONTINUOUS
 62
     4
  5
1F1
 10
48667.841151
 20
12981.768078
 30
0.0
 11
48666.194191
 21
12981.768078
 31
0.0
  0
LINE
  8
1
  6
CONTINUOUS
 62
     4
  5
1F2
 10
48673.047191
 20
12981.768078
 30
0.0
 11
48671.844171
 21
12982.971028
 31
0.0
  0
LINE
  8
1
  6
CONTINUOUS
 62
     4
  5
1F3
 10
48673.047191
 20
12981.768078
 30
0.0
 11
48674.694151
 21
12981.768078
 31
0.0
  0
LINE
  8
1
  6
CONTINUOUS
 62
     4
  5
1F4
 10
48672.048991
 20
12983.451228
 30
0.0
 11
48668.839351
 21
12982.883738
 31
0.0
  0
LINE
  8
1
  6
CONTINUOUS
 62
     4
  5
1F5
 10
48669.837411
 20
12978.277038
 30
0.0
 11
48671.050931
 21
12978.277038
 31
0.0
  0
LINE
  8
1
  6
CONTINUOUS
 62
     4
  5
1F6
 10
48669.837411
 20
12977.768068
 30
0.0
 11
48669.837411
 21
12978.277038
 31
0.0
  0
LINE
  8
1
  6
CONTINUOUS
 62
     4
  5
1F7
 10
48671.050931
 20
12977.768068
 30
0.0
 11
48671.050931
 21
12978.277038
 31
0.0
  0
LINE
  8
1
  6
CONTINUOUS
 62
     4
  5
1F8
 10
48669.837411
 20
12977.768068
 30
0.0
 11
48671.050931
 21
12977.768068
 31
0.0
  0
LINE
  8
1
  6
CONTINUOUS
 62
     4
  5
1F9
 10
48668.444131
 20
13013.236368
 30
0.0
 11
48672.444211
 21
13013.945608
 31
0.0
  0
LINE
  8
1
  6
CONTINUOUS
 62
     4
  5
1FA
 10
48671.835491
 20
13016.890788
 30
0.0
 11
48668.950511
 21
13016.379228
 31
0.0
  0
LINE
  8
1
  6
CONTINUOUS
 62
     4
  5
1FB
 10
48672.048991
 20
13015.391528
 30
0.0
 11
48668.839351
 21
13014.823968
 31
0.0
  0
LINE
  8
1
  6
CONTINUOUS
 62
     4
  5
1FC
 10
48671.542611
 20
13018.355048
 30
0.0
 11
48669.265231
 21
13017.952408
 31
0.0
  0
LINE
  8
1
  6
CONTINUOUS
 62
     4
  5
1FD
 10
48729.065951
 20
12994.954118
 30
0.0
 11
48733.065891
 21
12995.649148
 31
0.0
  0
LINE
  8
1
  6
CONTINUOUS
 62
     4
  5
1FE
 10
48729.065951
 20
12997.990438
 30
0.0
 11
48733.065891
 21
12998.699678
 31
0.0
  0
LINE
  8
1
  6
CONTINUOUS
 62
     4
  5
1FF
 10
48729.065951
 20
13001.043558
 30
0.0
 11
48733.065891
 21
13001.752798
 31
0.0
  0
LINE
  8
1
  6
CONTINUOUS
 62
     4
  5
200
 10
48729.065951
 20
13004.096678
 30
0.0
 11
48733.065891
 21
13004.805848
 31
0.0
  0
LINE
  8
1
  6
CONTINUOUS
 62
     4
  5
201
 10
48729.065951
 20
13007.147138
 30
0.0
 11
48733.065891
 21
13007.842098
 31
0.0
  0
LINE
  8
1
  6
CONTINUOUS
 62
     4
  5
202
 10
48729.065951
 20
13010.183248
 30
0.0
 11
48733.065891
 21
13010.892488
 31
0.0
  0
LINE
  8
1
  6
CONTINUOUS
 62
     4
  5
203
 10
48732.670811
 20
12994.058958
 30
0.0
 11
48729.461031
 21
12993.491328
 31
0.0
  0
LINE
  8
1
  6
CONTINUOUS
 62
     4
  5
204
 10
48732.670811
 20
12997.092408
 30
0.0
 11
48729.461031
 21
12996.524848
 31
0.0
  0
LINE
  8
1
  6
CONTINUOUS
 62
     4
  5
205
 10
48732.670811
 20
13000.145528
 30
0.0
 11
48729.461031
 21
12999.577968
 31
0.0
  0
LINE
  8
1
  6
CONTINUOUS
 62
     4
  5
206
 10
48732.670811
 20
13003.198648
 30
0.0
 11
48729.461031
 21
13002.631158
 31
0.0
  0
LINE
  8
1
  6
CONTINUOUS
 62
     4
  5
207
 10
48732.670811
 20
13006.251838
 30
0.0
 11
48729.461031
 21
13005.684278
 31
0.0
  0
LINE
  8
1
  6
CONTINUOUS
 62
     4
  5
208
 10
48732.670811
 20
13009.285358
 30
0.0
 11
48729.461031
 21
13008.717798
 31
0.0
  0
LINE
  8
1
  6
CONTINUOUS
 62
     4
  5
209
 10
48732.670811
 20
13012.338478
 30
0.0
 11
48729.461031
 21
13011.770848
 31
0.0
  0
LINE
  8
1
  6
CONTINUOUS
 62
     4
  5
20A
 10
48729.065951
 20
12991.902748
 30
0.0
 11
48733.065891
 21
12992.606948
 31
0.0
  0
LINE
  8
1
  6
CONTINUOUS
 62
     4
  5
20B
 10
48731.065991
 20
12981.768078
 30
0.0
 11
48726.815871
 21
12981.768078
 31
0.0
  0
LINE
  8
1
  6
CONTINUOUS
 62
     4
  5
20C
 10
48729.065951
 20
12985.856218
 30
0.0
 11
48733.065891
 21
12986.565458
 31
0.0
  0
LINE
  8
1
  6
CONTINUOUS
 62
     4
  5
20D
 10
48729.065951
 20
12988.870068
 30
0.0
 11
48733.065891
 21
12989.579308
 31
0.0
  0
LINE
  8
1
  6
CONTINUOUS
 62
     4
  5
20E
 10
48732.670811
 20
12984.977788
 30
0.0
 11
48729.461031
 21
12984.410228
 31
0.0
  0
LINE
  8
1
  6
CONTINUOUS
 62
     4
  5
20F
 10
48732.670811
 20
12987.991708
 30
0.0
 11
48729.461031
 21
12987.424148
 31
0.0
  0
LINE
  8
1
  6
CONTINUOUS
 62
     4
  5
210
 10
48732.670811
 20
12991.025298
 30
0.0
 11
48729.461031
 21
12990.457738
 31
0.0
  0
LINE
  8
1
  6
CONTINUOUS
 62
     4
  5
211
 10
48728.462971
 20
12981.768078
 30
0.0
 11
48729.665991
 21
12982.971028
 31
0.0
  0
LINE
  8
1
  6
CONTINUOUS
 62
     4
  5
212
 10
48728.462971
 20
12981.768078
 30
0.0
 11
48726.815871
 21
12981.768078
 31
0.0
  0
LINE
  8
1
  6
CONTINUOUS
 62
     4
  5
213
 10
48733.668871
 20
12981.768078
 30
0.0
 11
48732.465991
 21
12982.971028
 31
0.0
  0
LINE
  8
1
  6
CONTINUOUS
 62
     4
  5
214
 10
48733.668871
 20
12981.768078
 30
0.0
 11
48735.315971
 21
12981.768078
 31
0.0
  0
LINE
  8
1
  6
CONTINUOUS
 62
     4
  5
215
 10
48732.670811
 20
12983.451228
 30
0.0
 11
48729.461031
 21
12982.883738
 31
0.0
  0
LINE
  8
1
  6
CONTINUOUS
 62
     4
  5
216
 10
48730.459231
 20
12978.277038
 30
0.0
 11
48731.672611
 21
12978.277038
 31
0.0
  0
LINE
  8
1
  6
CONTINUOUS
 62
     4
  5
217
 10
48730.459231
 20
12977.768068
 30
0.0
 11
48730.459231
 21
12978.277038
 31
0.0
  0
LINE
  8
1
  6
CONTINUOUS
 62
     4
  5
218
 10
48731.672611
 20
12977.768068
 30
0.0
 11
48731.672611
 21
12978.277038
 31
0.0
  0
LINE
  8
1
  6
CONTINUOUS
 62
     4
  5
219
 10
48730.459231
 20
12977.768068
 30
0.0
 11
48731.672611
 21
12977.768068
 31
0.0
  0
LINE
  8
1
  6
CONTINUOUS
 62
     4
  5
21A
 10
48729.065951
 20
13013.236368
 30
0.0
 11
48733.065891
 21
13013.945608
 31
0.0
  0
LINE
  8
1
  6
CONTINUOUS
 62
     4
  5
21B
 10
48732.457171
 20
13016.890788
 30
0.0
 11
48729.572331
 21
13016.379228
 31
0.0
  0
LINE
  8
1
  6
CONTINUOUS
 62
     4
  5
21C
 10
48732.670811
 20
13015.391528
 30
0.0
 11
48729.461031
 21
13014.823968
 31
0.0
  0
LINE
  8
1
  6
CONTINUOUS
 62
     4
  5
21D
 10
48732.164431
 20
13018.355048
 30
0.0
 11
48729.886911
 21
13017.952408
 31
0.0
  0
LINE
  8
40
  6
CONTINUOUS
 62
     4
  5
21E
 10
48745.730011
 20
12987.768058
 30
0.0
 11
48745.730011
 21
12977.252518
 31
0.0
  0
LINE
  8
40
  6
CONTINUOUS
 62
     4
  5
21F
 10
48743.230031
 20
12975.135578
 30
0.0
 11
48743.230031
 21
12982.768098
 31
0.0
  0
LINE
  8
40
  6
CONTINUOUS
 62
     4
  5
220
 10
48683.024991
 20
12968.768098
 30
0.0
 11
48718.556011
 21
12968.768098
 31
0.0
  0
LINE
  8
40
  6
CONTINUOUS
 62
     4
  5
221
 10
48686.755011
 20
12967.768078
 30
0.0
 11
48714.755011
 21
12967.768078
 31
0.0
  0
LINE
  8
40
  6
CONTINUOUS
 62
     4
  5
222
 10
48715.339371
 20
12966.768058
 30
0.0
 11
48686.238971
 21
12966.768058
 31
0.0
  0
LINE
  8
40
  6
CONTINUOUS
 62
     4
  5
223
 10
48714.901031
 20
12965.767968
 30
0.0
 11
48686.635871
 21
12965.767968
 31
0.0
  0
LINE
  8
12
  6
CONTINUOUS
 62
     4
  5
224
 10
48724.142011
 20
12982.768098
 30
0.0
 11
48745.755071
 21
12982.768098
 31
0.0
  0
LINE
  8
12
  6
CONTINUOUS
 62
     4
  5
225
 10
48658.255071
 20
12975.160358
 30
0.0
 11
48658.255071
 21
12982.768098
 31
0.0
  0
LINE
  8
12
  6
CONTINUOUS
 62
     4
  5
226
 10
48679.104431
 20
12969.779878
 30
0.0
 11
48679.104431
 21
12969.750338
 31
0.0
  0
LINE
  8
12
  6
CONTINUOUS
 62
     4
  5
227
 10
48677.386491
 20
12970.223118
 30
0.0
 11
48677.386491
 21
12982.768098
 31
0.0
  0
LINE
  8
12
  6
CONTINUOUS
 62
     4
  5
228
 10
48679.098271
 20
12969.875358
 30
0.0
 11
48677.473571
 21
12982.873378
 31
0.0
  0
LINE
  8
12
  6
CONTINUOUS
 62
     4
  5
229
 10
48722.424211
 20
12969.674458
 30
0.0
 11
48722.424211
 21
12969.644988
 31
0.0
  0
LINE
  8
12
  6
CONTINUOUS
 62
     4
  5
22A
 10
48724.142011
 20
12970.117768
 30
0.0
 11
48724.142011
 21
12982.662818
 31
0.0
  0
LINE
  8
12
  6
CONTINUOUS
 62
     4
  5
22B
 10
48722.430371
 20
12969.770078
 30
0.0
 11
48724.055071
 21
12982.768098
 31
0.0
  0
LINE
  8
12
  6
CONTINUOUS
 62
     4
  5
22C
 10
48677.486731
 20
12982.768098
 30
0.0
 11
48658.255071
 21
12982.768098
 31
0.0
  0
LINE
  8
12
  6
CONTINUOUS
 62
     4
  5
22D
 10
48677.486731
 20
12981.768078
 30
0.0
 11
48658.255071
 21
12981.768078
 31
0.0
  0
LINE
  8
12
  6
CONTINUOUS
 62
     4
  5
22E
 10
48724.142011
 20
12981.768078
 30
0.0
 11
48745.755071
 21
12981.768078
 31
0.0
  0
LINE
  8
12
  6
CONTINUOUS
 62
     4
  5
22F
 10
48674.694151
 20
12981.768078
 30
0.0
 11
48666.194191
 21
12981.768078
 31
0.0
  0
LINE
  8
12
  6
CONTINUOUS
 62
     4
  5
230
 10
48666.194191
 20
12981.768078
 30
0.0
 11
48666.194191
 21
12978.768088
 31
0.0
  0
LINE
  8
12
  6
CONTINUOUS
 62
     4
  5
231
 10
48674.694151
 20
12981.768078
 30
0.0
 11
48674.694151
 21
12978.768088
 31
0.0
  0
LINE
  8
12
  6
CONTINUOUS
 62
     4
  5
232
 10
48674.694151
 20
12978.768088
 30
0.0
 11
48674.694151
 21
12981.768078
 31
0.0
  0
LINE
  8
12
  6
CONTINUOUS
 62
     4
  5
233
 10
48666.194191
 20
12978.768088
 30
0.0
 11
48666.194191
 21
12981.768078
 31
0.0
  0
LINE
  8
12
  6
CONTINUOUS
 62
     4
  5
234
 10
48666.194191
 20
12978.768088
 30
0.0
 11
48674.694151
 21
12978.768088
 31
0.0
  0
ARC
  8
12
  6
CONTINUOUS
 62
     4
  5
235
 10
48670.444171
 20
12987.299338
 30
0.0
 40
9.53134
 50
243.51896
 51
296.48104
  0
LINE
  8
12
  6
CONTINUOUS
 62
     4
  5
236
 10
48671.844171
 20
12981.768078
 30
0.0
 11
48671.844171
 21
13012.768068
 31
0.0
  0
LINE
  8
12
  6
CONTINUOUS
 62
     4
  5
237
 10
48669.044171
 20
12981.768078
 30
0.0
 11
48669.044171
 21
13012.768068
 31
0.0
  0
LINE
  8
12
  6
CONTINUOUS
 62
     4
  5
238
 10
48671.844171
 20
13012.768068
 30
0.0
 11
48669.044171
 21
13012.768068
 31
0.0
  0
LINE
  8
12
  6
CONTINUOUS
 62
     4
  5
239
 10
48670.444171
 20
13019.768068
 30
0.0
 11
48669.044171
 21
13012.768068
 31
0.0
  0
LINE
  8
12
  6
CONTINUOUS
 62
     4
  5
23A
 10
48670.444171
 20
13019.768068
 30
0.0
 11
48671.844171
 21
13012.768068
 31
0.0
  0
LINE
  8
12
  6
CENTER
 62
     4
  5
23B
 10
48670.444171
 20
12978.768088
 30
0.0
 11
48670.444171
 21
13019.768068
 31
0.0
  0
LINE
  8
12
  6
CENTER
 62
     4
  5
23C
 10
48670.444171
 20
13019.768068
 30
0.0
 11
48670.444171
 21
12980.261048
 31
0.0
  0
LINE
  8
12
  6
CONTINUOUS
 62
     4
  5
23D
 10
48735.315971
 20
12981.768078
 30
0.0
 11
48726.815871
 21
12981.768078
 31
0.0
  0
LINE
  8
12
  6
CONTINUOUS
 62
     4
  5
23E
 10
48726.815871
 20
12981.768078
 30
0.0
 11
48726.815871
 21
12978.768088
 31
0.0
  0
LINE
  8
12
  6
CONTINUOUS
 62
     4
  5
23F
 10
48735.315971
 20
12981.768078
 30
0.0
 11
48735.315971
 21
12978.768088
 31
0.0
  0
LINE
  8
12
  6
CONTINUOUS
 62
     4
  5
240
 10
48735.315971
 20
12978.768088
 30
0.0
 11
48735.315971
 21
12981.768078
 31
0.0
  0
LINE
  8
12
  6
CONTINUOUS
 62
     4
  5
241
 10
48726.815871
 20
12978.768088
 30
0.0
 11
48726.815871
 21
12981.768078
 31
0.0
  0
LINE
  8
12
  6
CONTINUOUS
 62
     4
  5
242
 10
48726.815871
 20
12978.768088
 30
0.0
 11
48735.315971
 21
12978.768088
 31
0.0
  0
ARC
  8
12
  6
CONTINUOUS
 62
     4
  5
243
 10
48731.065991
 20
12987.299338
 30
0.0
 40
9.53134
 50
243.51896
 51
296.48104
  0
LINE
  8
12
  6
CONTINUOUS
 62
     4
  5
244
 10
48732.465991
 20
12981.768078
 30
0.0
 11
48732.465991
 21
13012.768068
 31
0.0
  0
LINE
  8
12
  6
CONTINUOUS
 62
     4
  5
245
 10
48729.665991
 20
12981.768078
 30
0.0
 11
48729.665991
 21
13012.768068
 31
0.0
  0
LINE
  8
12
  6
CONTINUOUS
 62
     4
  5
246
 10
48732.465991
 20
13012.768068
 30
0.0
 11
48729.665991
 21
13012.768068
 31
0.0
  0
LINE
  8
12
  6
CONTINUOUS
 62
     4
  5
247
 10
48731.065991
 20
13019.768068
 30
0.0
 11
48729.665991
 21
13012.768068
 31
0.0
  0
LINE
  8
12
  6
CONTINUOUS
 62
     4
  5
248
 10
48731.065991
 20
13019.768068
 30
0.0
 11
48732.465991
 21
13012.768068
 31
0.0
  0
LINE
  8
12
  6
CENTER
 62
     4
  5
249
 10
48731.065991
 20
12978.768088
 30
0.0
 11
48731.065991
 21
13019.768068
 31
0.0
  0
LINE
  8
12
  6
CENTER
 62
     4
  5
24A
 10
48731.065991
 20
13019.768068
 30
0.0
 11
48731.065991
 21
12980.261048
 31
0.0
  0
LINE
  8
12
  6
CONTINUOUS
 62
     4
  5
24B
 10
48676.152671
 20
12982.015318
 30
0.0
 11
48664.652651
 21
12982.015318
 31
0.0
  0
LINE
  8
12
  6
CONTINUOUS
 62
     4
  5
24C
 10
48676.152671
 20
12982.815208
 30
0.0
 11
48664.652651
 21
12982.815208
 31
0.0
  0
LINE
  8
12
  6
CONTINUOUS
 62
     4
  5
24D
 10
48676.152671
 20
12982.015318
 30
0.0
 11
48676.152671
 21
12982.815208
 31
0.0
  0
LINE
  8
12
  6
CONTINUOUS
 62
     4
  5
24E
 10
48673.152751
 20
12982.015318
 30
0.0
 11
48673.152751
 21
12982.815208
 31
0.0
  0
LINE
  8
12
  6
CONTINUOUS
 62
     4
  5
24F
 10
48667.652711
 20
12982.015318
 30
0.0
 11
48667.652711
 21
12982.815208
 31
0.0
  0
LINE
  8
12
  6
CONTINUOUS
 62
     4
  5
250
 10
48664.652651
 20
12982.015318
 30
0.0
 11
48664.652651
 21
12982.815208
 31
0.0
  0
LINE
  8
12
  6
CONTINUOUS
 62
     4
  5
251
 10
48736.770851
 20
12982.015318
 30
0.0
 11
48725.270831
 21
12982.015318
 31
0.0
  0
LINE
  8
12
  6
CONTINUOUS
 62
     4
  5
252
 10
48736.770851
 20
12982.815208
 30
0.0
 11
48725.270831
 21
12982.815208
 31
0.0
  0
LINE
  8
12
  6
CONTINUOUS
 62
     4
  5
253
 10
48736.770851
 20
12982.015318
 30
0.0
 11
48736.770851
 21
12982.815208
 31
0.0
  0
LINE
  8
12
  6
CONTINUOUS
 62
     4
  5
254
 10
48733.770791
 20
12982.015318
 30
0.0
 11
48733.770791
 21
12982.815208
 31
0.0
  0
LINE
  8
12
  6
CONTINUOUS
 62
     4
  5
255
 10
48728.270751
 20
12982.015318
 30
0.0
 11
48728.270751
 21
12982.815208
 31
0.0
  0
LINE
  8
12
  6
CONTINUOUS
 62
     4
  5
256
 10
48725.270831
 20
12982.015318
 30
0.0
 11
48725.270831
 21
12982.815208
 31
0.0
  0
LINE
  8
8
  6
CONTINUOUS
 62
     4
  5
257
 10
48717.755491
 20
12968.561458
 30
0.0
 11
48744.251051
 21
12975.398988
 31
0.0
  0
LINE
  8
8
  6
CONTINUOUS
 62
     4
  5
258
 10
48683.943251
 20
12968.531008
 30
0.0
 11
48657.212211
 21
12975.429368
 31
0.0
  0
ARC
  8
8
  6
CONTINUOUS
 62
     4
  5
259
 10
48682.787271
 20
12964.732108
 30
0.0
 40
4.00008
 50
360.0
 51
75.529706
  0
LINE
  8
50
  6
CENTER
 62
     4
  5
25A
 10
48670.402731
 20
12982.015318
 30
0.0
 11
48670.402731
 21
12984.137298
 31
0.0
  0
LINE
  8
50
  6
CENTER
 62
     4
  5
25B
 10
48731.020771
 20
12982.015318
 30
0.0
 11
48731.020771
 21
12984.137298
 31
0.0
  0
ARC
  8
8
  6
CONTINUOUS
 62
     4
  5
25C
 10
48718.749491
 20
12964.681218
 30
0.0
 40
4.00008
 50
104.470294
 51
180.0
  0
LINE
  8
40
  6
CONTINUOUS
 62
     4
  5
25D
 10
48254.527584
 20
12967.768078
 30
0.0
 11
48285.350124
 21
12967.768078
 31
0.0
  0
LINE
  8
40
  6
CONTINUOUS
 62
     4
  5
25E
 10
48291.593564
 20
12969.768048
 30
0.0
 11
48248.312564
 21
12969.768048
 31
0.0
  0
LINE
  8
40
  6
CONTINUOUS
 62
     4
  5
25F
 10
48314.988404
 20
12987.768058
 30
0.0
 11
48314.988404
 21
12977.281148
 31
0.0
  0
LINE
  8
40
  6
CONTINUOUS
 62
     4
  5
260
 10
48224.988424
 20
12987.768058
 30
0.0
 11
48224.988424
 21
12977.252518
 31
0.0
  0
LINE
  8
40
  6
CONTINUOUS
 62
     4
  5
261
 10
48225.734484
 20
12975.768098
 30
0.0
 11
48314.198944
 21
12975.768098
 31
0.0
  0
ARC
  8
40
  6
CONTINUOUS
 62
     4
  5
262
 10
48312.988504
 20
12977.383838
 30
0.0
 40
2.00004
 50
284.470295
 51
360.0
  0
ARC
  8
40
  6
CONTINUOUS
 62
     4
  5
263
 10
48226.990144
 20
12977.340788
 30
0.0
 40
2.00004
 50
180.0
 51
255.930352
  0
LINE
  8
1
  6
CONTINUOUS
 62
     4
  5
264
 10
48302.299364
 20
12994.954118
 30
0.0
 11
48298.299284
 21
12995.649148
 31
0.0
  0
LINE
  8
1
  6
CONTINUOUS
 62
     4
  5
265
 10
48302.299364
 20
12997.990438
 30
0.0
 11
48298.299284
 21
12998.699678
 31
0.0
  0
LINE
  8
1
  6
CONTINUOUS
 62
     4
  5
266
 10
48302.299364
 20
13001.043558
 30
0.0
 11
48298.299284
 21
13001.752798
 31
0.0
  0
LINE
  8
1
  6
CONTINUOUS
 62
     4
  5
267
 10
48302.299364
 20
13004.096678
 30
0.0
 11
48298.299284
 21
13004.805848
 31
0.0
  0
LINE
  8
1
  6
CONTINUOUS
 62
     4
  5
268
 10
48302.299364
 20
13007.147138
 30
0.0
 11
48298.299284
 21
13007.842098
 31
0.0
  0
LINE
  8
1
  6
CONTINUOUS
 62
     4
  5
269
 10
48302.299364
 20
13010.183248
 30
0.0
 11
48298.299284
 21
13010.892488
 31
0.0
  0
LINE
  8
1
  6
CONTINUOUS
 62
     4
  5
26A
 10
48298.694504
 20
12994.058958
 30
0.0
 11
48301.904144
 21
12993.491328
 31
0.0
  0
LINE
  8
1
  6
CONTINUOUS
 62
     4
  5
26B
 10
48298.694504
 20
12997.092408
 30
0.0
 11
48301.904144
 21
12996.524848
 31
0.0
  0
LINE
  8
1
  6
CONTINUOUS
 62
     4
  5
26C
 10
48298.694504
 20
13000.145528
 30
0.0
 11
48301.904144
 21
12999.577968
 31
0.0
  0
LINE
  8
1
  6
CONTINUOUS
 62
     4
  5
26D
 10
48298.694504
 20
13003.198648
 30
0.0
 11
48301.904144
 21
13002.631158
 31
0.0
  0
LINE
  8
1
  6
CONTINUOUS
 62
     4
  5
26E
 10
48298.694504
 20
13006.251838
 30
0.0
 11
48301.904144
 21
13005.684278
 31
0.0
  0
LINE
  8
1
  6
CONTINUOUS
 62
     4
  5
26F
 10
48298.694504
 20
13009.285358
 30
0.0
 11
48301.904144
 21
13008.717798
 31
0.0
  0
LINE
  8
1
  6
CONTINUOUS
 62
     4
  5
270
 10
48298.694504
 20
13012.338478
 30
0.0
 11
48301.904144
 21
13011.770848
 31
0.0
  0
LINE
  8
1
  6
CONTINUOUS
 62
     4
  5
271
 10
48302.299364
 20
12991.902748
 30
0.0
 11
48298.299284
 21
12992.606948
 31
0.0
  0
LINE
  8
1
  6
CONTINUOUS
 62
     4
  5
272
 10
48300.299324
 20
12981.768078
 30
0.0
 11
48304.549304
 21
12981.768078
 31
0.0
  0
LINE
  8
1
  6
CONTINUOUS
 62
     4
  5
273
 10
48302.299364
 20
12985.856218
 30
0.0
 11
48298.299284
 21
12986.565458
 31
0.0
  0
LINE
  8
1
  6
CONTINUOUS
 62
     4
  5
274
 10
48302.299364
 20
12988.870068
 30
0.0
 11
48298.299284
 21
12989.579308
 31
0.0
  0
LINE
  8
1
  6
CONTINUOUS
 62
     4
  5
275
 10
48298.694504
 20
12984.977788
 30
0.0
 11
48301.904144
 21
12984.410228
 31
0.0
  0
LINE
  8
1
  6
CONTINUOUS
 62
     4
  5
276
 10
48298.694504
 20
12987.991708
 30
0.0
 11
48301.904144
 21
12987.424148
 31
0.0
  0
LINE
  8
1
  6
CONTINUOUS
 62
     4
  5
277
 10
48298.694504
 20
12991.025298
 30
0.0
 11
48301.904144
 21
12990.457738
 31
0.0
  0
LINE
  8
1
  6
CONTINUOUS
 62
     4
  5
278
 10
48302.902344
 20
12981.768078
 30
0.0
 11
48301.699324
 21
12982.971028
 31
0.0
  0
LINE
  8
1
  6
CONTINUOUS
 62
     4
  5
279
 10
48302.902344
 20
12981.768078
 30
0.0
 11
48304.549304
 21
12981.768078
 31
0.0
  0
LINE
  8
1
  6
CONTINUOUS
 62
     4
  5
27A
 10
48297.696304
 20
12981.768078
 30
0.0
 11
48298.899324
 21
12982.971028
 31
0.0
  0
LINE
  8
1
  6
CONTINUOUS
 62
     4
  5
27B
 10
48297.696304
 20
12981.768078
 30
0.0
 11
48296.049344
 21
12981.768078
 31
0.0
  0
LINE
  8
1
  6
CONTINUOUS
 62
     4
  5
27C
 10
48298.694504
 20
12983.451228
 30
0.0
 11
48301.904144
 21
12982.883738
 31
0.0
  0
LINE
  8
1
  6
CONTINUOUS
 62
     4
  5
27D
 10
48300.906084
 20
12978.277038
 30
0.0
 11
48299.692564
 21
12978.277038
 31
0.0
  0
LINE
  8
1
  6
CONTINUOUS
 62
     4
  5
27E
 10
48300.906084
 20
12977.768068
 30
0.0
 11
48300.906084
 21
12978.277038
 31
0.0
  0
LINE
  8
1
  6
CONTINUOUS
 62
     4
  5
27F
 10
48299.692564
 20
12977.768068
 30
0.0
 11
48299.692564
 21
12978.277038
 31
0.0
  0
LINE
  8
1
  6
CONTINUOUS
 62
     4
  5
280
 10
48300.906084
 20
12977.768068
 30
0.0
 11
48299.692564
 21
12977.768068
 31
0.0
  0
LINE
  8
1
  6
CONTINUOUS
 62
     4
  5
281
 10
48302.299364
 20
13013.236368
 30
0.0
 11
48298.299284
 21
13013.945608
 31
0.0
  0
LINE
  8
1
  6
CONTINUOUS
 62
     4
  5
282
 10
48298.908004
 20
13016.890788
 30
0.0
 11
48301.792984
 21
13016.379228
 31
0.0
  0
LINE
  8
1
  6
CONTINUOUS
 62
     4
  5
283
 10
48298.694504
 20
13015.391528
 30
0.0
 11
48301.904144
 21
13014.823968
 31
0.0
  0
LINE
  8
1
  6
CONTINUOUS
 62
     4
  5
284
 10
48299.200884
 20
13018.355048
 30
0.0
 11
48301.478264
 21
13017.952408
 31
0.0
  0
LINE
  8
1
  6
CONTINUOUS
 62
     4
  5
285
 10
48241.677544
 20
12994.954118
 30
0.0
 11
48237.677604
 21
12995.649148
 31
0.0
  0
LINE
  8
1
  6
CONTINUOUS
 62
     4
  5
286
 10
48241.677544
 20
12997.990438
 30
0.0
 11
48237.677604
 21
12998.699678
 31
0.0
  0
LINE
  8
1
  6
CONTINUOUS
 62
     4
  5
287
 10
48241.677544
 20
13001.043558
 30
0.0
 11
48237.677604
 21
13001.752798
 31
0.0
  0
LINE
  8
1
  6
CONTINUOUS
 62
     4
  5
288
 10
48241.677544
 20
13004.096678
 30
0.0
 11
48237.677604
 21
13004.805848
 31
0.0
  0
LINE
  8
1
  6
CONTINUOUS
 62
     4
  5
289
 10
48241.677544
 20
13007.147138
 30
0.0
 11
48237.677604
 21
13007.842098
 31
0.0
  0
LINE
  8
1
  6
CONTINUOUS
 62
     4
  5
28A
 10
48241.677544
 20
13010.183248
 30
0.0
 11
48237.677604
 21
13010.892488
 31
0.0
  0
LINE
  8
1
  6
CONTINUOUS
 62
     4
  5
28B
 10
48238.072684
 20
12994.058958
 30
0.0
 11
48241.282464
 21
12993.491328
 31
0.0
  0
LINE
  8
1
  6
CONTINUOUS
 62
     4
  5
28C
 10
48238.072684
 20
12997.092408
 30
0.0
 11
48241.282464
 21
12996.524848
 31
0.0
  0
LINE
  8
1
  6
CONTINUOUS
 62
     4
  5
28D
 10
48238.072684
 20
13000.145528
 30
0.0
 11
48241.282464
 21
12999.577968
 31
0.0
  0
LINE
  8
1
  6
CONTINUOUS
 62
     4
  5
28E
 10
48238.072684
 20
13003.198648
 30
0.0
 11
48241.282464
 21
13002.631158
 31
0.0
  0
LINE
  8
1
  6
CONTINUOUS
 62
     4
  5
28F
 10
48238.072684
 20
13006.251838
 30
0.0
 11
48241.282464
 21
13005.684278
 31
0.0
  0
LINE
  8
1
  6
CONTINUOUS
 62
     4
  5
290
 10
48238.072684
 20
13009.285358
 30
0.0
 11
48241.282464
 21
13008.717798
 31
0.0
  0
LINE
  8
1
  6
CONTINUOUS
 62
     4
  5
291
 10
48238.072684
 20
13012.338478
 30
0.0
 11
48241.282464
 21
13011.770848
 31
0.0
  0
LINE
  8
1
  6
CONTINUOUS
 62
     4
  5
292
 10
48241.677544
 20
12991.902748
 30
0.0
 11
48237.677604
 21
12992.606948
 31
0.0
  0
LINE
  8
1
  6
CONTINUOUS
 62
     4
  5
293
 10
48239.677504
 20
12981.768078
 30
0.0
 11
48243.927624
 21
12981.768078
 31
0.0
  0
LINE
  8
1
  6
CONTINUOUS
 62
     4
  5
294
 10
48241.677544
 20
12985.856218
 30
0.0
 11
48237.677604
 21
12986.565458
 31
0.0
  0
LINE
  8
1
  6
CONTINUOUS
 62
     4
  5
295
 10
48241.677544
 20
12988.870068
 30
0.0
 11
48237.677604
 21
12989.579308
 31
0.0
  0
LINE
  8
1
  6
CONTINUOUS
 62
     4
  5
296
 10
48238.072684
 20
12984.977788
 30
0.0
 11
48241.282464
 21
12984.410228
 31
0.0
  0
LINE
  8
1
  6
CONTINUOUS
 62
     4
  5
297
 10
48238.072684
 20
12987.991708
 30
0.0
 11
48241.282464
 21
12987.424148
 31
0.0
  0
LINE
  8
1
  6
CONTINUOUS
 62
     4
  5
298
 10
48238.072684
 20
12991.025298
 30
0.0
 11
48241.282464
 21
12990.457738
 31
0.0
  0
LINE
  8
1
  6
CONTINUOUS
 62
     4
  5
299
 10
48242.280524
 20
12981.768078
 30
0.0
 11
48241.077504
 21
12982.971028
 31
0.0
  0
LINE
  8
1
  6
CONTINUOUS
 62
     4
  5
29A
 10
48242.280524
 20
12981.768078
 30
0.0
 11
48243.927624
 21
12981.768078
 31
0.0
  0
LINE
  8
1
  6
CONTINUOUS
 62
     4
  5
29B
 10
48237.074624
 20
12981.768078
 30
0.0
 11
48238.277504
 21
12982.971028
 31
0.0
  0
LINE
  8
1
  6
CONTINUOUS
 62
     4
  5
29C
 10
48237.074624
 20
12981.768078
 30
0.0
 11
48235.427524
 21
12981.768078
 31
0.0
  0
LINE
  8
1
  6
CONTINUOUS
 62
     4
  5
29D
 10
48238.072684
 20
12983.451228
 30
0.0
 11
48241.282464
 21
12982.883738
 31
0.0
  0
LINE
  8
1
  6
CONTINUOUS
 62
     4
  5
29E
 10
48240.284264
 20
12978.277038
 30
0.0
 11
48239.070884
 21
12978.277038
 31
0.0
  0
LINE
  8
1
  6
CONTINUOUS
 62
     4
  5
29F
 10
48240.284264
 20
12977.768068
 30
0.0
 11
48240.284264
 21
12978.277038
 31
0.0
  0
LINE
  8
1
  6
CONTINUOUS
 62
     4
  5
2A0
 10
48239.070884
 20
12977.768068
 30
0.0
 11
48239.070884
 21
12978.277038
 31
0.0
  0
LINE
  8
1
  6
CONTINUOUS
 62
     4
  5
2A1
 10
48240.284264
 20
12977.768068
 30
0.0
 11
48239.070884
 21
12977.768068
 31
0.0
  0
LINE
  8
1
  6
CONTINUOUS
 62
     4
  5
2A2
 10
48241.677544
 20
13013.236368
 30
0.0
 11
48237.677604
 21
13013.945608
 31
0.0
  0
LINE
  8
1
  6
CONTINUOUS
 62
     4
  5
2A3
 10
48238.286324
 20
13016.890788
 30
0.0
 11
48241.171164
 21
13016.379228
 31
0.0
  0
LINE
  8
1
  6
CONTINUOUS
 62
     4
  5
2A4
 10
48238.072684
 20
13015.391528
 30
0.0
 11
48241.282464
 21
13014.823968
 31
0.0
  0
LINE
  8
1
  6
CONTINUOUS
 62
     4
  5
2A5
 10
48238.579064
 20
13018.355048
 30
0.0
 11
48240.856584
 21
13017.952408
 31
0.0
  0
LINE
  8
40
  6
CONTINUOUS
 62
     4
  5
2A6
 10
48225.013484
 20
12987.768058
 30
0.0
 11
48225.013484
 21
12977.252518
 31
0.0
  0
LINE
  8
40
  6
CONTINUOUS
 62
     4
  5
2A7
 10
48227.513464
 20
12975.135578
 30
0.0
 11
48227.513464
 21
12982.768098
 31
0.0
  0
LINE
  8
40
  6
CONTINUOUS
 62
     4
  5
2A8
 10
48287.718504
 20
12968.768098
 30
0.0
 11
48252.187484
 21
12968.768098
 31
0.0
  0
LINE
  8
40
  6
CONTINUOUS
 62
     4
  5
2A9
 10
48283.988484
 20
12967.768078
 30
0.0
 11
48255.988484
 21
12967.768078
 31
0.0
  0
LINE
  8
40
  6
CONTINUOUS
 62
     4
  5
2AA
 10
48255.404124
 20
12966.768058
 30
0.0
 11
48284.504524
 21
12966.768058
 31
0.0
  0
LINE
  8
40
  6
CONTINUOUS
 62
     4
  5
2AB
 10
48255.842464
 20
12965.767968
 30
0.0
 11
48284.107624
 21
12965.767968
 31
0.0
  0
LINE
  8
12
  6
CONTINUOUS
 62
     4
  5
2AC
 10
48246.601484
 20
12982.768098
 30
0.0
 11
48224.988424
 21
12982.768098
 31
0.0
  0
LINE
  8
12
  6
CONTINUOUS
 62
     4
  5
2AD
 10
48312.488424
 20
12975.160358
 30
0.0
 11
48312.488424
 21
12982.768098
 31
0.0
  0
LINE
  8
12
  6
CONTINUOUS
 62
     4
  5
2AE
 10
48291.639064
 20
12969.779878
 30
0.0
 11
48291.639064
 21
12969.750338
 31
0.0
  0
LINE
  8
12
  6
CONTINUOUS
 62
     4
  5
2AF
 10
48293.357004
 20
12970.223118
 30
0.0
 11
48293.357004
 21
12982.768098
 31
0.0
  0
LINE
  8
12
  6
CONTINUOUS
 62
     4
  5
2B0
 10
48291.645224
 20
12969.875358
 30
0.0
 11
48293.269924
 21
12982.873378
 31
0.0
  0
LINE
  8
12
  6
CONTINUOUS
 62
     4
  5
2B1
 10
48248.319284
 20
12969.674458
 30
0.0
 11
48248.319284
 21
12969.644988
 31
0.0
  0
LINE
  8
12
  6
CONTINUOUS
 62
     4
  5
2B2
 10
48246.601484
 20
12970.117768
 30
0.0
 11
48246.601484
 21
12982.662818
 31
0.0
  0
LINE
  8
12
  6
CONTINUOUS
 62
     4
  5
2B3
 10
48248.313124
 20
12969.770078
 30
0.0
 11
48246.688424
 21
12982.768098
 31
0.0
  0
LINE
  8
12
  6
CONTINUOUS
 62
     4
  5
2B4
 10
48293.256764
 20
12982.768098
 30
0.0
 11
48312.488424
 21
12982.768098
 31
0.0
  0
LINE
  8
12
  6
CONTINUOUS
 62
     4
  5
2B5
 10
48293.256764
 20
12981.768078
 30
0.0
 11
48312.488424
 21
12981.768078
 31
0.0
  0
LINE
  8
12
  6
CONTINUOUS
 62
     4
  5
2B6
 10
48246.601484
 20
12981.768078
 30
0.0
 11
48224.988424
 21
12981.768078
 31
0.0
  0
LINE
  8
12
  6
CONTINUOUS
 62
     4
  5
2B7
 10
48296.049344
 20
12981.768078
 30
0.0
 11
48304.549304
 21
12981.768078
 31
0.0
  0
LINE
  8
12
  6
CONTINUOUS
 62
     4
  5
2B8
 10
48304.549304
 20
12981.768078
 30
0.0
 11
48304.549304
 21
12978.768088
 31
0.0
  0
LINE
  8
12
  6
CONTINUOUS
 62
     4
  5
2B9
 10
48296.049344
 20
12981.768078
 30
0.0
 11
48296.049344
 21
12978.768088
 31
0.0
  0
LINE
  8
12
  6
CONTINUOUS
 62
     4
  5
2BA
 10
48296.049344
 20
12978.768088
 30
0.0
 11
48296.049344
 21
12981.768078
 31
0.0
  0
LINE
  8
12
  6
CONTINUOUS
 62
     4
  5
2BB
 10
48304.549304
 20
12978.768088
 30
0.0
 11
48304.549304
 21
12981.768078
 31
0.0
  0
LINE
  8
12
  6
CONTINUOUS
 62
     4
  5
2BC
 10
48304.549304
 20
12978.768088
 30
0.0
 11
48296.049344
 21
12978.768088
 31
0.0
  0
ARC
  8
12
  6
CONTINUOUS
 62
     4
  5
2BD
 10
48300.299324
 20
12987.299338
 30
0.0
 40
9.53134
 50
243.51896
 51
296.48104
  0
LINE
  8
12
  6
CONTINUOUS
 62
     4
  5
2BE
 10
48298.899324
 20
12981.768078
 30
0.0
 11
48298.899324
 21
13012.768068
 31
0.0
  0
LINE
  8
12
  6
CONTINUOUS
 62
     4
  5
2BF
 10
48301.699324
 20
12981.768078
 30
0.0
 11
48301.699324
 21
13012.768068
 31
0.0
  0
LINE
  8
12
  6
CONTINUOUS
 62
     4
  5
2C0
 10
48298.899324
 20
13012.768068
 30
0.0
 11
48301.699324
 21
13012.768068
 31
0.0
  0
LINE
  8
12
  6
CONTINUOUS
 62
     4
  5
2C1
 10
48300.299324
 20
13019.768068
 30
0.0
 11
48301.699324
 21
13012.768068
 31
0.0
  0
LINE
  8
12
  6
CONTINUOUS
 62
     4
  5
2C2
 10
48300.299324
 20
13019.768068
 30
0.0
 11
48298.899324
 21
13012.768068
 31
0.0
  0
LINE
  8
12
  6
CENTER
 62
     4
  5
2C3
 10
48300.299324
 20
12978.768088
 30
0.0
 11
48300.299324
 21
13019.768068
 31
0.0
  0
LINE
  8
12
  6
CENTER
 62
     4
  5
2C4
 10
48300.299324
 20
13019.768068
 30
0.0
 11
48300.299324
 21
12980.261048
 31
0.0
  0
LINE
  8
12
  6
CONTINUOUS
 62
     4
  5
2C5
 10
48235.427524
 20
12981.768078
 30
0.0
 11
48243.927624
 21
12981.768078
 31
0.0
  0
LINE
  8
12
  6
CONTINUOUS
 62
     4
  5
2C6
 10
48243.927624
 20
12981.768078
 30
0.0
 11
48243.927624
 21
12978.768088
 31
0.0
  0
LINE
  8
12
  6
CONTINUOUS
 62
     4
  5
2C7
 10
48235.427524
 20
12981.768078
 30
0.0
 11
48235.427524
 21
12978.768088
 31
0.0
  0
LINE
  8
12
  6
CONTINUOUS
 62
     4
  5
2C8
 10
48235.427524
 20
12978.768088
 30
0.0
 11
48235.427524
 21
12981.768078
 31
0.0
  0
LINE
  8
12
  6
CONTINUOUS
 62
     4
  5
2C9
 10
48243.927624
 20
12978.768088
 30
0.0
 11
48243.927624
 21
12981.768078
 31
0.0
  0
LINE
  8
12
  6
CONTINUOUS
 62
     4
  5
2CA
 10
48243.927624
 20
12978.768088
 30
0.0
 11
48235.427524
 21
12978.768088
 31
0.0
  0
ARC
  8
12
  6
CONTINUOUS
 62
     4
  5
2CB
 10
48239.677504
 20
12987.299338
 30
0.0
 40
9.53134
 50
243.51896
 51
296.48104
  0
LINE
  8
12
  6
CONTINUOUS
 62
     4
  5
2CC
 10
48238.277504
 20
12981.768078
 30
0.0
 11
48238.277504
 21
13012.768068
 31
0.0
  0
LINE
  8
12
  6
CONTINUOUS
 62
     4
  5
2CD
 10
48241.077504
 20
12981.768078
 30
0.0
 11
48241.077504
 21
13012.768068
 31
0.0
  0
LINE
  8
12
  6
CONTINUOUS
 62
     4
  5
2CE
 10
48238.277504
 20
13012.768068
 30
0.0
 11
48241.077504
 21
13012.768068
 31
0.0
  0
LINE
  8
12
  6
CONTINUOUS
 62
     4
  5
2CF
 10
48239.677504
 20
13019.768068
 30
0.0
 11
48241.077504
 21
13012.768068
 31
0.0
  0
LINE
  8
12
  6
CONTINUOUS
 62
     4
  5
2D0
 10
48239.677504
 20
13019.768068
 30
0.0
 11
48238.277504
 21
13012.768068
 31
0.0
  0
LINE
  8
12
  6
CENTER
 62
     4
  5
2D1
 10
48239.677504
 20
12978.768088
 30
0.0
 11
48239.677504
 21
13019.768068
 31
0.0
  0
LINE
  8
12
  6
CENTER
 62
     4
  5
2D2
 10
48239.677504
 20
13019.768068
 30
0.0
 11
48239.677504
 21
12980.261048
 31
0.0
  0
LINE
  8
12
  6
CONTINUOUS
 62
     4
  5
2D3
 10
48294.590824
 20
12982.015318
 30
0.0
 11
48306.090844
 21
12982.015318
 31
0.0
  0
LINE
  8
12
  6
CONTINUOUS
 62
     4
  5
2D4
 10
48294.590824
 20
12982.815208
 30
0.0
 11
48306.090844
 21
12982.815208
 31
0.0
  0
LINE
  8
12
  6
CONTINUOUS
 62
     4
  5
2D5
 10
48294.590824
 20
12982.015318
 30
0.0
 11
48294.590824
 21
12982.815208
 31
0.0
  0
LINE
  8
12
  6
CONTINUOUS
 62
     4
  5
2D6
 10
48297.590744
 20
12982.015318
 30
0.0
 11
48297.590744
 21
12982.815208
 31
0.0
  0
LINE
  8
12
  6
CONTINUOUS
 62
     4
  5
2D7
 10
48303.090784
 20
12982.015318
 30
0.0
 11
48303.090784
 21
12982.815208
 31
0.0
  0
LINE
  8
12
  6
CONTINUOUS
 62
     4
  5
2D8
 10
48306.090844
 20
12982.015318
 30
0.0
 11
48306.090844
 21
12982.815208
 31
0.0
  0
LINE
  8
12
  6
CONTINUOUS
 62
     4
  5
2D9
 10
48233.972644
 20
12982.015318
 30
0.0
 11
48245.472664
 21
12982.015318
 31
0.0
  0
LINE
  8
12
  6
CONTINUOUS
 62
     4
  5
2DA
 10
48233.972644
 20
12982.815208
 30
0.0
 11
48245.472664
 21
12982.815208
 31
0.0
  0
LINE
  8
12
  6
CONTINUOUS
 62
     4
  5
2DB
 10
48233.972644
 20
12982.015318
 30
0.0
 11
48233.972644
 21
12982.815208
 31
0.0
  0
LINE
  8
12
  6
CONTINUOUS
 62
     4
  5
2DC
 10
48236.972704
 20
12982.015318
 30
0.0
 11
48236.972704
 21
12982.815208
 31
0.0
  0
LINE
  8
12
  6
CONTINUOUS
 62
     4
  5
2DD
 10
48242.472744
 20
12982.015318
 30
0.0
 11
48242.472744
 21
12982.815208
 31
0.0
  0
LINE
  8
12
  6
CONTINUOUS
 62
     4
  5
2DE
 10
48245.472664
 20
12982.015318
 30
0.0
 11
48245.472664
 21
12982.815208
 31
0.0
  0
LINE
  8
8
  6
CONTINUOUS
 62
     4
  5
2DF
 10
48252.988004
 20
12968.561458
 30
0.0
 11
48226.492444
 21
12975.398988
 31
0.0
  0
LINE
  8
8
  6
CONTINUOUS
 62
     4
  5
2E0
 10
48286.800244
 20
12968.531008
 30
0.0
 11
48313.531284
 21
12975.429368
 31
0.0
  0
ARC
  8
8
  6
CONTINUOUS
 62
     4
  5
2E1
 10
48287.956224
 20
12964.732108
 30
0.0
 40
4.00008
 50
104.470294
 51
180.0
  0
LINE
  8
50
  6
CENTER
 62
     4
  5
2E2
 10
48300.340764
 20
12982.015318
 30
0.0
 11
48300.340764
 21
12984.137298
 31
0.0
  0
LINE
  8
50
  6
CENTER
 62
     4
  5
2E3
 10
48239.722724
 20
12982.015318
 30
0.0
 11
48239.722724
 21
12984.137298
 31
0.0
  0
ARC
  8
8
  6
CONTINUOUS
 62
     4
  5
2E4
 10
48251.994004
 20
12964.681218
 30
0.0
 40
4.00008
 50
360.0
 51
75.529706
  0
LINE
  8
40
  6
DOT
 62
     3
  5
2E5
 10
48693.255071
 20
12931.767848
 30
0.0
 11
48708.255091
 21
12931.767848
 31
0.0
  0
LINE
  8
40
  6
DOT
 62
     3
  5
2E6
 10
48693.255071
 20
12931.767848
 30
0.0
 11
48693.255071
 21
12937.767968
 31
0.0
  0
LINE
  8
40
  6
DOT
 62
     3
  5
2E7
 10
48708.255091
 20
12931.767848
 30
0.0
 11
48708.255091
 21
12937.767968
 31
0.0
  0
LINE
  8
40
  6
CONTINUOUS
 62
     4
  5
2E8
 10
48714.755011
 20
12937.767828
 30
0.0
 11
48714.755011
 21
12960.352161
 31
0.0
  0
LINE
  8
40
  6
CONTINUOUS
 62
     4
  5
2E9
 10
48686.755011
 20
12937.767828
 30
0.0
 11
48686.755011
 21
12960.352161
 31
0.0
  0
LINE
  8
40
  6
CONTINUOUS
 62
     4
  5
2EA
 10
48714.755011
 20
12937.767968
 30
0.0
 11
48686.755011
 21
12937.767968
 31
0.0
  0
LINE
  8
40
  6
DOT
 62
     3
  5
2EB
 10
48277.488424
 20
12931.767848
 30
0.0
 11
48262.488404
 21
12931.767848
 31
0.0
  0
LINE
  8
40
  6
DOT
 62
     3
  5
2EC
 10
48277.488424
 20
12931.767848
 30
0.0
 11
48277.488424
 21
12937.767968
 31
0.0
  0
LINE
  8
40
  6
DOT
 62
     3
  5
2ED
 10
48262.488404
 20
12931.767848
 30
0.0
 11
48262.488404
 21
12937.767968
 31
0.0
  0
LINE
  8
40
  6
CONTINUOUS
 62
     4
  5
2EE
 10
48283.988484
 20
12937.767828
 30
0.0
 11
48283.988484
 21
12960.352161
 31
0.0
  0
LINE
  8
7
  6
CONTINUOUS
 62
     4
  5
2EF
 10
48255.988484
 20
12967.818037
 30
0.0
 11
48255.988484
 21
12937.767828
 31
0.0
  0
LINE
  8
7
  6
CONTINUOUS
 62
     4
  5
2F0
 10
48255.988484
 20
12912.725987
 30
0.0
 11
48714.755011
 21
12912.725987
 31
0.0
  0
ARC
  8
7
  6
CONTINUOUS
 62
     4
  5
2F1
 10
48255.988484
 20
12922.742723
 30
0.0
 40
10.016736
 50
180.0
 51
270.0
  0
LINE
  8
7
  6
CONTINUOUS
 62
     4
  5
2F2
 10
48245.971748
 20
12922.742723
 30
0.0
 11
48245.971748
 21
12937.767828
 31
0.0
  0
LINE
  8
40
  6
CONTINUOUS
 62
     4
  5
2F3
 10
48255.988484
 20
12937.767828
 30
0.0
 11
48255.988484
 21
12960.352161
 31
0.0
  0
LINE
  8
40
  6
CONTINUOUS
 62
     4
  5
2F4
 10
48255.988484
 20
12937.767968
 30
0.0
 11
48283.988484
 21
12937.767968
 31
0.0
  0
LINE
  8
7
  6
CONTINUOUS
 62
     4
  5
2F5
 10
48724.771748
 20
12922.742723
 30
0.0
 11
48724.771748
 21
12937.767828
 31
0.0
  0
LINE
  8
7
  6
CONTINUOUS
 62
     4
  5
2F6
 10
48245.971748
 20
12937.767828
 30
0.0
 11
48724.771748
 21
12937.767828
 31
0.0
  0
ARC
  8
7
  6
CONTINUOUS
 62
     4
  5
2F7
 10
48714.755011
 20
12922.742723
 30
0.0
 40
10.016736
 50
270.0
 51
360.0
  0
LINE
  8
1
  6
CONTINUOUS
 62
     5
  5
2F8
 10
48038.371748
 20
11455.342242
 30
0.0
 11
47858.370748
 21
11455.342242
 31
0.0
  0
LINE
  8
4
  6
CENTER1
 62
     2
  5
2F9
 10
47948.370748
 20
11455.342242
 30
0.0
 11
47948.370748
 21
13150.341642
 31
0.0
  0
LINE
  8
4
  6
CENTER1
 62
     2
  5
2FA
 10
49948.371748
 20
11455.342242
 30
0.0
 11
49948.371748
 21
13150.341642
 31
0.0
  0
LINE
  8
4
  6
CENTER1
 62
     2
  5
2FB
 10
47758.462527
 20
11545.343242
 30
0.0
 11
50010.871748
 21
11545.343242
 31
0.0
  0
LINE
  8
4
  6
CENTER1
 62
     2
  5
2FC
 10
47758.462527
 20
13045.342642
 30
0.0
 11
50010.871748
 21
13045.342642
 31
0.0
  0
LINE
  8
5
  6
CONTINUOUS
 62
     3
  5
2FD
 10
47703.370748
 20
13045.342642
 30
0.0
 11
47803.370748
 21
13045.342642
 31
0.0
  0
LINE
  8
5
  6
CONTINUOUS
 62
     3
  5
2FE
 10
47703.370748
 20
11545.343242
 30
0.0
 11
47803.370748
 21
11545.343242
 31
0.0
  0
CIRCLE
  8
5
  6
CONTINUOUS
 62
     3
  5
2FF
 10
47703.370748
 20
13045.342642
 30
0.0
 40
7.5
  0
CIRCLE
  8
5
  6
CONTINUOUS
 62
     3
  5
300
 10
47703.370748
 20
11545.343242
 30
0.0
 40
7.5
  0
LINE
  8
5
  6
CONTINUOUS
 62
     3
  5
301
 10
47603.370748
 20
11545.343242
 30
0.0
 11
47703.370748
 21
11545.343242
 31
0.0
  0
LINE
  8
5
  6
CONTINUOUS
 62
     3
  5
302
 10
47603.370748
 20
13045.342642
 30
0.0
 11
47703.370748
 21
13045.342642
 31
0.0
  0
CIRCLE
  8
5
  6
CONTINUOUS
 62
     3
  5
303
 10
47603.370748
 20
13045.342642
 30
0.0
 40
7.5
  0
CIRCLE
  8
5
  6
CONTINUOUS
 62
     3
  5
304
 10
47603.370748
 20
11545.343242
 30
0.0
 40
7.5
  0
LINE
  8
5
  6
CONTINUOUS
 62
     3
  5
305
 10
47603.370748
 20
13045.342642
 30
0.0
 11
47603.370748
 21
11545.343242
 31
0.0
  0
LINE
  8
1
  6
CONTINUOUS
 62
     5
  5
306
 10
50010.871748
 20
11635.343242
 30
0.0
 11
50010.871748
 21
13120.341642
 31
0.0
  0
LINE
  8
1
  6
CONTINUOUS
 62
     5
  5
307
 10
49885.871748
 20
11635.343242
 30
0.0
 11
49885.871748
 21
13120.341642
 31
0.0
  0
LINE
  8
1
  6
CONTINUOUS
 62
     5
  5
308
 10
49885.871748
 20
13120.341642
 30
0.0
 11
50010.871748
 21
13120.341642
 31
0.0
  0
LINE
  8
1
  6
CONTINUOUS
 62
     6
  5
309
 10
47925.870748
 20
12945.343142
 30
0.0
 11
47925.870748
 21
12960.343142
 31
0.0
  0
LINE
  8
1
  6
CONTINUOUS
 62
     6
  5
30A
 10
47925.870748
 20
12945.343142
 30
0.0
 11
47970.870748
 21
12945.343142
 31
0.0
  0
LINE
  8
1
  6
CONTINUOUS
 62
     6
  5
30B
 10
47970.870748
 20
12945.343142
 30
0.0
 11
47970.870748
 21
12960.343142
 31
0.0
  0
LINE
  8
1
  6
CONTINUOUS
 62
     6
  5
30C
 10
47925.870748
 20
12960.343142
 30
0.0
 11
47970.870748
 21
12960.343142
 31
0.0
  0
LINE
  8
1
  6
CONTINUOUS
 62
     6
  5
30D
 10
48068.371748
 20
12955.343142
 30
0.0
 11
47970.870748
 21
12955.343142
 31
0.0
  0
LINE
  8
1
  6
CONTINUOUS
 62
     6
  5
30E
 10
47828.370748
 20
12955.343142
 30
0.0
 11
47925.870748
 21
12955.343142
 31
0.0
  0
LINE
  8
1
  6
CONTINUOUS
 62
     6
  5
30F
 10
47828.370748
 20
12955.343142
 30
0.0
 11
47828.370748
 21
12982.843142
 31
0.0
  0
LINE
  8
1
  6
CONTINUOUS
 62
     6
  5
310
 10
48068.371748
 20
12955.343142
 30
0.0
 11
48068.371748
 21
12982.843142
 31
0.0
  0
LINE
  8
2
  6
CONTINUOUS
 62
     2
  5
311
 10
48038.371748
 20
12955.343142
 30
0.0
 11
48006.871748
 21
12982.843142
 31
0.0
  0
LINE
  8
2
  6
CONTINUOUS
 62
     2
  5
312
 10
47977.871748
 20
12982.843142
 30
0.0
 11
48009.371748
 21
12955.343142
 31
0.0
  0
LINE
  8
2
  6
CONTINUOUS
 62
     2
  5
313
 10
47992.371748
 20
12982.843142
 30
0.0
 11
48023.871748
 21
12955.343142
 31
0.0
  0
LINE
  8
2
  6
CONTINUOUS
 62
     2
  5
314
 10
47963.371748
 20
12982.843142
 30
0.0
 11
47994.871748
 21
12955.343142
 31
0.0
  0
LINE
  8
2
  6
CONTINUOUS
 62
     2
  5
315
 10
47948.871748
 20
12982.843142
 30
0.0
 11
47980.371748
 21
12955.343142
 31
0.0
  0
LINE
  8
2
  6
CONTINUOUS
 62
     2
  5
316
 10
47861.871748
 20
12982.843142
 30
0.0
 11
47893.371748
 21
12955.343142
 31
0.0
  0
LINE
  8
2
  6
CONTINUOUS
 62
     2
  5
317
 10
47958.870748
 20
12960.343142
 30
0.0
 11
47943.120748
 21
12945.343142
 31
0.0
  0
LINE
  8
2
  6
CONTINUOUS
 62
     2
  5
318
 10
47944.370748
 20
12960.343142
 30
0.0
 11
47928.620748
 21
12945.343142
 31
0.0
  0
LINE
  8
2
  6
CONTINUOUS
 62
     2
  5
319
 10
47957.620748
 20
12945.343142
 30
0.0
 11
47970.870748
 21
12957.962189
 31
0.0
  0
LINE
  8
2
  6
CONTINUOUS
 62
     2
  5
31A
 10
47925.870748
 20
12956.533618
 30
0.0
 11
47929.870748
 21
12960.343142
 31
0.0
  0
LINE
  8
2
  6
CONTINUOUS
 62
     2
  5
31B
 10
47934.371748
 20
12982.843142
 30
0.0
 11
47960.621748
 21
12960.343142
 31
0.0
  0
LINE
  8
2
  6
CONTINUOUS
 62
     2
  5
31C
 10
47919.871748
 20
12982.843142
 30
0.0
 11
47946.121748
 21
12960.343142
 31
0.0
  0
LINE
  8
2
  6
CONTINUOUS
 62
     2
  5
31D
 10
47905.371748
 20
12982.843142
 30
0.0
 11
47931.621748
 21
12960.343142
 31
0.0
  0
LINE
  8
2
  6
CONTINUOUS
 62
     2
  5
31E
 10
47890.871748
 20
12982.843142
 30
0.0
 11
47922.371748
 21
12955.343142
 31
0.0
  0
LINE
  8
2
  6
CONTINUOUS
 62
     2
  5
31F
 10
47876.371748
 20
12982.843142
 30
0.0
 11
47907.871748
 21
12955.343142
 31
0.0
  0
LINE
  8
2
  6
CONTINUOUS
 62
     2
  5
320
 10
48021.371748
 20
12982.843142
 30
0.0
 11
48052.871748
 21
12955.343142
 31
0.0
  0
LINE
  8
2
  6
CONTINUOUS
 62
     2
  5
321
 10
47878.871748
 20
12955.343142
 30
0.0
 11
47847.371748
 21
12982.843142
 31
0.0
  0
LINE
  8
2
  6
CONTINUOUS
 62
     2
  5
322
 10
48035.871748
 20
12982.843142
 30
0.0
 11
48067.371748
 21
12955.343142
 31
0.0
  0
LINE
  8
2
  6
CONTINUOUS
 62
     2
  5
323
 10
47864.371748
 20
12955.343142
 30
0.0
 11
47832.871748
 21
12982.843142
 31
0.0
  0
LINE
  8
2
  6
CONTINUOUS
 62
     2
  5
324
 10
47849.871748
 20
12955.343142
 30
0.0
 11
47828.370748
 21
12973.320285
 31
0.0
  0
LINE
  8
2
  6
CONTINUOUS
 62
     2
  5
325
 10
47835.371748
 20
12955.343142
 30
0.0
 11
47828.370748
 21
12962.510761
 31
0.0
  0
LINE
  8
1
  6
CONTINUOUS
 62
     6
  5
326
 10
47925.870748
 20
12770.341742
 30
0.0
 11
47925.870748
 21
12785.341742
 31
0.0
  0
LINE
  8
1
  6
CONTINUOUS
 62
     6
  5
327
 10
47925.870748
 20
12770.341742
 30
0.0
 11
47970.870748
 21
12770.341742
 31
0.0
  0
LINE
  8
1
  6
CONTINUOUS
 62
     6
  5
328
 10
47970.870748
 20
12770.341742
 30
0.0
 11
47970.870748
 21
12785.341742
 31
0.0
  0
LINE
  8
1
  6
CONTINUOUS
 62
     6
  5
329
 10
47925.870748
 20
12785.341742
 30
0.0
 11
47970.870748
 21
12785.341742
 31
0.0
  0
LINE
  8
1
  6
CONTINUOUS
 62
     6
  5
32A
 10
48068.371748
 20
12745.341742
 30
0.0
 11
48068.371748
 21
12775.341742
 31
0.0
  0
LINE
  8
1
  6
CONTINUOUS
 62
     6
  5
32B
 10
48068.371748
 20
12775.341742
 30
0.0
 11
47970.870748
 21
12775.341742
 31
0.0
  0
LINE
  8
1
  6
CONTINUOUS
 62
     6
  5
32C
 10
47828.370748
 20
12745.341742
 30
0.0
 11
48068.371748
 21
12745.341742
 31
0.0
  0
LINE
  8
1
  6
CONTINUOUS
 62
     6
  5
32D
 10
47828.370748
 20
12745.341742
 30
0.0
 11
47828.370748
 21
12775.341742
 31
0.0
  0
LINE
  8
1
  6
CONTINUOUS
 62
     6
  5
32E
 10
47828.370748
 20
12775.341742
 30
0.0
 11
47925.870748
 21
12775.341742
 31
0.0
  0
LINE
  8
2
  6
CONTINUOUS
 62
     2
  5
32F
 10
47992.371748
 20
12775.341742
 30
0.0
 11
48023.871748
 21
12745.341742
 31
0.0
  0
LINE
  8
2
  6
CONTINUOUS
 62
     2
  5
330
 10
47977.871748
 20
12775.341742
 30
0.0
 11
48009.371748
 21
12745.341742
 31
0.0
  0
LINE
  8
2
  6
CONTINUOUS
 62
     2
  5
331
 10
47919.871748
 20
12775.341742
 30
0.0
 11
47951.371748
 21
12745.341742
 31
0.0
  0
LINE
  8
2
  6
CONTINUOUS
 62
     2
  5
332
 10
47890.871748
 20
12775.341742
 30
0.0
 11
47922.371748
 21
12745.341742
 31
0.0
  0
LINE
  8
2
  6
CONTINUOUS
 62
     2
  5
333
 10
47876.371748
 20
12775.341742
 30
0.0
 11
47907.871748
 21
12745.341742
 31
0.0
  0
LINE
  8
2
  6
CONTINUOUS
 62
     2
  5
334
 10
47861.871748
 20
12775.341742
 30
0.0
 11
47893.371748
 21
12745.341742
 31
0.0
  0
LINE
  8
2
  6
CONTINUOUS
 62
     2
  5
335
 10
48006.871748
 20
12775.341742
 30
0.0
 11
48038.371748
 21
12745.341742
 31
0.0
  0
LINE
  8
2
  6
CONTINUOUS
 62
     2
  5
336
 10
47937.870748
 20
12770.341742
 30
0.0
 11
47953.620748
 21
12785.341742
 31
0.0
  0
LINE
  8
2
  6
CONTINUOUS
 62
     2
  5
337
 10
47939.120748
 20
12785.341742
 30
0.0
 11
47925.870748
 21
12772.722694
 31
0.0
  0
LINE
  8
2
  6
CONTINUOUS
 62
     2
  5
338
 10
47952.370748
 20
12770.341742
 30
0.0
 11
47968.120748
 21
12785.341742
 31
0.0
  0
LINE
  8
2
  6
CONTINUOUS
 62
     2
  5
339
 10
47966.870748
 20
12770.341742
 30
0.0
 11
47970.870748
 21
12774.151266
 31
0.0
  0
LINE
  8
2
  6
CONTINUOUS
 62
     2
  5
33A
 10
47936.871748
 20
12745.341742
 30
0.0
 11
47905.371748
 21
12775.341742
 31
0.0
  0
LINE
  8
2
  6
CONTINUOUS
 62
     2
  5
33B
 10
47965.871748
 20
12745.341742
 30
0.0
 11
47939.621748
 21
12770.341742
 31
0.0
  0
LINE
  8
2
  6
CONTINUOUS
 62
     2
  5
33C
 10
47980.371748
 20
12745.341742
 30
0.0
 11
47954.121748
 21
12770.341742
 31
0.0
  0
LINE
  8
2
  6
CONTINUOUS
 62
     2
  5
33D
 10
47994.871748
 20
12745.341742
 30
0.0
 11
47968.621748
 21
12770.341742
 31
0.0
  0
LINE
  8
2
  6
CONTINUOUS
 62
     2
  5
33E
 10
47878.871748
 20
12745.341742
 30
0.0
 11
47847.371748
 21
12775.341742
 31
0.0
  0
LINE
  8
2
  6
CONTINUOUS
 62
     2
  5
33F
 10
48021.371748
 20
12775.341742
 30
0.0
 11
48052.871748
 21
12745.341742
 31
0.0
  0
LINE
  8
2
  6
CONTINUOUS
 62
     2
  5
340
 10
48035.871748
 20
12775.341742
 30
0.0
 11
48067.371748
 21
12745.341742
 31
0.0
  0
LINE
  8
2
  6
CONTINUOUS
 62
     2
  5
341
 10
48050.371748
 20
12775.341742
 30
0.0
 11
48068.371748
 21
12758.198885
 31
0.0
  0
LINE
  8
2
  6
CONTINUOUS
 62
     2
  5
342
 10
47864.371748
 20
12745.341742
 30
0.0
 11
47832.871748
 21
12775.341742
 31
0.0
  0
LINE
  8
2
  6
CONTINUOUS
 62
     2
  5
343
 10
47849.871748
 20
12745.341742
 30
0.0
 11
47828.370748
 21
12765.818885
 31
0.0
  0
LINE
  8
2
  6
CONTINUOUS
 62
     2
  5
344
 10
47835.371748
 20
12745.341742
 30
0.0
 11
47828.370748
 21
12752.009361
 31
0.0
  0
LINE
  8
2
  6
CONTINUOUS
 62
     2
  5
345
 10
48068.371748
 20
12772.008408
 30
0.0
 11
48064.871748
 21
12775.341742
 31
0.0
  0
LINE
  8
5
  6
CONTINUOUS
 62
     5
  5
346
 10
48038.371748
 20
11635.343242
 30
0.0
 11
48038.371748
 21
12745.341742
 31
0.0
  0
LINE
  8
5
  6
CONTINUOUS
 62
     5
  5
347
 10
47858.370748
 20
12745.341742
 30
0.0
 11
48038.371748
 21
12745.341742
 31
0.0
  0
LINE
  8
5
  6
CONTINUOUS
 62
     5
  5
348
 10
47858.370748
 20
12745.341742
 30
0.0
 11
47858.370748
 21
11455.342242
 31
0.0
  0
LINE
  8
1
  6
CONTINUOUS
 62
     6
  5
349
 10
47950.870748
 20
12785.341742
 30
0.0
 11
47950.870748
 21
12945.343142
 31
0.0
  0
LINE
  8
1
  6
CONTINUOUS
 62
     6
  5
34A
 10
47945.870748
 20
12785.341742
 30
0.0
 11
47945.870748
 21
12945.343142
 31
0.0
  0
CIRCLE
  8
5
  6
CONTINUOUS
 62
     3
  5
34B
 10
47703.370748
 20
12955.343142
 30
0.0
 40
7.5
  0
CIRCLE
  8
5
  6
CONTINUOUS
 62
     3
  5
34C
 10
47703.370748
 20
12775.341742
 30
0.0
 40
7.5
  0
LINE
  8
5
  6
CONTINUOUS
 62
     3
  5
34D
 10
47703.370748
 20
12955.343142
 30
0.0
 11
47703.370748
 21
12775.341742
 31
0.0
  0
LINE
  8
5
  6
CONTINUOUS
 62
     3
  5
34E
 10
47703.370748
 20
12775.341742
 30
0.0
 11
47803.370748
 21
12775.341742
 31
0.0
  0
LINE
  8
5
  6
CONTINUOUS
 62
     3
  5
34F
 10
47703.370748
 20
12775.341742
 30
0.0
 11
47703.370748
 21
11545.343242
 31
0.0
  0
LINE
  8
5
  6
CONTINUOUS
 62
     3
  5
350
 10
47703.370748
 20
12955.343142
 30
0.0
 11
47803.370748
 21
12955.343142
 31
0.0
  0
LINE
  8
5
  6
CONTINUOUS
 62
     3
  5
351
 10
47703.370748
 20
13045.342642
 30
0.0
 11
47703.370748
 21
12955.343142
 31
0.0
  0
LINE
  8
5
  6
CONTINUOUS
 62
     3
  5
352
 10
49948.371748
 20
13350.341642
 30
0.0
 11
49948.371748
 21
13150.341642
 31
0.0
  0
LINE
  8
5
  6
CONTINUOUS
 62
     3
  5
353
 10
47948.370748
 20
13350.341642
 30
0.0
 11
47948.370748
 21
13150.341642
 31
0.0
  0
CIRCLE
  8
5
  6
CONTINUOUS
 62
     3
  5
354
 10
49948.371748
 20
13350.341642
 30
0.0
 40
7.5
  0
CIRCLE
  8
5
  6
CONTINUOUS
 62
     3
  5
355
 10
47948.370748
 20
13350.341642
 30
0.0
 40
7.5
  0
CIRCLE
  8
5
  6
CONTINUOUS
 62
     3
  5
356
 10
47948.370748
 20
13250.341642
 30
0.0
 40
7.5
  0
CIRCLE
  8
5
  6
CONTINUOUS
 62
     3
  5
357
 10
49948.371748
 20
13250.341642
 30
0.0
 40
7.5
  0
TEXT
  8
5
  6
CONTINUOUS
 62
     3
  5
358
 10
48858.371248
 20
13350.341642
 30
0.0
 40
60.0
  1
2,000
 41
0.6
  7

 72
     5
 11
49038.371248
 21
13350.341642
 31
0.0
  0
LINE
  8
5
  6
CONTINUOUS
 62
     3
  5
359
 10
49948.371748
 20
13350.341642
 30
0.0
 11
47948.370748
 21
13350.341642
 31
0.0
  0
LINE
  8
1
  6
CONTINUOUS
 62
     6
  5
35A
 10
49213.369748
 20
13005.343142
 30
0.0
 11
49213.369748
 21
12980.343142
 31
0.0
  0
LINE
  8
1
  6
CONTINUOUS
 62
     6
  5
35B
 10
49208.369748
 20
13010.343142
 30
0.0
 11
49208.369748
 21
12970.343142
 31
0.0
  0
LINE
  8
1
  6
CONTINUOUS
 62
     6
  5
35C
 10
49203.369748
 20
13031.343142
 30
0.0
 11
49203.369748
 21
13010.343142
 31
0.0
  0
LINE
  8
1
  6
CONTINUOUS
 62
     6
  5
35D
 10
49218.369748
 20
13010.343142
 30
0.0
 11
49203.369748
 21
13010.343142
 31
0.0
  0
LINE
  8
1
  6
CONTINUOUS
 62
     6
  5
35E
 10
49218.369748
 20
13031.343142
 30
0.0
 11
49218.369748
 21
13010.343142
 31
0.0
  0
LINE
  8
1
  6
CONTINUOUS
 62
     6
  5
35F
 10
49218.369748
 20
13031.343142
 30
0.0
 11
49203.369748
 21
13031.343142
 31
0.0
  0
LINE
  8
1
  6
CONTINUOUS
 62
     6
  5
360
 10
49208.369748
 20
12970.343142
 30
0.0
 11
49178.369748
 21
12970.343142
 31
0.0
  0
LINE
  8
1
  6
CONTINUOUS
 62
     6
  5
361
 10
49853.369748
 20
13005.343142
 30
0.0
 11
49213.369748
 21
13005.343142
 31
0.0
  0
LINE
  8
2
  6
CONTINUOUS
 62
     3
  5
362
 10
49203.369748
 20
13010.343142
 30
0.0
 11
49218.369748
 21
13031.343142
 31
0.0
  0
LINE
  8
2
  6
CONTINUOUS
 62
     3
  5
363
 10
49215.658784
 20
13010.343142
 30
0.0
 11
49218.369748
 21
13014.138491
 31
0.0
  0
LINE
  8
2
  6
CONTINUOUS
 62
     3
  5
364
 10
49203.369748
 20
13027.547792
 30
0.0
 11
49206.080712
 21
13031.343142
 31
0.0
  0
LINE
  8
2
  6
CONTINUOUS
 62
     2
  5
365
 10
49208.071748
 20
13072.156042
 30
0.0
 11
49178.369748
 21
13103.343142
 31
0.0
  0
LINE
  8
2
  6
CONTINUOUS
 62
     2
  5
366
 10
49208.071748
 20
13057.656042
 30
0.0
 11
49178.369748
 21
13088.843142
 31
0.0
  0
LINE
  8
2
  6
CONTINUOUS
 62
     2
  5
367
 10
49208.071748
 20
13043.156042
 30
0.0
 11
49178.369748
 21
13074.343142
 31
0.0
  0
LINE
  8
2
  6
CONTINUOUS
 62
     2
  5
368
 10
49205.512605
 20
13031.343142
 30
0.0
 11
49178.369748
 21
13059.843142
 31
0.0
  0
LINE
  8
2
  6
CONTINUOUS
 62
     2
  5
369
 10
49203.369748
 20
13019.093142
 30
0.0
 11
49178.369748
 21
13045.343142
 31
0.0
  0
LINE
  8
2
  6
CONTINUOUS
 62
     2
  5
36A
 10
49208.071748
 20
12999.656042
 30
0.0
 11
49178.369748
 21
13030.843142
 31
0.0
  0
LINE
  8
2
  6
CONTINUOUS
 62
     2
  5
36B
 10
49208.071748
 20
12985.156042
 30
0.0
 11
49178.369748
 21
13016.343142
 31
0.0
  0
LINE
  8
2
  6
CONTINUOUS
 62
     2
  5
36C
 10
49208.071748
 20
12970.656042
 30
0.0
 11
49178.369748
 21
13001.843142
 31
0.0
  0
LINE
  8
2
  6
CONTINUOUS
 62
     2
  5
36D
 10
49194.560224
 20
12970.343142
 30
0.0
 11
49178.369748
 21
12987.343142
 31
0.0
  0
LINE
  8
1
  6
CONTINUOUS
 62
     6
  5
36E
 10
49208.369748
 20
13120.343142
 30
0.0
 11
49208.369748
 21
13031.343142
 31
0.0
  0
LINE
  8
1
  6
CONTINUOUS
 62
     6
  5
36F
 10
49208.369748
 20
13120.343142
 30
0.0
 11
49178.369748
 21
13120.343142
 31
0.0
  0
LINE
  8
1
  6
CONTINUOUS
 62
     6
  5
370
 10
49178.369748
 20
12970.343142
 30
0.0
 11
49178.369748
 21
13120.343142
 31
0.0
  0
LINE
  8
2
  6
CONTINUOUS
 62
     2
  5
371
 10
49208.071748
 20
13086.656042
 30
0.0
 11
49178.369748
 21
13117.843142
 31
0.0
  0
LINE
  8
2
  6
CONTINUOUS
 62
     3
  5
372
 10
49208.369748
 20
13115.343142
 30
0.0
 11
49203.607843
 21
13120.343142
 31
0.0
  0
LINE
  8
2
  6
CONTINUOUS
 62
     2
  5
373
 10
49208.071748
 20
13101.156042
 30
0.0
 11
49189.798319
 21
13120.343142
 31
0.0
  0
LINE
  8
2
  6
CONTINUOUS
 62
     2
  5
374
 10
49864.084033
 20
13010.343142
 30
0.0
 11
49885.871748
 21
12985.156042
 31
0.0
  0
LINE
  8
1
  6
CONTINUOUS
 62
     6
  5
375
 10
49858.369748
 20
13010.343142
 30
0.0
 11
49858.369748
 21
12970.343142
 31
0.0
  0
LINE
  8
1
  6
CONTINUOUS
 62
     6
  5
376
 10
49863.369748
 20
13031.343142
 30
0.0
 11
49863.369748
 21
13010.343142
 31
0.0
  0
LINE
  8
1
  6
CONTINUOUS
 62
     6
  5
377
 10
49858.369748
 20
12970.343142
 30
0.0
 11
49886.169748
 21
12970.343142
 31
0.0
  0
LINE
  8
1
  6
CONTINUOUS
 62
     6
  5
378
 10
49853.369748
 20
13005.343142
 30
0.0
 11
49853.369748
 21
12980.343142
 31
0.0
  0
LINE
  8
1
  6
CONTINUOUS
 62
     6
  5
379
 10
49848.369748
 20
13031.343142
 30
0.0
 11
49848.369748
 21
13010.343142
 31
0.0
  0
LINE
  8
1
  6
CONTINUOUS
 62
     6
  5
37A
 10
49848.369748
 20
13031.343142
 30
0.0
 11
49863.369748
 21
13031.343142
 31
0.0
  0
LINE
  8
1
  6
CONTINUOUS
 62
     6
  5
37B
 10
49848.369748
 20
13010.343142
 30
0.0
 11
49863.369748
 21
13010.343142
 31
0.0
  0
LINE
  8
2
  6
CONTINUOUS
 62
     2
  5
37C
 10
49885.871748
 20
13028.656042
 30
0.0
 11
49858.369748
 21
13059.843142
 31
0.0
  0
LINE
  8
2
  6
CONTINUOUS
 62
     2
  5
37D
 10
49885.871748
 20
13014.156042
 30
0.0
 11
49858.369748
 21
13045.343142
 31
0.0
  0
LINE
  8
2
  6
CONTINUOUS
 62
     2
  5
37E
 10
49885.871748
 20
13043.156042
 30
0.0
 11
49858.369748
 21
13074.343142
 31
0.0
  0
LINE
  8
2
  6
CONTINUOUS
 62
     2
  5
37F
 10
49885.871748
 20
13057.656042
 30
0.0
 11
49858.369748
 21
13088.843142
 31
0.0
  0
LINE
  8
2
  6
CONTINUOUS
 62
     2
  5
380
 10
49885.871748
 20
13072.156042
 30
0.0
 11
49858.369748
 21
13103.343142
 31
0.0
  0
LINE
  8
2
  6
CONTINUOUS
 62
     2
  5
381
 10
49885.871748
 20
13086.656042
 30
0.0
 11
49860.7507
 21
13115.343142
 31
0.0
  0
LINE
  8
2
  6
CONTINUOUS
 62
     2
  5
382
 10
49885.871748
 20
12970.656042
 30
0.0
 11
49858.369748
 21
13001.843142
 31
0.0
  0
LINE
  8
2
  6
CONTINUOUS
 62
     2
  5
383
 10
49872.360224
 20
12970.343142
 30
0.0
 11
49858.369748
 21
12987.343142
 31
0.0
  0
LINE
  8
2
  6
CONTINUOUS
 62
     2
  5
384
 10
49885.871748
 20
12999.656042
 30
0.0
 11
49863.369748
 21
13025.593142
 31
0.0
  0
LINE
  8
2
  6
CONTINUOUS
 62
     3
  5
385
 10
49848.369748
 20
13010.343142
 30
0.0
 11
49863.369748
 21
13031.343142
 31
0.0
  0
LINE
  8
2
  6
CONTINUOUS
 62
     3
  5
386
 10
49860.658784
 20
13010.343142
 30
0.0
 11
49863.369748
 21
13014.138491
 31
0.0
  0
LINE
  8
2
  6
CONTINUOUS
 62
     3
  5
387
 10
49848.369748
 20
13027.547792
 30
0.0
 11
49851.080712
 21
13031.343142
 31
0.0
  0
LINE
  8
1
  6
CONTINUOUS
 62
     6
  5
388
 10
49858.369748
 20
13120.343142
 30
0.0
 11
49858.369748
 21
13031.343142
 31
0.0
  0
LINE
  8
1
  6
CONTINUOUS
 62
     6
  5
389
 10
49858.369748
 20
13120.343142
 30
0.0
 11
49875.871748
 21
13120.343142
 31
0.0
  0
LINE
  8
1
  6
CONTINUOUS
 62
     6
  5
38A
 10
49853.369748
 20
12980.343142
 30
0.0
 11
49213.369748
 21
12980.343142
 31
0.0
  0
LINE
  8
1
  6
CONTINUOUS
 62
     6
  5
38B
 10
49853.369748
 20
12980.343142
 30
0.0
 11
49853.369748
 21
12340.343142
 31
0.0
  0
ARC
  8
1
  6
CONTINUOUS
 62
     6
  5
38C
 10
49853.369748
 20
12980.343142
 30
0.0
 40
640.0
 50
180.0
 51
270.0
  0
LINE
  8
1
  6
CONTINUOUS
 62
     5
  5
38D
 10
47833.370748
 20
12982.842642
 30
0.0
 11
49178.369748
 21
12982.842642
 31
0.0
  0
LINE
  8
1
  6
CONTINUOUS
 62
     5
  5
38E
 10
47833.370748
 20
13107.842642
 30
0.0
 11
49178.369748
 21
13107.842642
 31
0.0
  0
CIRCLE
  8
5
  6
CONTINUOUS
 62
     3
  5
38F
 10
49208.369748
 20
13250.341642
 30
0.0
 40
7.5
  0
CIRCLE
  8
5
  6
CONTINUOUS
 62
     3
  5
390
 10
49858.369748
 20
13250.341642
 30
0.0
 40
7.5
  0
TEXT
  8
5
  6
CONTINUOUS
 62
     3
  5
391
 10
49473.369748
 20
13250.341642
 30
0.0
 40
60.0
  1
650
 41
0.666667
  7

 72
     5
 11
49593.369748
 21
13250.341642
 31
0.0
  0
LINE
  8
5
  6
CONTINUOUS
 62
     3
  5
392
 10
49208.369748
 20
13250.341642
 30
0.0
 11
49858.369748
 21
13250.341642
 31
0.0
  0
LINE
  8
5
  6
CONTINUOUS
 62
     3
  5
393
 10
49858.369748
 20
13250.341642
 30
0.0
 11
49948.371748
 21
13250.341642
 31
0.0
  0
LINE
  8
5
  6
CONTINUOUS
 62
     3
  5
394
 10
49858.369748
 20
13250.341642
 30
0.0
 11
49858.369748
 21
13150.341642
 31
0.0
  0
TEXT
  8
5
  6
CONTINUOUS
 62
     3
  5
395
 10
49857.270748
 20
13250.341642
 30
0.0
 40
60.0
  1
90
 41
0.75
  7

 72
     5
 11
49947.270748
 21
13250.341642
 31
0.0
  0
LINE
  8
5
  6
CONTINUOUS
 62
     3
  5
396
 10
49208.369748
 20
13250.341642
 30
0.0
 11
49208.369748
 21
13150.341642
 31
0.0
  0
LINE
  8
5
  6
CONTINUOUS
 62
     3
  5
397
 10
47948.370748
 20
13250.341642
 30
0.0
 11
49208.369748
 21
13250.341642
 31
0.0
  0
TEXT
  8
5
  6
CONTINUOUS
 62
     3
  5
398
 10
48487.270248
 20
13250.341642
 30
0.0
 40
60.0
  1
1,260
 41
0.6
  7

 72
     5
 11
48667.270248
 21
13250.341642
 31
0.0
  0
TEXT
  8
5
  6
CONTINUOUS
 62
     3
  5
399
 10
47703.370748
 20
12956.592892
 30
0.0
 40
60.0
  1
90
 50
90.0
 41
0.75
  7

 72
     5
 11
47703.370748
 21
13046.592892
 31
0.0
  0
TEXT
  8
5
  6
CONTINUOUS
 62
     3
  5
39A
 10
47703.370748
 20
12803.742442
 30
0.0
 40
60.0
  1
180
 50
90.0
 41
0.666667
  7

 72
     5
 11
47703.370748
 21
12923.742442
 31
0.0
  0
TEXT
  8
5
  6
CONTINUOUS
 62
     3
  5
39B
 10
47603.370748
 20
12205.342942
 30
0.0
 40
60.0
  1
1,500
 50
90.0
 41
0.6
  7

 72
     5
 11
47603.370748
 21
12385.342942
 31
0.0
  0
TEXT
  8
5
  6
CONTINUOUS
 62
     3
  5
39C
 10
47703.370748
 20
12070.492492
 30
0.0
 40
60.0
  1
1,230
 50
90.0
 41
0.6
  7

 72
     5
 11
47703.370748
 21
12250.492492
 31
0.0
  0
LINE
  8
5
  6
CONTINUOUS
 62
     5
  5
39D
 10
48046.169748
 20
10957.988367
 30
0.0
 11
48046.169748
 21
8657.988367
 31
0.0
  0
LINE
  8
5
  6
CONTINUOUS
 62
     5
  5
39E
 10
49863.668748
 20
10957.988367
 30
0.0
 11
49863.668748
 21
8657.988367
 31
0.0
  0
LINE
  8
5
  6
CONTINUOUS
 62
     5
  5
39F
 10
49863.668748
 20
10957.988367
 30
0.0
 11
48046.169748
 21
10957.988367
 31
0.0
  0
LINE
  8
2
  6
CONTINUOUS
 62
     6
  5
3A0
 10
49838.667748
 20
10932.987367
 30
0.0
 11
49838.667748
 21
8657.988367
 31
0.0
  0
LINE
  8
2
  6
CONTINUOUS
 62
     6
  5
3A1
 10
49163.667748
 20
10957.988367
 30
0.0
 11
49163.667748
 21
8657.988367
 31
0.0
  0
LINE
  8
2
  6
CONTINUOUS
 62
     6
  5
3A2
 10
49188.667748
 20
10932.987367
 30
0.0
 11
49188.667748
 21
8657.988367
 31
0.0
  0
LINE
  8
2
  6
CONTINUOUS
 62
     6
  5
3A3
 10
49188.667748
 20
10932.987367
 30
0.0
 11
49838.667748
 21
10932.987367
 31
0.0
  0
LINE
  8
2
  6
CONTINUOUS
 62
     6
  5
3A4
 10
49838.667748
 20
10657.987367
 30
0.0
 11
49188.667748
 21
10657.987367
 31
0.0
  0
LINE
  8
2
  6
CONTINUOUS
 62
     5
  5
3A5
 10
49863.668748
 20
10957.986367
 30
0.0
 11
49863.668748
 21
8657.988367
 31
0.0
  0
ARC
  8
7
  6
CONTINUOUS
 62
     4
  5
3A6
 10
48723.169748
 20
9757.988367
 30
0.0
 40
7.7
 50
90.0
 51
270.0
  0
ARC
  8
7
  6
CONTINUOUS
 62
     4
  5
3A7
 10
48723.169748
 20
9757.988367
 30
0.0
 40
6.8
 50
90.0
 51
270.0
  0
LINE
  8
7
  6
CONTINUOUS
 62
     4
  5
3A8
 10
48730.169748
 20
9765.588367
 30
0.0
 11
48723.169748
 21
9765.588367
 31
0.0
  0
LINE
  8
7
  6
CONTINUOUS
 62
     4
  5
3A9
 10
48723.169748
 20
9764.688367
 30
0.0
 11
48729.469748
 21
9764.688367
 31
0.0
  0
ARC
  8
7
  6
CONTINUOUS
 62
     4
  5
3AA
 10
48688.169748
 20
9757.988367
 30
0.0
 40
41.8
 50
350.63
 51
9.02
  0
LINE
  8
7
  6
CONTINUOUS
 62
     4
  5
3AB
 10
48723.169748
 20
9751.188367
 30
0.0
 11
48729.369748
 21
9751.188367
 31
0.0
  0
LINE
  8
7
  6
CONTINUOUS
 62
     4
  5
3AC
 10
48730.169748
 20
9750.288367
 30
0.0
 11
48723.169748
 21
9750.288367
 31
0.0
  0
ARC
  8
7
  6
CONTINUOUS
 62
     4
  5
3AD
 10
48688.169748
 20
9757.988367
 30
0.0
 40
45.0
 50
299.87
 51
60.13
  0
ARC
  8
7
  6
DIVIDE
 62
     4
  5
3AE
 10
48688.169748
 20
9757.988367
 30
0.0
 40
42.7
 50
301.61
 51
58.39
  0
CIRCLE
  8
7
  6
CONTINUOUS
 62
     4
  5
3AF
 10
48723.169748
 20
9757.988367
 30
0.0
 40
4.0
  0
CIRCLE
  8
7
  6
CONTINUOUS
 62
     4
  5
3B0
 10
48723.169748
 20
9757.988367
 30
0.0
 40
4.4
  0
ARC
  8
7
  6
CONTINUOUS
 62
     4
  5
3B1
 10
48670.669748
 20
9788.288367
 30
0.0
 40
7.7
 50
210.0
 51
30.0
  0
ARC
  8
7
  6
CONTINUOUS
 62
     4
  5
3B2
 10
48670.669748
 20
9788.288367
 30
0.0
 40
6.8
 50
210.0
 51
30.0
  0
LINE
  8
7
  6
CONTINUOUS
 62
     4
  5
3B3
 10
48660.569748
 20
9790.588367
 30
0.0
 11
48664.069748
 21
9784.488367
 31
0.0
  0
LINE
  8
7
  6
CONTINUOUS
 62
     4
  5
3B4
 10
48664.869748
 20
9784.988367
 30
0.0
 11
48661.669748
 21
9790.388367
 31
0.0
  0
ARC
  8
7
  6
CONTINUOUS
 62
     4
  5
3B5
 10
48688.169748
 20
9757.988367
 30
0.0
 40
41.8
 50
110.63
 51
129.02
  0
LINE
  8
7
  6
CONTINUOUS
 62
     4
  5
3B6
 10
48676.569748
 20
9791.688367
 30
0.0
 11
48673.469748
 21
9797.088367
 31
0.0
  0
LINE
  8
7
  6
CONTINUOUS
 62
     4
  5
3B7
 10
48673.869748
 20
9798.188367
 30
0.0
 11
48677.369748
 21
9792.188367
 31
0.0
  0
ARC
  8
7
  6
DIVIDE
 62
     4
  5
3B8
 10
48688.169748
 20
9757.988367
 30
0.0
 40
42.7
 50
98.62
 51
160.29
  0
ARC
  8
7
  6
CONTINUOUS
 62
     4
  5
3B9
 10
48688.169748
 20
9757.988367
 30
0.0
 40
45.0
 50
98.18
 51
161.32
  0
CIRCLE
  8
7
  6
CONTINUOUS
 62
     4
  5
3BA
 10
48670.669748
 20
9788.288367
 30
0.0
 40
4.0
  0
CIRCLE
  8
7
  6
CONTINUOUS
 62
     4
  5
3BB
 10
48670.669748
 20
9788.288367
 30
0.0
 40
4.4
  0
ARC
  8
7
  6
CONTINUOUS
 62
     4
  5
3BC
 10
48670.669748
 20
9727.688367
 30
0.0
 40
7.7
 50
330.0
 51
150.0
  0
ARC
  8
7
  6
CONTINUOUS
 62
     4
  5
3BD
 10
48670.669748
 20
9727.688367
 30
0.0
 40
6.8
 50
330.0
 51
150.0
  0
LINE
  8
7
  6
CONTINUOUS
 62
     4
  5
3BE
 10
48673.769748
 20
9717.788367
 30
0.0
 11
48677.269748
 21
9723.888367
 31
0.0
  0
LINE
  8
7
  6
CONTINUOUS
 62
     4
  5
3BF
 10
48676.469748
 20
9724.288367
 30
0.0
 11
48673.369748
 21
9718.888367
 31
0.0
  0
ARC
  8
7
  6
CONTINUOUS
 62
     4
  5
3C0
 10
48688.169748
 20
9757.988367
 30
0.0
 40
41.8
 50
230.63
 51
249.02
  0
LINE
  8
7
  6
CONTINUOUS
 62
     4
  5
3C1
 10
48664.769748
 20
9731.088367
 30
0.0
 11
48661.669748
 21
9725.688367
 31
0.0
  0
LINE
  8
7
  6
CONTINUOUS
 62
     4
  5
3C2
 10
48660.469748
 20
9725.488367
 30
0.0
 11
48663.969748
 21
9731.488367
 31
0.0
  0
ARC
  8
7
  6
DIVIDE
 62
     4
  5
3C3
 10
48688.169748
 20
9757.988367
 30
0.0
 40
42.7
 50
199.71
 51
261.38
  0
ARC
  8
7
  6
CONTINUOUS
 62
     4
  5
3C4
 10
48688.169748
 20
9757.988367
 30
0.0
 40
45.0
 50
198.68
 51
261.82
  0
CIRCLE
  8
7
  6
CONTINUOUS
 62
     4
  5
3C5
 10
48670.669748
 20
9727.688367
 30
0.0
 40
4.0
  0
CIRCLE
  8
7
  6
CONTINUOUS
 62
     4
  5
3C6
 10
48670.669748
 20
9727.688367
 30
0.0
 40
4.4
  0
ARC
  8
7
  6
CONTINUOUS
 62
     4
  5
3C7
 10
48723.169748
 20
9457.988367
 30
0.0
 40
7.7
 50
90.0
 51
270.0
  0
ARC
  8
7
  6
CONTINUOUS
 62
     4
  5
3C8
 10
48723.169748
 20
9457.988367
 30
0.0
 40
6.8
 50
90.0
 51
270.0
  0
LINE
  8
7
  6
CONTINUOUS
 62
     4
  5
3C9
 10
48730.169748
 20
9465.588367
 30
0.0
 11
48723.169748
 21
9465.588367
 31
0.0
  0
LINE
  8
7
  6
CONTINUOUS
 62
     4
  5
3CA
 10
48723.169748
 20
9464.688367
 30
0.0
 11
48729.469748
 21
9464.688367
 31
0.0
  0
ARC
  8
7
  6
CONTINUOUS
 62
     4
  5
3CB
 10
48688.169748
 20
9457.988367
 30
0.0
 40
41.8
 50
350.63
 51
9.02
  0
LINE
  8
7
  6
CONTINUOUS
 62
     4
  5
3CC
 10
48723.169748
 20
9451.188367
 30
0.0
 11
48729.369748
 21
9451.188367
 31
0.0
  0
LINE
  8
7
  6
CONTINUOUS
 62
     4
  5
3CD
 10
48730.169748
 20
9450.288367
 30
0.0
 11
48723.169748
 21
9450.288367
 31
0.0
  0
ARC
  8
7
  6
DIVIDE
 62
     4
  5
3CE
 10
48688.169748
 20
9457.988367
 30
0.0
 40
42.7
 50
301.61
 51
58.39
  0
ARC
  8
7
  6
CONTINUOUS
 62
     4
  5
3CF
 10
48688.169748
 20
9457.988367
 30
0.0
 40
45.0
 50
299.87
 51
60.13
  0
CIRCLE
  8
7
  6
CONTINUOUS
 62
     4
  5
3D0
 10
48723.169748
 20
9457.988367
 30
0.0
 40
4.0
  0
CIRCLE
  8
7
  6
CONTINUOUS
 62
     4
  5
3D1
 10
48723.169748
 20
9457.988367
 30
0.0
 40
4.4
  0
ARC
  8
7
  6
CONTINUOUS
 62
     4
  5
3D2
 10
48670.669748
 20
9427.688367
 30
0.0
 40
7.7
 50
330.0
 51
150.0
  0
ARC
  8
7
  6
CONTINUOUS
 62
     4
  5
3D3
 10
48670.669748
 20
9427.688367
 30
0.0
 40
6.8
 50
330.0
 51
150.0
  0
LINE
  8
7
  6
CONTINUOUS
 62
     4
  5
3D4
 10
48673.769748
 20
9417.788367
 30
0.0
 11
48677.269748
 21
9423.888367
 31
0.0
  0
LINE
  8
7
  6
CONTINUOUS
 62
     4
  5
3D5
 10
48676.469748
 20
9424.288367
 30
0.0
 11
48673.369748
 21
9418.888367
 31
0.0
  0
ARC
  8
7
  6
CONTINUOUS
 62
     4
  5
3D6
 10
48688.169748
 20
9457.988367
 30
0.0
 40
41.8
 50
230.63
 51
249.02
  0
LINE
  8
7
  6
CONTINUOUS
 62
     4
  5
3D7
 10
48664.769748
 20
9431.088367
 30
0.0
 11
48661.669748
 21
9425.688367
 31
0.0
  0
LINE
  8
7
  6
CONTINUOUS
 62
     4
  5
3D8
 10
48660.469748
 20
9425.488367
 30
0.0
 11
48663.969748
 21
9431.488367
 31
0.0
  0
ARC
  8
7
  6
DIVIDE
 62
     4
  5
3D9
 10
48688.169748
 20
9457.988367
 30
0.0
 40
42.7
 50
199.71
 51
261.38
  0
ARC
  8
7
  6
CONTINUOUS
 62
     4
  5
3DA
 10
48688.169748
 20
9457.988367
 30
0.0
 40
45.0
 50
198.68
 51
261.82
  0
CIRCLE
  8
7
  6
CONTINUOUS
 62
     4
  5
3DB
 10
48670.669748
 20
9427.688367
 30
0.0
 40
4.0
  0
CIRCLE
  8
7
  6
CONTINUOUS
 62
     4
  5
3DC
 10
48670.669748
 20
9427.688367
 30
0.0
 40
4.4
  0
ARC
  8
7
  6
CONTINUOUS
 62
     4
  5
3DD
 10
48670.669748
 20
9488.288367
 30
0.0
 40
7.7
 50
210.0
 51
30.0
  0
ARC
  8
7
  6
CONTINUOUS
 62
     4
  5
3DE
 10
48670.669748
 20
9488.288367
 30
0.0
 40
6.8
 50
210.0
 51
30.0
  0
LINE
  8
7
  6
CONTINUOUS
 62
     4
  5
3DF
 10
48660.569748
 20
9490.588367
 30
0.0
 11
48664.069748
 21
9484.488367
 31
0.0
  0
LINE
  8
7
  6
CONTINUOUS
 62
     4
  5
3E0
 10
48664.869748
 20
9484.988367
 30
0.0
 11
48661.669748
 21
9490.388367
 31
0.0
  0
ARC
  8
7
  6
CONTINUOUS
 62
     4
  5
3E1
 10
48688.169748
 20
9457.988367
 30
0.0
 40
41.8
 50
110.63
 51
129.02
  0
LINE
  8
7
  6
CONTINUOUS
 62
     4
  5
3E2
 10
48676.569748
 20
9491.688367
 30
0.0
 11
48673.469748
 21
9497.088367
 31
0.0
  0
LINE
  8
7
  6
CONTINUOUS
 62
     4
  5
3E3
 10
48673.869748
 20
9498.188367
 30
0.0
 11
48677.369748
 21
9492.188367
 31
0.0
  0
ARC
  8
7
  6
DIVIDE
 62
     4
  5
3E4
 10
48688.169748
 20
9457.988367
 30
0.0
 40
42.7
 50
98.62
 51
160.29
  0
ARC
  8
7
  6
CONTINUOUS
 62
     4
  5
3E5
 10
48688.169748
 20
9457.988367
 30
0.0
 40
45.0
 50
98.18
 51
161.32
  0
CIRCLE
  8
7
  6
CONTINUOUS
 62
     4
  5
3E6
 10
48670.669748
 20
9488.288367
 30
0.0
 40
4.0
  0
CIRCLE
  8
7
  6
CONTINUOUS
 62
     4
  5
3E7
 10
48670.669748
 20
9488.288367
 30
0.0
 40
4.4
  0
ARC
  8
7
  6
CONTINUOUS
 62
     4
  5
3E8
 10
48271.669748
 20
9488.288367
 30
0.0
 40
7.7
 50
150.0
 51
330.0
  0
ARC
  8
7
  6
CONTINUOUS
 62
     4
  5
3E9
 10
48271.669748
 20
9488.288367
 30
0.0
 40
6.8
 50
150.0
 51
330.0
  0
LINE
  8
7
  6
CONTINUOUS
 62
     4
  5
3EA
 10
48268.569748
 20
9498.188367
 30
0.0
 11
48265.069748
 21
9492.088367
 31
0.0
  0
LINE
  8
7
  6
CONTINUOUS
 62
     4
  5
3EB
 10
48265.869748
 20
9491.688367
 30
0.0
 11
48268.969748
 21
9497.088367
 31
0.0
  0
ARC
  8
7
  6
CONTINUOUS
 62
     4
  5
3EC
 10
48254.169748
 20
9457.988367
 30
0.0
 40
41.8
 50
50.63
 51
69.02
  0
LINE
  8
7
  6
CONTINUOUS
 62
     4
  5
3ED
 10
48277.569748
 20
9484.888367
 30
0.0
 11
48280.669748
 21
9490.288367
 31
0.0
  0
LINE
  8
7
  6
CONTINUOUS
 62
     4
  5
3EE
 10
48281.869748
 20
9490.488367
 30
0.0
 11
48278.369748
 21
9484.488367
 31
0.0
  0
ARC
  8
7
  6
DIVIDE
 62
     4
  5
3EF
 10
48254.169748
 20
9457.988367
 30
0.0
 40
42.7
 50
19.71
 51
81.38
  0
ARC
  8
7
  6
CONTINUOUS
 62
     4
  5
3F0
 10
48254.169748
 20
9457.988367
 30
0.0
 40
45.0
 50
18.68
 51
81.82
  0
CIRCLE
  8
7
  6
CONTINUOUS
 62
     4
  5
3F1
 10
48271.669748
 20
9488.288367
 30
0.0
 40
4.4
  0
CIRCLE
  8
7
  6
CONTINUOUS
 62
     4
  5
3F2
 10
48271.669748
 20
9488.288367
 30
0.0
 40
4.0
  0
ARC
  8
7
  6
CONTINUOUS
 62
     4
  5
3F3
 10
48271.669748
 20
9427.688367
 30
0.0
 40
7.7
 50
30.0
 51
210.0
  0
ARC
  8
7
  6
CONTINUOUS
 62
     4
  5
3F4
 10
48271.669748
 20
9427.688367
 30
0.0
 40
6.8
 50
30.0
 51
210.0
  0
LINE
  8
7
  6
CONTINUOUS
 62
     4
  5
3F5
 10
48281.769748
 20
9425.388367
 30
0.0
 11
48278.269748
 21
9431.488367
 31
0.0
  0
LINE
  8
7
  6
CONTINUOUS
 62
     4
  5
3F6
 10
48277.469748
 20
9430.988367
 30
0.0
 11
48280.669748
 21
9425.588367
 31
0.0
  0
ARC
  8
7
  6
CONTINUOUS
 62
     4
  5
3F7
 10
48254.169748
 20
9457.988367
 30
0.0
 40
41.8
 50
290.63
 51
309.02
  0
LINE
  8
7
  6
CONTINUOUS
 62
     4
  5
3F8
 10
48265.769748
 20
9424.288367
 30
0.0
 11
48268.869748
 21
9418.888367
 31
0.0
  0
LINE
  8
7
  6
CONTINUOUS
 62
     4
  5
3F9
 10
48268.469748
 20
9417.788367
 30
0.0
 11
48264.969748
 21
9423.788367
 31
0.0
  0
ARC
  8
7
  6
CONTINUOUS
 62
     4
  5
3FA
 10
48254.169748
 20
9457.988367
 30
0.0
 40
45.0
 50
278.18
 51
341.32
  0
ARC
  8
7
  6
DIVIDE
 62
     4
  5
3FB
 10
48254.169748
 20
9457.988367
 30
0.0
 40
42.7
 50
278.62
 51
340.29
  0
CIRCLE
  8
7
  6
CONTINUOUS
 62
     4
  5
3FC
 10
48271.669748
 20
9427.688367
 30
0.0
 40
4.0
  0
CIRCLE
  8
7
  6
CONTINUOUS
 62
     4
  5
3FD
 10
48271.669748
 20
9427.688367
 30
0.0
 40
4.4
  0
ARC
  8
7
  6
CONTINUOUS
 62
     4
  5
3FE
 10
48219.169748
 20
9457.988367
 30
0.0
 40
7.7
 50
270.0
 51
90.0
  0
ARC
  8
7
  6
CONTINUOUS
 62
     4
  5
3FF
 10
48219.169748
 20
9457.988367
 30
0.0
 40
6.8
 50
270.0
 51
90.0
  0
LINE
  8
7
  6
CONTINUOUS
 62
     4
  5
400
 10
48212.169748
 20
9450.388367
 30
0.0
 11
48219.169748
 21
9450.388367
 31
0.0
  0
LINE
  8
7
  6
CONTINUOUS
 62
     4
  5
401
 10
48219.169748
 20
9451.288367
 30
0.0
 11
48212.869748
 21
9451.288367
 31
0.0
  0
ARC
  8
7
  6
CONTINUOUS
 62
     4
  5
402
 10
48254.169748
 20
9457.988367
 30
0.0
 40
41.8
 50
170.63
 51
189.02
  0
LINE
  8
7
  6
CONTINUOUS
 62
     4
  5
403
 10
48219.169748
 20
9464.788367
 30
0.0
 11
48212.969748
 21
9464.788367
 31
0.0
  0
LINE
  8
7
  6
CONTINUOUS
 62
     4
  5
404
 10
48212.169748
 20
9465.688367
 30
0.0
 11
48219.169748
 21
9465.688367
 31
0.0
  0
ARC
  8
7
  6
CONTINUOUS
 62
     4
  5
405
 10
48254.169748
 20
9457.988367
 30
0.0
 40
45.0
 50
119.87
 51
240.13
  0
ARC
  8
7
  6
DIVIDE
 62
     4
  5
406
 10
48254.169748
 20
9457.988367
 30
0.0
 40
42.7
 50
121.61
 51
238.39
  0
CIRCLE
  8
7
  6
CONTINUOUS
 62
     4
  5
407
 10
48219.169748
 20
9457.988367
 30
0.0
 40
4.0
  0
CIRCLE
  8
7
  6
CONTINUOUS
 62
     4
  5
408
 10
48219.169748
 20
9457.988367
 30
0.0
 40
4.4
  0
ARC
  8
7
  6
CONTINUOUS
 62
     4
  5
409
 10
48271.669748
 20
9788.288367
 30
0.0
 40
7.7
 50
150.0
 51
330.0
  0
ARC
  8
7
  6
CONTINUOUS
 62
     4
  5
40A
 10
48271.669748
 20
9788.288367
 30
0.0
 40
6.8
 50
150.0
 51
330.0
  0
LINE
  8
7
  6
CONTINUOUS
 62
     4
  5
40B
 10
48268.569748
 20
9798.188367
 30
0.0
 11
48265.069748
 21
9792.088367
 31
0.0
  0
LINE
  8
7
  6
CONTINUOUS
 62
     4
  5
40C
 10
48265.869748
 20
9791.688367
 30
0.0
 11
48268.969748
 21
9797.088367
 31
0.0
  0
ARC
  8
7
  6
CONTINUOUS
 62
     4
  5
40D
 10
48254.169748
 20
9757.988367
 30
0.0
 40
41.8
 50
50.63
 51
69.02
  0
LINE
  8
7
  6
CONTINUOUS
 62
     4
  5
40E
 10
48277.569748
 20
9784.888367
 30
0.0
 11
48280.669748
 21
9790.288367
 31
0.0
  0
LINE
  8
7
  6
CONTINUOUS
 62
     4
  5
40F
 10
48281.869748
 20
9790.488367
 30
0.0
 11
48278.369748
 21
9784.488367
 31
0.0
  0
ARC
  8
7
  6
CONTINUOUS
 62
     4
  5
410
 10
48254.169748
 20
9757.988367
 30
0.0
 40
45.0
 50
18.68
 51
81.82
  0
ARC
  8
7
  6
DIVIDE
 62
     4
  5
411
 10
48254.169748
 20
9757.988367
 30
0.0
 40
42.7
 50
19.71
 51
81.38
  0
CIRCLE
  8
7
  6
CONTINUOUS
 62
     4
  5
412
 10
48271.669748
 20
9788.288367
 30
0.0
 40
4.4
  0
CIRCLE
  8
7
  6
CONTINUOUS
 62
     4
  5
413
 10
48271.669748
 20
9788.288367
 30
0.0
 40
4.0
  0
ARC
  8
7
  6
CONTINUOUS
 62
     4
  5
414
 10
48271.669748
 20
9727.688367
 30
0.0
 40
7.7
 50
30.0
 51
210.0
  0
ARC
  8
7
  6
CONTINUOUS
 62
     4
  5
415
 10
48271.669748
 20
9727.688367
 30
0.0
 40
6.8
 50
30.0
 51
210.0
  0
LINE
  8
7
  6
CONTINUOUS
 62
     4
  5
416
 10
48281.769748
 20
9725.388367
 30
0.0
 11
48278.269748
 21
9731.488367
 31
0.0
  0
LINE
  8
7
  6
CONTINUOUS
 62
     4
  5
417
 10
48277.469748
 20
9730.988367
 30
0.0
 11
48280.669748
 21
9725.588367
 31
0.0
  0
ARC
  8
7
  6
CONTINUOUS
 62
     4
  5
418
 10
48254.169748
 20
9757.988367
 30
0.0
 40
41.8
 50
290.63
 51
309.02
  0
LINE
  8
7
  6
CONTINUOUS
 62
     4
  5
419
 10
48265.769748
 20
9724.288367
 30
0.0
 11
48268.869748
 21
9718.888367
 31
0.0
  0
LINE
  8
7
  6
CONTINUOUS
 62
     4
  5
41A
 10
48268.469748
 20
9717.788367
 30
0.0
 11
48264.969748
 21
9723.788367
 31
0.0
  0
ARC
  8
7
  6
DIVIDE
 62
     4
  5
41B
 10
48254.169748
 20
9757.988367
 30
0.0
 40
42.7
 50
278.62
 51
340.29
  0
ARC
  8
7
  6
CONTINUOUS
 62
     4
  5
41C
 10
48254.169748
 20
9757.988367
 30
0.0
 40
45.0
 50
278.18
 51
341.32
  0
CIRCLE
  8
7
  6
CONTINUOUS
 62
     4
  5
41D
 10
48271.669748
 20
9727.688367
 30
0.0
 40
4.0
  0
CIRCLE
  8
7
  6
CONTINUOUS
 62
     4
  5
41E
 10
48271.669748
 20
9727.688367
 30
0.0
 40
4.4
  0
ARC
  8
7
  6
CONTINUOUS
 62
     4
  5
41F
 10
48219.169748
 20
9757.988367
 30
0.0
 40
7.7
 50
270.0
 51
90.0
  0
ARC
  8
7
  6
CONTINUOUS
 62
     4
  5
420
 10
48219.169748
 20
9757.988367
 30
0.0
 40
6.8
 50
270.0
 51
90.0
  0
LINE
  8
7
  6
CONTINUOUS
 62
     4
  5
421
 10
48212.169748
 20
9750.388367
 30
0.0
 11
48219.169748
 21
9750.388367
 31
0.0
  0
LINE
  8
7
  6
CONTINUOUS
 62
     4
  5
422
 10
48219.169748
 20
9751.288367
 30
0.0
 11
48212.869748
 21
9751.288367
 31
0.0
  0
ARC
  8
7
  6
CONTINUOUS
 62
     4
  5
423
 10
48254.169748
 20
9757.988367
 30
0.0
 40
41.8
 50
170.63
 51
189.02
  0
LINE
  8
7
  6
CONTINUOUS
 62
     4
  5
424
 10
48219.169748
 20
9764.788367
 30
0.0
 11
48212.969748
 21
9764.788367
 31
0.0
  0
LINE
  8
7
  6
CONTINUOUS
 62
     4
  5
425
 10
48212.169748
 20
9765.688367
 30
0.0
 11
48219.169748
 21
9765.688367
 31
0.0
  0
ARC
  8
7
  6
DIVIDE
 62
     4
  5
426
 10
48254.169748
 20
9757.988367
 30
0.0
 40
42.7
 50
121.61
 51
238.39
  0
ARC
  8
7
  6
CONTINUOUS
 62
     4
  5
427
 10
48254.169748
 20
9757.988367
 30
0.0
 40
45.0
 50
119.87
 51
240.13
  0
CIRCLE
  8
7
  6
CONTINUOUS
 62
     4
  5
428
 10
48219.169748
 20
9757.988367
 30
0.0
 40
4.0
  0
CIRCLE
  8
7
  6
CONTINUOUS
 62
     4
  5
429
 10
48219.169748
 20
9757.988367
 30
0.0
 40
4.4
  0
ARC
  8
7
  6
CONTINUOUS
 62
     4
  5
42A
 10
48665.569748
 20
9877.388367
 30
0.0
 40
45.0
 50
0.0
 51
90.0
  0
ARC
  8
7
  6
CONTINUOUS
 62
     4
  5
42B
 10
48663.769748
 20
9875.588367
 30
0.0
 40
18.0
 50
0.0
 51
90.0
  0
ARC
  8
7
  6
CONTINUOUS
 62
     4
  5
42C
 10
48513.769748
 20
9875.588367
 30
0.0
 40
18.0
 50
0.0
 51
90.0
  0
ARC
  8
7
  6
CONTINUOUS
 62
     4
  5
42D
 10
48578.569748
 20
9875.588367
 30
0.0
 40
18.0
 50
90.0
 51
180.0
  0
ARC
  8
7
  6
CONTINUOUS
 62
     4
  5
42E
 10
48428.569748
 20
9875.588367
 30
0.0
 40
18.0
 50
90.0
 51
180.0
  0
ARC
  8
7
  6
CONTINUOUS
 62
     4
  5
42F
 10
48363.769748
 20
9875.588367
 30
0.0
 40
18.0
 50
0.0
 51
90.0
  0
ARC
  8
7
  6
CONTINUOUS
 62
     4
  5
430
 10
48276.769748
 20
9877.388367
 30
0.0
 40
45.0
 50
90.0
 51
180.0
  0
ARC
  8
7
  6
CONTINUOUS
 62
     4
  5
431
 10
48278.569748
 20
9875.588367
 30
0.0
 40
18.0
 50
90.0
 51
180.0
  0
LINE
  8
7
  6
CONTINUOUS
 62
     4
  5
432
 10
48381.769748
 20
9425.588367
 30
0.0
 11
48381.769748
 21
9340.388367
 31
0.0
  0
LINE
  8
7
  6
CONTINUOUS
 62
     4
  5
433
 10
48410.569748
 20
9425.588367
 30
0.0
 11
48410.569748
 21
9340.388367
 31
0.0
  0
LINE
  8
7
  6
CONTINUOUS
 62
     4
  5
434
 10
48531.769748
 20
9425.588367
 30
0.0
 11
48531.769748
 21
9340.388367
 31
0.0
  0
LINE
  8
7
  6
CONTINUOUS
 62
     4
  5
435
 10
48560.569748
 20
9425.588367
 30
0.0
 11
48560.569748
 21
9340.388367
 31
0.0
  0
LINE
  8
7
  6
CONTINUOUS
 62
     4
  5
436
 10
48410.569748
 20
9725.588367
 30
0.0
 11
48410.569748
 21
9640.388367
 31
0.0
  0
LINE
  8
7
  6
CONTINUOUS
 62
     4
  5
437
 10
48513.769748
 20
9772.388367
 30
0.0
 11
48428.569748
 21
9772.388367
 31
0.0
  0
LINE
  8
7
  6
CONTINUOUS
 62
     4
  5
438
 10
48513.769748
 20
9743.588367
 30
0.0
 11
48428.569748
 21
9743.588367
 31
0.0
  0
LINE
  8
7
  6
CONTINUOUS
 62
     4
  5
439
 10
48513.769748
 20
9472.388367
 30
0.0
 11
48428.569748
 21
9472.388367
 31
0.0
  0
LINE
  8
7
  6
CONTINUOUS
 62
     4
  5
43A
 10
48513.769748
 20
9443.588367
 30
0.0
 11
48428.569748
 21
9443.588367
 31
0.0
  0
LINE
  8
7
  6
CONTINUOUS
 62
     4
  5
43B
 10
48410.569748
 20
9575.588367
 30
0.0
 11
48410.569748
 21
9490.388367
 31
0.0
  0
LINE
  8
7
  6
CONTINUOUS
 62
     4
  5
43C
 10
48531.769748
 20
9575.588367
 30
0.0
 11
48531.769748
 21
9490.388367
 31
0.0
  0
LINE
  8
7
  6
CONTINUOUS
 62
     4
  5
43D
 10
48531.769748
 20
9725.588367
 30
0.0
 11
48531.769748
 21
9640.388367
 31
0.0
  0
ARC
  8
7
  6
CONTINUOUS
 62
     4
  5
43E
 10
48428.569748
 20
9790.388367
 30
0.0
 40
18.0
 50
180.0
 51
270.0
  0
ARC
  8
7
  6
CONTINUOUS
 62
     4
  5
43F
 10
48428.569748
 20
9725.588367
 30
0.0
 40
18.0
 50
90.0
 51
180.0
  0
ARC
  8
7
  6
CONTINUOUS
 62
     4
  5
440
 10
48513.769748
 20
9790.388367
 30
0.0
 40
18.0
 50
270.0
 51
0.0
  0
ARC
  8
7
  6
CONTINUOUS
 62
     4
  5
441
 10
48513.769748
 20
9725.588367
 30
0.0
 40
18.0
 50
0.0
 51
90.0
  0
ARC
  8
7
  6
CONTINUOUS
 62
     4
  5
442
 10
48428.569748
 20
9490.388367
 30
0.0
 40
18.0
 50
180.0
 51
270.0
  0
ARC
  8
7
  6
CONTINUOUS
 62
     4
  5
443
 10
48513.769748
 20
9425.588367
 30
0.0
 40
18.0
 50
0.0
 51
90.0
  0
ARC
  8
7
  6
CONTINUOUS
 62
     4
  5
444
 10
48513.769748
 20
9490.388367
 30
0.0
 40
18.0
 50
270.0
 51
0.0
  0
ARC
  8
7
  6
CONTINUOUS
 62
     4
  5
445
 10
48428.569748
 20
9425.588367
 30
0.0
 40
18.0
 50
90.0
 51
180.0
  0
LINE
  8
7
  6
CONTINUOUS
 62
     4
  5
446
 10
48560.569748
 20
9575.588367
 30
0.0
 11
48560.569748
 21
9490.388367
 31
0.0
  0
LINE
  8
7
  6
CONTINUOUS
 62
     4
  5
447
 10
48560.569748
 20
9725.588367
 30
0.0
 11
48560.569748
 21
9640.388367
 31
0.0
  0
ARC
  8
7
  6
CONTINUOUS
 62
     4
  5
448
 10
48578.569748
 20
9425.588367
 30
0.0
 40
18.0
 50
90.0
 51
180.0
  0
ARC
  8
7
  6
CONTINUOUS
 62
     4
  5
449
 10
48578.569748
 20
9490.388367
 30
0.0
 40
18.0
 50
180.0
 51
270.0
  0
LINE
  8
7
  6
CONTINUOUS
 62
     4
  5
44A
 10
48381.769748
 20
9575.588367
 30
0.0
 11
48381.769748
 21
9490.388367
 31
0.0
  0
LINE
  8
7
  6
CONTINUOUS
 62
     4
  5
44B
 10
48381.769748
 20
9725.588367
 30
0.0
 11
48381.769748
 21
9640.388367
 31
0.0
  0
ARC
  8
7
  6
CONTINUOUS
 62
     4
  5
44C
 10
48363.769748
 20
9790.388367
 30
0.0
 40
18.0
 50
270.0
 51
0.0
  0
ARC
  8
7
  6
CONTINUOUS
 62
     4
  5
44D
 10
48363.769748
 20
9725.588367
 30
0.0
 40
18.0
 50
0.0
 51
90.0
  0
ARC
  8
7
  6
CONTINUOUS
 62
     4
  5
44E
 10
48363.769748
 20
9425.588367
 30
0.0
 40
18.0
 50
0.0
 51
90.0
  0
ARC
  8
7
  6
CONTINUOUS
 62
     4
  5
44F
 10
48363.769748
 20
9490.388367
 30
0.0
 40
18.0
 50
270.0
 51
0.0
  0
ARC
  8
7
  6
CONTINUOUS
 62
     4
  5
450
 10
48578.569748
 20
9790.388367
 30
0.0
 40
18.0
 50
180.0
 51
270.0
  0
ARC
  8
7
  6
CONTINUOUS
 62
     4
  5
451
 10
48578.569748
 20
9725.588367
 30
0.0
 40
18.0
 50
90.0
 51
180.0
  0
LINE
  8
7
  6
CONTINUOUS
 62
     4
  5
452
 10
48665.569748
 20
9293.588367
 30
0.0
 11
48276.769748
 21
9293.588367
 31
0.0
  0
ARC
  8
7
  6
CONTINUOUS
 62
     4
  5
453
 10
48276.769748
 20
9338.588367
 30
0.0
 40
45.0
 50
180.0
 51
270.0
  0
ARC
  8
7
  6
CONTINUOUS
 62
     4
  5
454
 10
48665.569748
 20
9338.588367
 30
0.0
 40
45.0
 50
270.0
 51
0.0
  0
LINE
  8
7
  6
CONTINUOUS
 62
     4
  5
455
 10
48578.569748
 20
9322.388367
 30
0.0
 11
48663.769748
 21
9322.388367
 31
0.0
  0
ARC
  8
7
  6
CONTINUOUS
 62
     4
  5
456
 10
48663.769748
 20
9340.388367
 30
0.0
 40
18.0
 50
270.0
 51
0.0
  0
LINE
  8
7
  6
CONTINUOUS
 62
     4
  5
457
 10
48363.769748
 20
9322.388367
 30
0.0
 11
48278.569748
 21
9322.388367
 31
0.0
  0
ARC
  8
7
  6
CONTINUOUS
 62
     4
  5
458
 10
48278.569748
 20
9340.388367
 30
0.0
 40
18.0
 50
180.0
 51
270.0
  0
LINE
  8
7
  6
CONTINUOUS
 62
     4
  5
459
 10
48513.769748
 20
9322.388367
 30
0.0
 11
48428.569748
 21
9322.388367
 31
0.0
  0
ARC
  8
7
  6
CONTINUOUS
 62
     4
  5
45A
 10
48428.569748
 20
9340.388367
 30
0.0
 40
18.0
 50
180.0
 51
270.0
  0
ARC
  8
7
  6
CONTINUOUS
 62
     4
  5
45B
 10
48513.769748
 20
9340.388367
 30
0.0
 40
18.0
 50
270.0
 51
0.0
  0
ARC
  8
7
  6
CONTINUOUS
 62
     4
  5
45C
 10
48578.569748
 20
9340.388367
 30
0.0
 40
18.0
 50
180.0
 51
270.0
  0
ARC
  8
7
  6
CONTINUOUS
 62
     4
  5
45D
 10
48363.769748
 20
9340.388367
 30
0.0
 40
18.0
 50
270.0
 51
0.0
  0
LINE
  8
7
  6
CONTINUOUS
 62
     4
  5
45E
 10
48363.769748
 20
9622.388367
 30
0.0
 11
48278.569748
 21
9622.388367
 31
0.0
  0
LINE
  8
7
  6
CONTINUOUS
 62
     4
  5
45F
 10
48363.769748
 20
9593.588367
 30
0.0
 11
48278.169748
 21
9593.588367
 31
0.0
  0
ARC
  8
7
  6
CONTINUOUS
 62
     4
  5
460
 10
48663.769748
 20
9640.388367
 30
0.0
 40
18.0
 50
270.0
 51
0.0
  0
ARC
  8
7
  6
CONTINUOUS
 62
     4
  5
461
 10
48663.769748
 20
9575.588367
 30
0.0
 40
18.0
 50
0.0
 51
90.0
  0
LINE
  8
7
  6
CONTINUOUS
 62
     4
  5
462
 10
48578.569748
 20
9622.388367
 30
0.0
 11
48663.769748
 21
9622.388367
 31
0.0
  0
LINE
  8
7
  6
CONTINUOUS
 62
     4
  5
463
 10
48578.569748
 20
9593.588367
 30
0.0
 11
48664.169748
 21
9593.588367
 31
0.0
  0
ARC
  8
7
  6
CONTINUOUS
 62
     4
  5
464
 10
48278.569748
 20
9640.388367
 30
0.0
 40
18.0
 50
180.0
 51
270.0
  0
ARC
  8
7
  6
CONTINUOUS
 62
     4
  5
465
 10
48278.569748
 20
9575.588367
 30
0.0
 40
18.0
 50
90.0
 51
180.0
  0
LINE
  8
7
  6
CONTINUOUS
 62
     4
  5
466
 10
48513.769748
 20
9622.388367
 30
0.0
 11
48428.569748
 21
9622.388367
 31
0.0
  0
LINE
  8
7
  6
CONTINUOUS
 62
     4
  5
467
 10
48513.769748
 20
9593.588367
 30
0.0
 11
48428.269748
 21
9593.588367
 31
0.0
  0
ARC
  8
7
  6
CONTINUOUS
 62
     4
  5
468
 10
48428.569748
 20
9640.388367
 30
0.0
 40
18.0
 50
180.0
 51
270.0
  0
ARC
  8
7
  6
CONTINUOUS
 62
     4
  5
469
 10
48428.569748
 20
9575.588367
 30
0.0
 40
18.0
 50
90.0
 51
180.0
  0
ARC
  8
7
  6
CONTINUOUS
 62
     4
  5
46A
 10
48513.769748
 20
9640.388367
 30
0.0
 40
18.0
 50
270.0
 51
0.0
  0
ARC
  8
7
  6
CONTINUOUS
 62
     4
  5
46B
 10
48513.769748
 20
9575.588367
 30
0.0
 40
18.0
 50
0.0
 51
90.0
  0
ARC
  8
7
  6
CONTINUOUS
 62
     4
  5
46C
 10
48363.769748
 20
9640.388367
 30
0.0
 40
18.0
 50
270.0
 51
0.0
  0
ARC
  8
7
  6
CONTINUOUS
 62
     4
  5
46D
 10
48363.769748
 20
9575.588367
 30
0.0
 40
18.0
 50
0.0
 51
90.0
  0
ARC
  8
7
  6
CONTINUOUS
 62
     4
  5
46E
 10
48578.569748
 20
9640.388367
 30
0.0
 40
18.0
 50
180.0
 51
270.0
  0
ARC
  8
7
  6
CONTINUOUS
 62
     4
  5
46F
 10
48578.569748
 20
9575.588367
 30
0.0
 40
18.0
 50
90.0
 51
180.0
  0
LINE
  8
7
  6
CONTINUOUS
 62
     4
  5
470
 10
48710.569748
 20
9877.388367
 30
0.0
 11
48710.569748
 21
9338.588367
 31
0.0
  0
LINE
  8
7
  6
CONTINUOUS
 62
     4
  5
471
 10
48681.769748
 20
9875.588367
 30
0.0
 11
48681.769748
 21
9790.388367
 31
0.0
  0
LINE
  8
7
  6
CONTINUOUS
 62
     4
  5
472
 10
48578.569748
 20
9772.388367
 30
0.0
 11
48663.769748
 21
9772.388367
 31
0.0
  0
ARC
  8
7
  6
CONTINUOUS
 62
     4
  5
473
 10
48663.769748
 20
9790.388367
 30
0.0
 40
18.0
 50
270.0
 51
0.0
  0
ARC
  8
7
  6
CONTINUOUS
 62
     4
  5
474
 10
48663.769748
 20
9725.588367
 30
0.0
 40
18.0
 50
0.0
 51
90.0
  0
LINE
  8
7
  6
CONTINUOUS
 62
     4
  5
475
 10
48578.569748
 20
9743.588367
 30
0.0
 11
48663.769748
 21
9743.588367
 31
0.0
  0
LINE
  8
7
  6
CONTINUOUS
 62
     4
  5
476
 10
48681.769748
 20
9725.588367
 30
0.0
 11
48681.769748
 21
9640.388367
 31
0.0
  0
LINE
  8
7
  6
CONTINUOUS
 62
     4
  5
477
 10
48663.769748
 20
9893.588367
 30
0.0
 11
48578.569748
 21
9893.588367
 31
0.0
  0
LINE
  8
7
  6
CONTINUOUS
 62
     4
  5
478
 10
48560.569748
 20
9875.588367
 30
0.0
 11
48560.569748
 21
9790.388367
 31
0.0
  0
LINE
  8
7
  6
CONTINUOUS
 62
     4
  5
479
 10
48665.569748
 20
9922.388367
 30
0.0
 11
48276.769748
 21
9922.388367
 31
0.0
  0
LINE
  8
7
  6
CONTINUOUS
 62
     4
  5
47A
 10
48681.769748
 20
9575.588367
 30
0.0
 11
48681.769748
 21
9490.388367
 31
0.0
  0
ARC
  8
7
  6
CONTINUOUS
 62
     4
  5
47B
 10
48663.769748
 20
9490.388367
 30
0.0
 40
18.0
 50
270.0
 51
0.0
  0
LINE
  8
7
  6
CONTINUOUS
 62
     4
  5
47C
 10
48578.569748
 20
9472.388367
 30
0.0
 11
48663.769748
 21
9472.388367
 31
0.0
  0
ARC
  8
7
  6
CONTINUOUS
 62
     4
  5
47D
 10
48663.769748
 20
9425.588367
 30
0.0
 40
18.0
 50
0.0
 51
90.0
  0
LINE
  8
7
  6
CONTINUOUS
 62
     4
  5
47E
 10
48578.569748
 20
9443.588367
 30
0.0
 11
48663.769748
 21
9443.588367
 31
0.0
  0
LINE
  8
7
  6
CONTINUOUS
 62
     4
  5
47F
 10
48681.769748
 20
9425.588367
 30
0.0
 11
48681.769748
 21
9340.388367
 31
0.0
  0
LINE
  8
7
  6
CONTINUOUS
 62
     4
  5
480
 10
48531.769748
 20
9875.588367
 30
0.0
 11
48531.769748
 21
9790.388367
 31
0.0
  0
LINE
  8
7
  6
CONTINUOUS
 62
     4
  5
481
 10
48428.569748
 20
9893.588367
 30
0.0
 11
48513.769748
 21
9893.588367
 31
0.0
  0
LINE
  8
7
  6
CONTINUOUS
 62
     4
  5
482
 10
48410.569748
 20
9875.588367
 30
0.0
 11
48410.569748
 21
9790.388367
 31
0.0
  0
LINE
  8
7
  6
CONTINUOUS
 62
     4
  5
483
 10
48381.769748
 20
9875.588367
 30
0.0
 11
48381.769748
 21
9790.388367
 31
0.0
  0
LINE
  8
7
  6
CONTINUOUS
 62
     4
  5
484
 10
48278.569748
 20
9893.588367
 30
0.0
 11
48363.769748
 21
9893.588367
 31
0.0
  0
LINE
  8
7
  6
CONTINUOUS
 62
     4
  5
485
 10
48260.569748
 20
9875.588367
 30
0.0
 11
48260.569748
 21
9790.388367
 31
0.0
  0
LINE
  8
7
  6
CONTINUOUS
 62
     4
  5
486
 10
48363.769748
 20
9772.388367
 30
0.0
 11
48278.569748
 21
9772.388367
 31
0.0
  0
ARC
  8
7
  6
CONTINUOUS
 62
     4
  5
487
 10
48278.569748
 20
9790.388367
 30
0.0
 40
18.0
 50
180.0
 51
270.0
  0
ARC
  8
7
  6
CONTINUOUS
 62
     4
  5
488
 10
48278.569748
 20
9725.588367
 30
0.0
 40
18.0
 50
90.0
 51
180.0
  0
LINE
  8
7
  6
CONTINUOUS
 62
     4
  5
489
 10
48363.769748
 20
9743.588367
 30
0.0
 11
48278.569748
 21
9743.588367
 31
0.0
  0
LINE
  8
7
  6
CONTINUOUS
 62
     4
  5
48A
 10
48260.569748
 20
9725.588367
 30
0.0
 11
48260.569748
 21
9640.388367
 31
0.0
  0
LINE
  8
7
  6
CONTINUOUS
 62
     4
  5
48B
 10
48231.769748
 20
9877.388367
 30
0.0
 11
48231.769748
 21
9338.588367
 31
0.0
  0
LINE
  8
7
  6
CONTINUOUS
 62
     4
  5
48C
 10
48260.569748
 20
9575.588367
 30
0.0
 11
48260.569748
 21
9490.388367
 31
0.0
  0
ARC
  8
7
  6
CONTINUOUS
 62
     4
  5
48D
 10
48278.569748
 20
9490.388367
 30
0.0
 40
18.0
 50
180.0
 51
270.0
  0
LINE
  8
7
  6
CONTINUOUS
 62
     4
  5
48E
 10
48363.769748
 20
9472.388367
 30
0.0
 11
48278.569748
 21
9472.388367
 31
0.0
  0
LINE
  8
7
  6
CONTINUOUS
 62
     4
  5
48F
 10
48363.769748
 20
9443.588367
 30
0.0
 11
48278.569748
 21
9443.588367
 31
0.0
  0
ARC
  8
7
  6
CONTINUOUS
 62
     4
  5
490
 10
48278.569748
 20
9425.588367
 30
0.0
 40
18.0
 50
90.0
 51
180.0
  0
LINE
  8
7
  6
CONTINUOUS
 62
     4
  5
491
 10
48260.569748
 20
9425.588367
 30
0.0
 11
48260.569748
 21
9340.388367
 31
0.0
  0
LINE
  8
2
  6
CENTER
 62
     2
  5
492
 10
48696.169748
 20
9457.988367
 30
0.0
 11
48246.169748
 21
9457.988367
 31
0.0
  0
LINE
  8
2
  6
CENTER
 62
     2
  5
493
 10
48696.169748
 20
9757.988367
 30
0.0
 11
48246.169748
 21
9757.988367
 31
0.0
  0
LINE
  8
2
  6
CENTER
 62
     2
  5
494
 10
48696.169748
 20
9607.988367
 30
0.0
 11
48246.169748
 21
9607.988367
 31
0.0
  0
LINE
  8
2
  6
CENTER
 62
     2
  5
495
 10
48696.169748
 20
9907.988367
 30
0.0
 11
48246.169748
 21
9907.988367
 31
0.0
  0
LINE
  8
2
  6
CENTER
 62
     2
  5
496
 10
48246.169748
 20
9907.988367
 30
0.0
 11
48246.169748
 21
9307.988367
 31
0.0
  0
LINE
  8
2
  6
CENTER
 62
     2
  5
497
 10
48396.169748
 20
9907.988367
 30
0.0
 11
48396.169748
 21
9307.988367
 31
0.0
  0
LINE
  8
2
  6
CENTER
 62
     2
  5
498
 10
48546.169748
 20
9907.988367
 30
0.0
 11
48546.169748
 21
9307.988367
 31
0.0
  0
LINE
  8
2
  6
CENTER
 62
     2
  5
499
 10
48696.169748
 20
9907.988367
 30
0.0
 11
48696.169748
 21
9307.988367
 31
0.0
  0
LINE
  8
2
  6
CENTER
 62
     2
  5
49A
 10
48246.169748
 20
9307.988367
 30
0.0
 11
48696.169748
 21
9307.988367
 31
0.0
  0
LINE
  8
5
  6
CONTINUOUS
 62
     3
  5
49B
 10
48696.169748
 20
10137.988367
 30
0.0
 11
48696.169748
 21
9937.988367
 31
0.0
  0
LINE
  8
5
  6
CONTINUOUS
 62
     3
  5
49C
 10
48046.169748
 20
10137.988367
 30
0.0
 11
48046.169748
 21
9937.988367
 31
0.0
  0
LINE
  8
5
  6
CONTINUOUS
 62
     3
  5
49D
 10
48246.169748
 20
10037.988367
 30
0.0
 11
48246.169748
 21
9937.988367
 31
0.0
  0
CIRCLE
  8
5
  6
CONTINUOUS
 62
     3
  5
49E
 10
48696.169748
 20
10137.988367
 30
0.0
 40
7.5
  0
CIRCLE
  8
5
  6
CONTINUOUS
 62
     3
  5
49F
 10
48046.169748
 20
10137.988367
 30
0.0
 40
7.5
  0
CIRCLE
  8
5
  6
CONTINUOUS
 62
     3
  5
4A0
 10
48046.169748
 20
10037.988367
 30
0.0
 40
7.5
  0
CIRCLE
  8
5
  6
CONTINUOUS
 62
     3
  5
4A1
 10
48246.169748
 20
10037.988367
 30
0.0
 40
7.5
  0
CIRCLE
  8
5
  6
CONTINUOUS
 62
     3
  5
4A2
 10
48696.169748
 20
10037.988367
 30
0.0
 40
7.5
  0
TEXT
  8
5
  6
CONTINUOUS
 62
     3
  5
4A3
 10
48311.169748
 20
10137.988367
 30
0.0
 40
60.0
  1
650
 41
0.666667
  7

 72
     5
 11
48431.169748
 21
10137.988367
 31
0.0
  0
LINE
  8
5
  6
CONTINUOUS
 62
     3
  5
4A4
 10
48696.169748
 20
10137.988367
 30
0.0
 11
48046.169748
 21
10137.988367
 31
0.0
  0
TEXT
  8
5
  6
CONTINUOUS
 62
     3
  5
4A5
 10
48086.169748
 20
10037.988367
 30
0.0
 40
60.0
  1
200
 41
0.666667
  7

 72
     5
 11
48206.169748
 21
10037.988367
 31
0.0
  0
LINE
  8
5
  6
CONTINUOUS
 62
     3
  5
4A6
 10
48046.169748
 20
10037.988367
 30
0.0
 11
48246.169748
 21
10037.988367
 31
0.0
  0
TEXT
  8
5
  6
CONTINUOUS
 62
     3
  5
4A7
 10
48411.169748
 20
10037.988367
 30
0.0
 40
60.0
  1
450
 41
0.666667
  7

 72
     5
 11
48531.169748
 21
10037.988367
 31
0.0
  0
LINE
  8
5
  6
CONTINUOUS
 62
     3
  5
4A8
 10
48246.169748
 20
10037.988367
 30
0.0
 11
48696.169748
 21
10037.988367
 31
0.0
  0
LINE
  8
5
  6
CONTINUOUS
 62
     5
  5
4A9
 10
49863.668748
 20
8657.988367
 30
0.0
 11
48046.169748
 21
8657.988367
 31
0.0
  0
LINE
  8
2
  6
CONTINUOUS
 62
     2
  5
4AA
 10
49163.667748
 20
8707.987367
 30
0.0
 11
48046.169748
 21
8707.987367
 31
0.0
  0
LINE
  8
5
  6
CONTINUOUS
 62
     3
  5
4AB
 10
48926.169748
 20
9907.988367
 30
0.0
 11
48726.169748
 21
9907.988367
 31
0.0
  0
LINE
  8
5
  6
CONTINUOUS
 62
     3
  5
4AC
 10
48926.169748
 20
8657.988367
 30
0.0
 11
48726.169748
 21
8657.988367
 31
0.0
  0
LINE
  8
5
  6
CONTINUOUS
 62
     3
  5
4AD
 10
48826.169748
 20
9307.988367
 30
0.0
 11
48726.169748
 21
9307.988367
 31
0.0
  0
CIRCLE
  8
5
  6
CONTINUOUS
 62
     3
  5
4AE
 10
48926.169748
 20
9907.988367
 30
0.0
 40
7.5
  0
CIRCLE
  8
5
  6
CONTINUOUS
 62
     3
  5
4AF
 10
48926.169748
 20
8657.988367
 30
0.0
 40
7.5
  0
CIRCLE
  8
5
  6
CONTINUOUS
 62
     3
  5
4B0
 10
48826.169748
 20
8657.988367
 30
0.0
 40
7.5
  0
CIRCLE
  8
5
  6
CONTINUOUS
 62
     3
  5
4B1
 10
48826.169748
 20
9307.988367
 30
0.0
 40
7.5
  0
CIRCLE
  8
5
  6
CONTINUOUS
 62
     3
  5
4B2
 10
48826.169748
 20
9907.988367
 30
0.0
 40
7.5
  0
TEXT
  8
5
  6
CONTINUOUS
 62
     3
  5
4B3
 10
48926.169748
 20
9192.988367
 30
0.0
 40
60.0
  1
1,250
 50
90.0
 41
0.6
  7

 72
     5
 11
48926.169748
 21
9372.988367
 31
0.0
  0
LINE
  8
5
  6
CONTINUOUS
 62
     3
  5
4B4
 10
48926.169748
 20
9907.988367
 30
0.0
 11
48926.169748
 21
8657.988367
 31
0.0
  0
TEXT
  8
5
  6
CONTINUOUS
 62
     3
  5
4B5
 10
48826.169748
 20
8922.988367
 30
0.0
 40
60.0
  1
650
 50
90.0
 41
0.666667
  7

 72
     5
 11
48826.169748
 21
9042.988367
 31
0.0
  0
LINE
  8
5
  6
CONTINUOUS
 62
     3
  5
4B6
 10
48826.169748
 20
8657.988367
 30
0.0
 11
48826.169748
 21
9307.988367
 31
0.0
  0
TEXT
  8
5
  6
CONTINUOUS
 62
     3
  5
4B7
 10
48826.169748
 20
9547.988367
 30
0.0
 40
60.0
  1
600
 50
90.0
 41
0.666667
  7

 72
     5
 11
48826.169748
 21
9667.988367
 31
0.0
  0
LINE
  8
5
  6
CONTINUOUS
 62
     3
  5
4B8
 10
48826.169748
 20
9307.988367
 30
0.0
 11
48826.169748
 21
9907.988367
 31
0.0
  0
LINE
  8
5
  6
CONTINUOUS
 62
     3
  5
4B9
 10
47816.169748
 20
8657.988367
 30
0.0
 11
48016.169748
 21
8657.988367
 31
0.0
  0
LINE
  8
5
  6
CONTINUOUS
 62
     3
  5
4BA
 10
47816.169748
 20
10957.988367
 30
0.0
 11
48016.169748
 21
10957.988367
 31
0.0
  0
CIRCLE
  8
5
  6
CONTINUOUS
 62
     3
  5
4BB
 10
47816.169748
 20
8657.988367
 30
0.0
 40
7.5
  0
CIRCLE
  8
5
  6
CONTINUOUS
 62
     3
  5
4BC
 10
47816.169748
 20
10957.988367
 30
0.0
 40
7.5
  0
TEXT
  8
5
  6
CONTINUOUS
 62
     3
  5
4BD
 10
47816.169748
 20
9717.988367
 30
0.0
 40
60.0
  1
2,300
 50
90.0
 41
0.6
  7

 72
     5
 11
47816.169748
 21
9897.988367
 31
0.0
  0
LINE
  8
5
  6
CONTINUOUS
 62
     3
  5
4BE
 10
47816.169748
 20
8657.988367
 30
0.0
 11
47816.169748
 21
10957.988367
 31
0.0
  0
LINE
  8
5
  6
CONTINUOUS
 62
     5
  5
4BF
 10
49178.369748
 20
13107.842642
 30
0.0
 11
49178.369748
 21
12987.343142
 31
0.0
  0
LINE
  8
2
  6
CONTINUOUS
 62
     6
  5
4C0
 10
49336.168448
 20
9667.987867
 30
0.0
 11
49336.168448
 21
9647.988167
 31
0.0
  0
LINE
  8
2
  6
CONTINUOUS
 62
     6
  5
4C1
 10
49241.856748
 20
9667.987867
 30
0.0
 11
49336.168448
 21
9667.987867
 31
0.0
  0
LINE
  8
2
  6
CONTINUOUS
 62
     6
  5
4C2
 10
49241.856748
 20
9667.987867
 30
0.0
 11
49241.856748
 21
9647.988167
 31
0.0
  0
LINE
  8
2
  6
CONTINUOUS
 62
     6
  5
4C3
 10
49241.856748
 20
9647.988167
 30
0.0
 11
49336.168448
 21
9647.988167
 31
0.0
  0
ARC
  8
2
  6
CONTINUOUS
 62
     6
  5
4C4
 10
49253.667548
 20
9657.986267
 30
0.0
 40
24.999999
 50
23.579315
 51
336.42068
  0
CIRCLE
  8
1
  6
CONTINUOUS
 62
     6
  5
4C5
 10
49431.169748
 20
11880.343242
 30
0.0
 40
30.0
  0
LINE
  8
1
  6
DOT
 62
     6
  5
4C6
 10
49731.169748
 20
11975.343242
 30
0.0
 11
49726.348624
 21
11936.239282
 31
0.0
  0
LINE
  8
1
  6
DOT
 62
     6
  5
4C7
 10
49726.348624
 20
11936.239282
 30
0.0
 11
49712.040209
 21
11898.392155
 31
0.0
  0
LINE
  8
1
  6
DOT
 62
     6
  5
4C8
 10
49712.040209
 20
11898.392155
 30
0.0
 11
49688.704386
 21
11863.0183
 31
0.0
  0
LINE
  8
1
  6
DOT
 62
     6
  5
4C9
 10
49688.704386
 20
11863.0183
 30
0.0
 11
49657.091188
 21
11831.254661
 31
0.0
  0
LINE
  8
1
  6
DOT
 62
     6
  5
4CA
 10
49657.091188
 20
11831.254661
 30
0.0
 11
49618.216688
 21
11804.122147
 31
0.0
  0
LINE
  8
1
  6
DOT
 62
     6
  5
4CB
 10
49618.216688
 20
11804.122147
 30
0.0
 11
49573.330346
 21
11782.49282
 31
0.0
  0
LINE
  8
1
  6
DOT
 62
     6
  5
4CC
 10
49313.262238
 20
11773.96666
 30
0.0
 11
49265.900653
 21
11792.571699
 31
0.0
  0
LINE
  8
1
  6
DOT
 62
     6
  5
4CD
 10
49265.900653
 20
11792.571699
 30
0.0
 11
49223.850953
 21
11817.051167
 31
0.0
  0
LINE
  8
1
  6
DOT
 62
     6
  5
4CE
 10
49223.850953
 20
11817.051167
 30
0.0
 11
49188.464649
 21
11846.618272
 31
0.0
  0
LINE
  8
1
  6
DOT
 62
     6
  5
4CF
 10
49188.464649
 20
11846.618272
 30
0.0
 11
49160.879087
 21
11880.322703
 31
0.0
  0
LINE
  8
1
  6
DOT
 62
     6
  5
4D0
 10
49160.879087
 20
12070.363781
 30
0.0
 11
49188.464649
 21
12104.068212
 31
0.0
  0
LINE
  8
1
  6
DOT
 62
     6
  5
4D1
 10
49188.464649
 20
12104.068212
 30
0.0
 11
49223.850953
 21
12133.635317
 31
0.0
  0
LINE
  8
1
  6
DOT
 62
     6
  5
4D2
 10
49223.850953
 20
12133.635317
 30
0.0
 11
49265.900653
 21
12158.114784
 31
0.0
  0
LINE
  8
1
  6
DOT
 62
     6
  5
4D3
 10
49265.900653
 20
12158.114784
 30
0.0
 11
49313.262238
 21
12176.719824
 31
0.0
  0
LINE
  8
1
  6
DOT
 62
     6
  5
4D4
 10
49313.262238
 20
12176.719824
 30
0.0
 11
49364.413468
 21
12188.852455
 31
0.0
  0
LINE
  8
1
  6
DOT
 62
     6
  5
4D5
 10
49364.413468
 20
12188.852455
 30
0.0
 11
49417.710299
 21
12194.122723
 31
0.0
  0
LINE
  8
1
  6
DOT
 62
     6
  5
4D6
 10
49417.710299
 20
12194.122723
 30
0.0
 11
49471.439727
 21
12192.36124
 31
0.0
  0
LINE
  8
1
  6
DOT
 62
     6
  5
4D7
 10
49471.439727
 20
12192.36124
 30
0.0
 11
49523.874846
 21
12183.624619
 31
0.0
  0
LINE
  8
1
  6
DOT
 62
     6
  5
4D8
 10
49523.874846
 20
12183.624619
 30
0.0
 11
49573.330346
 21
12168.193663
 31
0.0
  0
LINE
  8
1
  6
DOT
 62
     6
  5
4D9
 10
49573.330346
 20
12168.193663
 30
0.0
 11
49618.216688
 21
12146.564336
 31
0.0
  0
LINE
  8
1
  6
DOT
 62
     6
  5
4DA
 10
49618.216688
 20
12146.564336
 30
0.0
 11
49657.091188
 21
12119.431823
 31
0.0
  0
LINE
  8
1
  6
DOT
 62
     6
  5
4DB
 10
49657.091188
 20
12119.431823
 30
0.0
 11
49688.704386
 21
12087.668184
 31
0.0
  0
LINE
  8
1
  6
DOT
 62
     6
  5
4DC
 10
49688.704386
 20
12087.668184
 30
0.0
 11
49712.040209
 21
12052.294328
 31
0.0
  0
LINE
  8
1
  6
DOT
 62
     6
  5
4DD
 10
49712.040209
 20
12052.294328
 30
0.0
 11
49726.348624
 21
12014.447202
 31
0.0
  0
LINE
  8
1
  6
DOT
 62
     6
  5
4DE
 10
49726.348624
 20
12014.447202
 30
0.0
 11
49731.169748
 21
11975.343242
 31
0.0
  0
LINE
  8
5
  6
CONTINUOUS
 62
     6
  5
4DF
 10
49691.169748
 20
11975.343242
 30
0.0
 11
49686.991441
 21
11941.453143
 31
0.0
  0
LINE
  8
5
  6
CONTINUOUS
 62
     6
  5
4E0
 10
49686.991441
 20
11941.453143
 30
0.0
 11
49674.590814
 21
11908.6523
 31
0.0
  0
LINE
  8
5
  6
CONTINUOUS
 62
     6
  5
4E1
 10
49674.590814
 20
11908.6523
 30
0.0
 11
49654.366434
 21
11877.994959
 31
0.0
  0
LINE
  8
5
  6
CONTINUOUS
 62
     6
  5
4E2
 10
49654.366434
 20
11877.994959
 30
0.0
 11
49626.968329
 21
11850.466472
 31
0.0
  0
LINE
  8
5
  6
CONTINUOUS
 62
     6
  5
4E3
 10
49626.968329
 20
11850.466472
 30
0.0
 11
49593.277096
 21
11826.951626
 31
0.0
  0
LINE
  8
5
  6
CONTINUOUS
 62
     6
  5
4E4
 10
49593.277096
 20
11826.951626
 30
0.0
 11
49554.3756
 21
11808.20621
 31
0.0
  0
LINE
  8
5
  6
CONTINUOUS
 62
     6
  5
4E5
 10
49554.3756
 20
11808.20621
 30
0.0
 11
49511.514166
 21
11794.832715
 31
0.0
  0
LINE
  8
5
  6
CONTINUOUS
 62
     6
  5
4E6
 10
49511.514166
 20
11794.832715
 30
0.0
 11
49466.070397
 21
11787.260977
 31
0.0
  0
LINE
  8
5
  6
CONTINUOUS
 62
     6
  5
4E7
 10
49466.070397
 20
11787.260977
 30
0.0
 11
49419.504892
 21
11785.734358
 31
0.0
  0
LINE
  8
5
  6
CONTINUOUS
 62
     6
  5
4E8
 10
49419.504892
 20
11785.734358
 30
0.0
 11
49373.314305
 21
11790.301924
 31
0.0
  0
LINE
  8
5
  6
CONTINUOUS
 62
     6
  5
4E9
 10
49373.314305
 20
11790.301924
 30
0.0
 11
49328.98324
 21
11800.816871
 31
0.0
  0
LINE
  8
5
  6
CONTINUOUS
 62
     6
  5
4EA
 10
49328.98324
 20
11800.816871
 30
0.0
 11
49287.936533
 21
11816.941238
 31
0.0
  0
LINE
  8
5
  6
CONTINUOUS
 62
     6
  5
4EB
 10
49287.936533
 20
11816.941238
 30
0.0
 11
49251.493459
 21
11838.156777
 31
0.0
  0
LINE
  8
5
  6
CONTINUOUS
 62
     6
  5
4EC
 10
49251.493459
 20
11838.156777
 30
0.0
 11
49220.825329
 21
11863.781601
 31
0.0
  0
LINE
  8
5
  6
CONTINUOUS
 62
     6
  5
4ED
 10
49220.825329
 20
11863.781601
 30
0.0
 11
49196.917842
 21
11892.992108
 31
0.0
  0
LINE
  8
5
  6
CONTINUOUS
 62
     6
  5
4EE
 10
49196.917842
 20
11892.992108
 30
0.0
 11
49180.539404
 21
11924.849448
 31
0.0
  0
LINE
  8
5
  6
CONTINUOUS
 62
     6
  5
4EF
 10
49180.539404
 20
11924.849448
 30
0.0
 11
49172.216431
 21
11958.329701
 31
0.0
  0
LINE
  8
5
  6
CONTINUOUS
 62
     6
  5
4F0
 10
49172.216431
 20
11958.329701
 30
0.0
 11
49172.216431
 21
11992.356783
 31
0.0
  0
LINE
  8
5
  6
CONTINUOUS
 62
     6
  5
4F1
 10
49220.825329
 20
12086.904883
 30
0.0
 11
49251.493459
 21
12112.529707
 31
0.0
  0
LINE
  8
5
  6
CONTINUOUS
 62
     6
  5
4F2
 10
49251.493459
 20
12112.529707
 30
0.0
 11
49287.936533
 21
12133.745245
 31
0.0
  0
LINE
  8
5
  6
CONTINUOUS
 62
     6
  5
4F3
 10
49287.936533
 20
12133.745245
 30
0.0
 11
49328.98324
 21
12149.869613
 31
0.0
  0
LINE
  8
5
  6
CONTINUOUS
 62
     6
  5
4F4
 10
49328.98324
 20
12149.869613
 30
0.0
 11
49373.314305
 21
12160.38456
 31
0.0
  0
LINE
  8
5
  6
CONTINUOUS
 62
     6
  5
4F5
 10
49373.314305
 20
12160.38456
 30
0.0
 11
49419.504892
 21
12164.952126
 31
0.0
  0
LINE
  8
5
  6
CONTINUOUS
 62
     6
  5
4F6
 10
49419.504892
 20
12164.952126
 30
0.0
 11
49466.070397
 21
12163.425507
 31
0.0
  0
LINE
  8
5
  6
CONTINUOUS
 62
     6
  5
4F7
 10
49466.070397
 20
12163.425507
 30
0.0
 11
49511.514166
 21
12155.853769
 31
0.0
  0
LINE
  8
5
  6
CONTINUOUS
 62
     6
  5
4F8
 10
49511.514166
 20
12155.853769
 30
0.0
 11
49554.3756
 21
12142.480274
 31
0.0
  0
LINE
  8
5
  6
CONTINUOUS
 62
     6
  5
4F9
 10
49554.3756
 20
12142.480274
 30
0.0
 11
49593.277096
 21
12123.734857
 31
0.0
  0
LINE
  8
5
  6
CONTINUOUS
 62
     6
  5
4FA
 10
49593.277096
 20
12123.734857
 30
0.0
 11
49626.968329
 21
12100.220012
 31
0.0
  0
LINE
  8
5
  6
CONTINUOUS
 62
     6
  5
4FB
 10
49626.968329
 20
12100.220012
 30
0.0
 11
49654.366434
 21
12072.691525
 31
0.0
  0
LINE
  8
5
  6
CONTINUOUS
 62
     6
  5
4FC
 10
49654.366434
 20
12072.691525
 30
0.0
 11
49674.590814
 21
12042.034183
 31
0.0
  0
LINE
  8
5
  6
CONTINUOUS
 62
     6
  5
4FD
 10
49674.590814
 20
12042.034183
 30
0.0
 11
49686.991441
 21
12009.23334
 31
0.0
  0
LINE
  8
5
  6
CONTINUOUS
 62
     6
  5
4FE
 10
49686.991441
 20
12009.23334
 30
0.0
 11
49691.169748
 21
11975.343242
 31
0.0
  0
LINE
  8
5
  6
CONTINUOUS
 62
     6
  5
4FF
 10
49172.216431
 20
11992.356783
 30
0.0
 11
49180.539404
 21
12025.837035
 31
0.0
  0
LINE
  8
5
  6
CONTINUOUS
 62
     6
  5
500
 10
49180.539404
 20
12025.837035
 30
0.0
 11
49196.917842
 21
12057.694375
 31
0.0
  0
LINE
  8
5
  6
CONTINUOUS
 62
     6
  5
501
 10
49196.917842
 20
12057.694375
 30
0.0
 11
49220.825329
 21
12086.904883
 31
0.0
  0
TEXT
  8
5
  6
CONTINUOUS
 62
     3
  5
502
 10
48642.478591
 20
8464.192667
 30
0.0
 40
90.0
  1
テスリックス
 41
0.837
  7

 72
     5
 11
49182.478591
 21
8464.192667
 31
0.0
  0
TEXT
  8
5
  6
CONTINUOUS
 62
     3
  5
503
 10
48642.478591
 20
8374.192667
 30
0.0
 40
90.0
  1
取付側展開図
 41
0.837
  7

 72
     5
 11
49182.478591
 21
8374.192667
 31
0.0
  0
TEXT
  8
5
  6
CONTINUOUS
 62
     3
  5
504
 10
48330.371748
 20
12762.725987
 30
0.0
 40
60.0
  1
テスリックス
 41
0.837
  7

 72
     5
 11
48690.371748
 21
12762.725987
 31
0.0
  0
LINE
  8
5
  6
CONTINUOUS
 62
     3
  5
505
 10
48366.974288
 20
12912.725987
 30
0.0
 11
48280.371748
 21
12762.725987
 31
0.0
  0
LINE
  8
5
  6
CONTINUOUS
 62
     3
  5
506
 10
48280.371748
 20
12762.725987
 30
0.0
 11
48690.371748
 21
12762.725987
 31
0.0
  0
TEXT
  8
5
  6
CONTINUOUS
 62
     3
  5
507
 10
48316.169748
 20
9143.588367
 30
0.0
 40
60.0
  1
テスリックス
 41
0.837
  7

 72
     5
 11
48676.169748
 21
9143.588367
 31
0.0
  0
LINE
  8
5
  6
CONTINUOUS
 62
     3
  5
508
 10
48352.772288
 20
9293.588367
 30
0.0
 11
48266.169748
 21
9143.588367
 31
0.0
  0
LINE
  8
5
  6
CONTINUOUS
 62
     3
  5
509
 10
48266.169748
 20
9143.588367
 30
0.0
 11
48676.169748
 21
9143.588367
 31
0.0
  0
TEXT
  8
5
  6
CONTINUOUS
 62
     3
  5
50A
 10
48813.195577
 20
11295.638863
 30
0.0
 40
90.0
  1
平面図
 41
0.837
  7

 72
     5
 11
49083.195577
 21
11295.638863
 31
0.0
  0
ENDSEC
  0
EOF
