  0
SECTION
  2
HEADER
  9
$ACADVER
  1
AC1009
  9
$INSBASE
 10
0.0
 20
0.0
 30
0.0
  9
$EXTMIN
 10
47878.35814
 20
8004.471777
 30
0.0
  9
$EXTMAX
 10
49905.85914
 20
13622.206114
 30
0.0
  9
$LIMMIN
 10
46887.147718
 20
7820.98695
  9
$LIMMAX
 10
51087.147718
 20
13760.98695
  9
$ORTHOMODE
 70
     0
  9
$REGENMODE
 70
     1
  9
$FILLMODE
 70
     1
  9
$QTEXTMODE
 70
     0
  9
$MIRRTEXT
 70
     1
  9
$DRAGMODE
 70
     2
  9
$LTSCALE
 40
20.0
  9
$OSMODE
 70
     0
  9
$ATTMODE
 70
     1
  9
$TEXTSIZE
 40
0.2
  9
$TRACEWID
 40
0.05
  9
$TEXTSTYLE
  7
STANDARD
  9
$CLAYER
  8
0
  9
$CELTYPE
  6
CONTINUOUS
  9
$CECOLOR
 62
   256
  9
$DIMSCALE
 40
1.0
  9
$DIMASZ
 40
0.18
  9
$DIMEXO
 40
0.0625
  9
$DIMDLI
 40
0.38
  9
$DIMRND
 40
0.0
  9
$DIMDLE
 40
0.0
  9
$DIMEXE
 40
0.18
  9
$DIMTP
 40
0.0
  9
$DIMTM
 40
0.0
  9
$DIMTXT
 40
0.18
  9
$DIMCEN
 40
0.09
  9
$DIMTSZ
 40
0.0
  9
$DIMTOL
 70
     0
  9
$DIMLIM
 70
     0
  9
$DIMTIH
 70
     1
  9
$DIMTOH
 70
     1
  9
$DIMSE1
 70
     0
  9
$DIMSE2
 70
     0
  9
$DIMTAD
 70
     0
  9
$DIMZIN
 70
     0
  9
$DIMBLK
  1

  9
$DIMASO
 70
     1
  9
$DIMSHO
 70
     1
  9
$DIMPOST
  1

  9
$DIMAPOST
  1

  9
$DIMALT
 70
     0
  9
$DIMALTD
 70
     2
  9
$DIMALTF
 40
25.4
  9
$DIMLFAC
 40
1.0
  9
$DIMTOFL
 70
     0
  9
$DIMTVP
 40
0.0
  9
$DIMTIX
 70
     0
  9
$DIMSOXD
 70
     0
  9
$DIMSAH
 70
     0
  9
$DIMBLK1
  1

  9
$DIMBLK2
  1

  9
$DIMSTYLE
  2
STANDARD
  9
$DIMCLRD
 70
     0
  9
$DIMCLRE
 70
     0
  9
$DIMCLRT
 70
     0
  9
$DIMTFAC
 40
1.0
  9
$DIMGAP
 40
0.09
  9
$LUNITS
 70
     2
  9
$LUPREC
 70
     4
  9
$AXISMODE
 70
     0
  9
$AXISUNIT
 10
0.0
 20
0.0
  9
$SKETCHINC
 40
0.1
  9
$FILLETRAD
 40
0.0
  9
$AUNITS
 70
     0
  9
$AUPREC
 70
     0
  9
$MENU
  1
acad
  9
$ELEVATION
 40
0.0
  9
$PELEVATION
 40
0.0
  9
$THICKNESS
 40
0.0
  9
$LIMCHECK
 70
     0
  9
$BLIPMODE
 70
     1
  9
$CHAMFERA
 40
0.0
  9
$CHAMFERB
 40
0.0
  9
$SKPOLY
 70
     0
  9
$TDCREATE
 40
0.000000000
  9
$TDUPDATE
 40
0.000000000
  9
$TDINDWG
 40
0.0000000000
  9
$TDUSRTIMER
 40
0.0000000000
  9
$USRTIMER
 70
     1
  9
$ANGBASE
 50
0.0
  9
$ANGDIR
 70
     0
  9
$PDMODE
 70
     0
  9
$PDSIZE
 40
0.0
  9
$PLINEWID
 40
0.0
  9
$COORDS
 70
     0
  9
$SPLFRAME
 70
     0
  9
$SPLINETYPE
 70
     6
  9
$SPLINESEGS
 70
     8
  9
$ATTDIA
 70
     0
  9
$ATTREQ
 70
     1
  9
$HANDLING
 70
     1
  9
$HANDSEED
  5
5FC
  9
$SURFTAB1
 70
     6
  9
$SURFTAB2
 70
     6
  9
$SURFTYPE
 70
     6
  9
$SURFU
 70
     6
  9
$SURFV
 70
     6
  9
$UCSNAME
  2

  9
$UCSORG
 10
0.0
 20
0.0
 30
0.0
  9
$UCSXDIR
 10
1.0
 20
0.0
 30
0.0
  9
$UCSYDIR
 10
0.0
 20
1.0
 30
0.0
  9
$PUCSNAME
  2

  9
$PUCSORG
 10
0.0
 20
0.0
 30
0.0
  9
$PUCSXDIR
 10
1.0
 20
0.0
 30
0.0
  9
$PUCSYDIR
 10
0.0
 20
1.0
 30
0.0
  9
$USERI1
 70
     0
  9
$USERI2
 70
     0
  9
$USERI3
 70
     0
  9
$USERI4
 70
     0
  9
$USERI5
 70
     0
  9
$USERR1
 40
0.0
  9
$USERR2
 40
0.0
  9
$USERR3
 40
0.0
  9
$USERR4
 40
0.0
  9
$USERR5
 40
0.0
  9
$WORLDVIEW
 70
     1
  9
$SHADEDGE
 70
     3
  9
$SHADEDIF
 70
    70
  9
$TILEMODE
 70
     1
  9
$MAXACTVP
 70
    16
  9
$PINSBASE
 10
0.0
 20
0.0
 30
0.0
  9
$PLIMCHECK
 70
     0
  9
$PEXTMIN
 10
1.000000E+20
 20
1.000000E+20
 30
1.000000E+20
  9
$PEXTMAX
 10
-1.000000E+20
 20
-1.000000E+20
 30
-1.000000E+20
  9
$PLIMMIN
 10
0.0
 20
0.0
  9
$PLIMMAX
 10
12.0
 20
9.0
  9
$UNITMODE
 70
     0
  9
$VISRETAIN
 70
     0
  9
$PLINEGEN
 70
     1
  9
$PSLTSCALE
 70
     0
  9
$TREEDEPTH
 70
  3020
  9
$DWGCODEPAGE
  3
dos932
  0
ENDSEC
  0
SECTION
  2
TABLES
  0
TABLE
  2
VPORT
 70
     1
  0
VPORT
  2
*ACTIVE
 70
     0
 10
0.0
 20
0.0
 11
1.0
 21
1.0
 12
48987.147718
 22
10790.98695
 13
0.0
 23
0.0
 14
1000.0
 24
1000.0
 15
1000.0
 25
1000.0
 16
0.0
 26
0.0
 36
1.0
 17
0.0
 27
0.0
 37
0.0
 40
5940.0
 41
0.707071
 42
50.0
 43
0.0
 44
0.0
 50
0.0
 51
0.0
 71
     0
 72
   100
 73
     1
 74
     1
 75
     0
 76
     0
 77
     0
 78
     0
  0
ENDTAB
  0
TABLE
  2
LTYPE
 70
     9
  0
LTYPE
  2
CONTINUOUS
 70
    64
  3
Solid line
 72
    65
 73
     0
 40
0.0
  0
LTYPE
  2
HIDDEN
 70
    64
  3
__ __ __ __ __ __ __ __ __ __ __ __ __ __ __ __
 72
    65
 73
     5
 40
8.0
 49
1.0
 49
-2.0
 49
2.0
 49
-2.0
 49
1.0
  0
LTYPE
  2
DOT
 70
    64
  3
. . . . . . . . . . . . . . . . . . . . . . . .
 72
    65
 73
     3
 40
1.6
 49
0.4
 49
-0.8
 49
0.4
  0
LTYPE
  2
CENTER
 70
    64
  3
____ _ ____ _ ____ _ ____ _ ____ _ ____ _ ____ 
 72
    65
 73
     5
 40
12.0
 49
5.0
 49
-0.8
 49
0.4
 49
-0.8
 49
5.0
  0
LTYPE
  2
DIVIDE
 70
    64
  3
____ . . ____ . . ____ . . ____ . . ____ . . __
 72
    65
 73
     7
 40
13.2
 49
5.0
 49
-0.8
 49
0.4
 49
-0.8
 49
0.4
 49
-0.8
 49
5.0
  0
LTYPE
  2
DASHED1
 70
     0
  3
Solid Line
 72
    65
 73
     2
 40
2.5
 49
1.25
 49
-1.25
  0
LTYPE
  2
DASHED3
 70
     0
  3
Solid Line
 72
    65
 73
     2
 40
5.0
 49
3.75
 49
-1.25
  0
LTYPE
  2
CENTER1
 70
     0
  3
Solid Line
 72
    65
 73
     4
 40
10.0
 49
6.25
 49
-1.25
 49
1.25
 49
-1.25
  0
LTYPE
  2
PHANTOM1
 70
     0
  3
Solid Line
 72
    65
 73
     6
 40
9.5
 49
3.25
 49
-1.25
 49
1.25
 49
-1.25
 49
1.25
 49
-1.25
  0
ENDTAB
  0
TABLE
  2
LAYER
 70
    19
  0
LAYER
  2
0
 70
     0
 62
     7
  6
CONTINUOUS
  0
LAYER
  2
1
 70
     0
 62
     1
  6
CONTINUOUS
  0
LAYER
  2
2
 70
     0
 62
     1
  6
CONTINUOUS
  0
LAYER
  2
3
 70
     0
 62
     1
  6
CONTINUOUS
  0
LAYER
  2
4
 70
     0
 62
     1
  6
CONTINUOUS
  0
LAYER
  2
5
 70
     0
 62
     1
  6
CONTINUOUS
  0
LAYER
  2
6
 70
     0
 62
     1
  6
CONTINUOUS
  0
LAYER
  2
7
 70
     0
 62
     1
  6
CONTINUOUS
  0
LAYER
  2
8
 70
     0
 62
     1
  6
CONTINUOUS
  0
LAYER
  2
9
 70
     0
 62
     1
  6
CONTINUOUS
  0
LAYER
  2
10
 70
     0
 62
     1
  6
CONTINUOUS
  0
LAYER
  2
11
 70
     0
 62
     1
  6
CONTINUOUS
  0
LAYER
  2
12
 70
     0
 62
     1
  6
CONTINUOUS
  0
LAYER
  2
13
 70
     0
 62
     1
  6
CONTINUOUS
  0
LAYER
  2
14
 70
     0
 62
     1
  6
CONTINUOUS
  0
LAYER
  2
15
 70
     0
 62
     1
  6
CONTINUOUS
  0
LAYER
  2
16
 70
     0
 62
     1
  6
CONTINUOUS
  0
LAYER
  2
40
 70
     0
 62
     1
  6
CONTINUOUS
  0
LAYER
  2
50
 70
     0
 62
     1
  6
CONTINUOUS
  0
ENDTAB
  0
TABLE
  2
STYLE
 70
     3
  0
STYLE
  2
STANDARD
 70
     0
 40
0.0
 41
1.0
 50
0.0
 71
     0
 42
0.0
  3
txt
  4

  0
STYLE
  2

 70
     0
 40
1000.0
 41
1.0
 50
0.0
 71
     0
 42
1000.0
  3
txt
  4
extfont
  0
STYLE
  2

 70
     0
 40
1000.0
 41
1.0
 50
0.0
 71
     0
 42
1000.0
  3
txt
  4
extfont
  0
ENDTAB
  0
TABLE
  2
VIEW
 70
     0
  0
ENDTAB
  0
TABLE
  2
UCS
 70
     0
  0
ENDTAB
  0
TABLE
  2
APPID
 70
     1
  0
APPID
  2
ACAD
 70
     0
  0
ENDTAB
  0
TABLE
  2
DIMSTYLE
 70
     1
  0
DIMSTYLE
  2
STANDARD
 70
     0
  3

  4

  5

  6

  7

 40
1.0
 41
0.18
 42
0.0625
 43
0.38
 44
0.18
 45
0.0
 46
0.0
 47
0.0
 48
0.0
 71
     0
 72
     0
 73
     1
 74
     1
 75
     0
 76
     0
 77
     0
 78
     0
140
0.18
141
0.09
142
0.0
143
25.4
144
1.0
145
0.0
146
1.0
147
0.09
170
     0
171
     2
172
     0
173
     0
174
     0
175
     0
176
     0
177
     0
178
     0
  0
ENDTAB
  0
ENDSEC
  0
SECTION
  2
BLOCKS
  0
ENDSEC
  0
SECTION
  2
ENTITIES
  0
LINE
  8
2
  6
CONTINUOUS
 62
     2
  5
102
 10
49658.66088
 20
13105.205478
 30
0.0
 11
49633.660556
 21
13130.205802
 31
0.0
  0
LINE
  8
2
  6
CONTINUOUS
 62
     2
  5
103
 10
49640.731715
 20
13237.206877
 30
0.0
 11
49643.660686
 21
13240.135847
 31
0.0
  0
LINE
  8
2
  6
CONTINUOUS
 62
     2
  5
104
 10
49641.589591
 20
13252.207074
 30
0.0
 11
49634.660567
 21
13245.27805
 31
0.0
  0
LINE
  8
2
  6
CONTINUOUS
 62
     2
  5
105
 10
49643.660686
 20
13247.207008
 30
0.0
 11
49634.660567
 21
13238.20689
 31
0.0
  0
LINE
  8
2
  6
CONTINUOUS
 62
     2
  5
106
 10
49096.588943
 20
13237.206877
 30
0.0
 11
49093.659972
 21
13240.135847
 31
0.0
  0
LINE
  8
2
  6
CONTINUOUS
 62
     2
  5
107
 10
49095.731067
 20
13252.207074
 30
0.0
 11
49102.66009
 21
13245.27805
 31
0.0
  0
LINE
  8
2
  6
CONTINUOUS
 62
     2
  5
108
 10
49102.66009
 20
13252.349211
 30
0.0
 11
49102.802228
 21
13252.207074
 31
0.0
  0
LINE
  8
2
  6
CONTINUOUS
 62
     2
  5
109
 10
49093.659972
 20
13247.207008
 30
0.0
 11
49102.66009
 21
13238.20689
 31
0.0
  0
LINE
  8
2
  6
CONTINUOUS
 62
     2
  5
10A
 10
49103.660101
 20
13121.205685
 30
0.0
 11
49078.659778
 21
13147.456025
 31
0.0
  0
LINE
  8
2
  6
CONTINUOUS
 62
     2
  5
10B
 10
49078.659778
 20
13110.205546
 30
0.0
 11
49091.659191
 21
13097.206133
 31
0.0
  0
LINE
  8
2
  6
CONTINUOUS
 62
     2
  5
10C
 10
49063.358409
 20
11292.205414
 30
0.0
 11
49043.358543
 21
11271.205414
 31
0.0
  0
LINE
  8
2
  6
CONTINUOUS
 62
     2
  5
10D
 10
49088.358844
 20
11224.075836
 30
0.0
 11
49058.358686
 21
11248.843146
 31
0.0
  0
LINE
  8
2
  6
CONTINUOUS
 62
     2
  5
10E
 10
49058.35819
 20
11326.648779
 30
0.0
 11
49088.358348
 21
11301.881469
 31
0.0
  0
LINE
  8
2
  6
CONTINUOUS
 62
     2
  5
10F
 10
49058.358355
 20
11300.713568
 30
0.0
 11
49088.358513
 21
11275.946258
 31
0.0
  0
LINE
  8
2
  6
CONTINUOUS
 62
     2
  5
110
 10
49057.168023
 20
11271.205414
 30
0.0
 11
49063.358502
 21
11277.70546
 31
0.0
  0
LINE
  8
2
  6
CONTINUOUS
 62
     2
  5
111
 10
49088.358679
 20
11250.011047
 30
0.0
 11
49062.686357
 21
11271.205414
 31
0.0
  0
LINE
  8
2
  6
CONTINUOUS
 62
     2
  5
112
 10
49043.358451
 20
11285.705367
 30
0.0
 11
49049.54893
 21
11292.205414
 31
0.0
  0
LINE
  8
2
  6
CONTINUOUS
 62
     2
  5
113
 10
48393.35914
 20
11292.205414
 30
0.0
 11
48373.35914
 21
11271.205414
 31
0.0
  0
LINE
  8
2
  6
CONTINUOUS
 62
     2
  5
114
 10
48393.35914
 20
11277.705414
 30
0.0
 11
48387.168664
 21
11271.205414
 31
0.0
  0
LINE
  8
2
  6
CONTINUOUS
 62
     2
  5
115
 10
48373.35914
 20
11285.705414
 30
0.0
 11
48379.549616
 21
11292.205414
 31
0.0
  0
LINE
  8
2
  6
CONTINUOUS
 62
     2
  5
116
 10
48373.04216
 20
11332.205414
 30
0.0
 11
48378.35914
 21
11327.815861
 31
0.0
  0
LINE
  8
2
  6
CONTINUOUS
 62
     2
  5
117
 10
48348.35914
 20
11326.647966
 30
0.0
 11
48378.35914
 21
11301.880786
 31
0.0
  0
LINE
  8
2
  6
CONTINUOUS
 62
     2
  5
118
 10
48348.35914
 20
11274.777817
 30
0.0
 11
48378.35914
 21
11250.010637
 31
0.0
  0
LINE
  8
2
  6
CONTINUOUS
 62
     2
  5
119
 10
48348.35914
 20
11248.842743
 30
0.0
 11
48378.35914
 21
11224.075563
 31
0.0
  0
LINE
  8
2
  6
CONTINUOUS
 62
     2
  5
11A
 10
48348.35914
 20
11300.712891
 30
0.0
 11
48373.35914
 21
11280.073575
 31
0.0
  0
LINE
  8
2
  6
CONTINUOUS
 62
     2
  5
11B
 10
49083.042195
 20
11332.205414
 30
0.0
 11
49088.358182
 21
11327.81668
 31
0.0
  0
LINE
  8
2
  6
CONTINUOUS
 62
     2
  5
11C
 10
49058.358851
 20
11222.907935
 30
0.0
 11
49071.322606
 21
11212.205414
 31
0.0
  0
LINE
  8
2
  6
CONTINUOUS
 62
     2
  5
11D
 10
48348.35914
 20
11222.907668
 30
0.0
 11
48361.322571
 21
11212.205414
 31
0.0
  0
LINE
  8
2
  6
CONTINUOUS
 62
     3
  5
11E
 10
49633.660556
 20
13166.606245
 30
0.0
 11
49658.66088
 21
13141.605921
 31
0.0
  0
LINE
  8
2
  6
CONTINUOUS
 62
     3
  5
11F
 10
49095.394652
 20
13167.205957
 30
0.0
 11
49103.660101
 21
13158.527235
 31
0.0
  0
LINE
  8
4
  6
CENTER
 62
     2
  5
120
 10
49279.656058
 20
13202.206411
 30
0.0
 11
49068.659778
 21
13202.206411
 31
0.0
  0
LINE
  8
4
  6
CENTER
 62
     2
  5
121
 10
49693.661347
 20
13202.206411
 30
0.0
 11
49043.659203
 21
13202.206411
 31
0.0
  0
LINE
  8
1
  6
CONTINUOUS
 62
     1
  5
122
 10
48380.35914
 20
11332.205401
 30
0.0
 11
48380.35914
 21
12008.205401
 31
0.0
  0
ARC
  8
1
  6
CONTINUOUS
 62
     1
  5
123
 10
48380.35914
 20
11332.205401
 30
0.0
 40
675.999014
 50
360.0
 51
90.0
  0
LINE
  8
6
  6
CONTINUOUS
 62
     5
  5
124
 10
49633.660554
 20
13322.207984
 30
0.0
 11
49633.660554
 21
13252.207074
 31
0.0
  0
LINE
  8
6
  6
CONTINUOUS
 62
     5
  5
125
 10
49103.660103
 20
13322.207984
 30
0.0
 11
49103.660103
 21
13252.207074
 31
0.0
  0
LINE
  8
6
  6
CONTINUOUS
 62
     5
  5
126
 10
49093.465282
 20
13332.402806
 30
0.0
 11
49103.660103
 21
13322.207984
 31
0.0
  0
LINE
  8
5
  6
CONTINUOUS
 62
     5
  5
127
 10
49643.660686
 20
13237.206877
 30
0.0
 11
49643.660686
 21
13252.207074
 31
0.0
  0
LINE
  8
5
  6
CONTINUOUS
 62
     5
  5
128
 10
49633.660554
 20
13252.207074
 30
0.0
 11
49643.660686
 21
13252.207074
 31
0.0
  0
LINE
  8
5
  6
CONTINUOUS
 62
     5
  5
129
 10
49643.660686
 20
13182.206154
 30
0.0
 11
49643.660686
 21
13182.206154
 31
0.0
  0
LINE
  8
5
  6
CONTINUOUS
 62
     5
  5
12A
 10
49613.660292
 20
13217.206614
 30
0.0
 11
49553.659503
 21
13217.206614
 31
0.0
  0
LINE
  8
5
  6
CONTINUOUS
 62
     5
  5
12B
 10
49613.660292
 20
13187.20622
 30
0.0
 11
49553.659503
 21
13187.20622
 31
0.0
  0
LINE
  8
5
  6
CONTINUOUS
 62
     5
  5
12C
 10
49613.660292
 20
13187.20622
 30
0.0
 11
49613.660292
 21
13217.206614
 31
0.0
  0
LINE
  8
5
  6
CONTINUOUS
 62
     5
  5
12D
 10
49568.6597
 20
13217.206614
 30
0.0
 11
49568.6597
 21
13217.206614
 31
0.0
  0
LINE
  8
5
  6
CONTINUOUS
 62
     5
  5
12E
 10
49618.660357
 20
13182.206154
 30
0.0
 11
49600.660121
 21
13182.206154
 31
0.0
  0
LINE
  8
5
  6
CONTINUOUS
 62
     5
  5
12F
 10
49618.660357
 20
13237.206877
 30
0.0
 11
49618.660357
 21
13182.206154
 31
0.0
  0
LINE
  8
5
  6
CONTINUOUS
 62
     5
  5
130
 10
49618.660357
 20
13237.206877
 30
0.0
 11
49643.660686
 21
13237.206877
 31
0.0
  0
LINE
  8
5
  6
CONTINUOUS
 62
     5
  5
131
 10
49618.660357
 20
13167.205957
 30
0.0
 11
49643.660686
 21
13167.205957
 31
0.0
  0
LINE
  8
5
  6
CONTINUOUS
 62
     5
  5
132
 10
49643.660686
 20
13167.205957
 30
0.0
 11
49643.660686
 21
13237.206877
 31
0.0
  0
LINE
  8
5
  6
CONTINUOUS
 62
     5
  5
133
 10
49568.6597
 20
13205.206456
 30
0.0
 11
49553.54782
 21
13205.206456
 31
0.0
  0
LINE
  8
5
  6
CONTINUOUS
 62
     5
  5
134
 10
49553.659503
 20
13205.206456
 30
0.0
 11
49553.659503
 21
13217.206614
 31
0.0
  0
LINE
  8
5
  6
CONTINUOUS
 62
     5
  5
135
 10
49568.6597
 20
13199.206378
 30
0.0
 11
49553.659503
 21
13199.206378
 31
0.0
  0
LINE
  8
5
  6
CONTINUOUS
 62
     5
  5
136
 10
49553.659503
 20
13187.20622
 30
0.0
 11
49553.659503
 21
13199.206378
 31
0.0
  0
LINE
  8
5
  6
CONTINUOUS
 62
     5
  5
137
 10
49568.6597
 20
13199.206378
 30
0.0
 11
49568.6597
 21
13205.206456
 31
0.0
  0
LINE
  8
5
  6
CONTINUOUS
 62
     5
  5
138
 10
49600.660121
 20
13182.206154
 30
0.0
 11
49600.660121
 21
13174.206049
 31
0.0
  0
LINE
  8
5
  6
CONTINUOUS
 62
     5
  5
139
 10
49600.660121
 20
13174.206049
 30
0.0
 11
49618.660357
 21
13174.206049
 31
0.0
  0
LINE
  8
5
  6
CONTINUOUS
 62
     5
  5
13A
 10
49618.660357
 20
13174.206049
 30
0.0
 11
49618.660357
 21
13167.205957
 31
0.0
  0
LINE
  8
5
  6
CONTINUOUS
 62
     5
  5
13B
 10
49093.659972
 20
13237.206877
 30
0.0
 11
49093.659972
 21
13252.207074
 31
0.0
  0
LINE
  8
5
  6
CONTINUOUS
 62
     5
  5
13C
 10
49103.660103
 20
13252.207074
 30
0.0
 11
49093.659972
 21
13252.207074
 31
0.0
  0
LINE
  8
5
  6
CONTINUOUS
 62
     5
  5
13D
 10
49123.660366
 20
13217.206614
 30
0.0
 11
49183.661154
 21
13217.206614
 31
0.0
  0
LINE
  8
5
  6
CONTINUOUS
 62
     5
  5
13E
 10
49123.660366
 20
13187.20622
 30
0.0
 11
49183.661154
 21
13187.20622
 31
0.0
  0
LINE
  8
5
  6
CONTINUOUS
 62
     5
  5
13F
 10
49123.660366
 20
13187.20622
 30
0.0
 11
49123.660366
 21
13217.206614
 31
0.0
  0
LINE
  8
5
  6
CONTINUOUS
 62
     5
  5
140
 10
49168.660957
 20
13217.206614
 30
0.0
 11
49168.660957
 21
13217.206614
 31
0.0
  0
LINE
  8
5
  6
CONTINUOUS
 62
     5
  5
141
 10
49118.6603
 20
13182.206154
 30
0.0
 11
49136.660537
 21
13182.206154
 31
0.0
  0
LINE
  8
5
  6
CONTINUOUS
 62
     5
  5
142
 10
49118.6603
 20
13237.206877
 30
0.0
 11
49118.6603
 21
13182.206154
 31
0.0
  0
LINE
  8
5
  6
CONTINUOUS
 62
     5
  5
143
 10
49118.6603
 20
13237.206877
 30
0.0
 11
49093.659972
 21
13237.206877
 31
0.0
  0
LINE
  8
5
  6
CONTINUOUS
 62
     5
  5
144
 10
49093.659972
 20
13167.205957
 30
0.0
 11
49093.659972
 21
13237.206877
 31
0.0
  0
LINE
  8
5
  6
CONTINUOUS
 62
     5
  5
145
 10
49168.660957
 20
13199.206378
 30
0.0
 11
49183.661154
 21
13199.206378
 31
0.0
  0
LINE
  8
5
  6
CONTINUOUS
 62
     5
  5
146
 10
49183.661154
 20
13187.20622
 30
0.0
 11
49183.661154
 21
13199.206378
 31
0.0
  0
LINE
  8
5
  6
CONTINUOUS
 62
     5
  5
147
 10
49168.660957
 20
13205.206456
 30
0.0
 11
49183.772837
 21
13205.206456
 31
0.0
  0
LINE
  8
5
  6
CONTINUOUS
 62
     5
  5
148
 10
49183.661154
 20
13205.206456
 30
0.0
 11
49183.661154
 21
13217.206614
 31
0.0
  0
LINE
  8
5
  6
CONTINUOUS
 62
     5
  5
149
 10
49168.660957
 20
13199.206378
 30
0.0
 11
49168.660957
 21
13205.206456
 31
0.0
  0
LINE
  8
5
  6
CONTINUOUS
 62
     5
  5
14A
 10
49136.660537
 20
13182.206154
 30
0.0
 11
49136.660537
 21
13174.206049
 31
0.0
  0
LINE
  8
5
  6
CONTINUOUS
 62
     5
  5
14B
 10
49136.660537
 20
13174.206049
 30
0.0
 11
49118.6603
 21
13174.206049
 31
0.0
  0
LINE
  8
5
  6
CONTINUOUS
 62
     5
  5
14C
 10
49118.6603
 20
13174.206049
 30
0.0
 11
49118.6603
 21
13167.205957
 31
0.0
  0
LINE
  8
5
  6
CONTINUOUS
 62
     5
  5
14D
 10
48168.35814
 20
13332.206114
 30
0.0
 11
49093.661974
 21
13332.206114
 31
0.0
  0
LINE
  8
5
  6
CONTINUOUS
 62
     5
  5
14E
 10
49658.66088
 20
13137.205957
 30
0.0
 11
49678.66114
 21
13137.205957
 31
0.0
  0
LINE
  8
5
  6
CONTINUOUS
 62
     5
  5
14F
 10
49658.66088
 20
13137.205957
 30
0.0
 11
49658.66088
 21
13167.205957
 31
0.0
  0
LINE
  8
5
  6
CONTINUOUS
 62
     5
  5
150
 10
49658.66088
 20
13167.205957
 30
0.0
 11
49643.660686
 21
13167.205957
 31
0.0
  0
LINE
  8
6
  6
CONTINUOUS
 62
     5
  5
151
 10
49643.659745
 20
13332.207175
 30
0.0
 11
49633.660554
 21
13322.207984
 31
0.0
  0
LINE
  8
6
  6
CONTINUOUS
 62
     5
  5
152
 10
49678.66114
 20
13312.206833
 30
0.0
 11
49678.66114
 21
13132.206471
 31
0.0
  0
LINE
  8
4
  6
CENTER1
 62
     2
  5
153
 10
48081.79314
 20
11272.206414
 30
0.0
 11
49808.66114
 21
11272.206414
 31
0.0
  0
LINE
  8
5
  6
CONTINUOUS
 62
     5
  5
154
 10
49678.66114
 20
11329.705014
 30
0.0
 11
49678.66114
 21
13332.206114
 31
0.0
  0
LINE
  8
5
  6
CONTINUOUS
 62
     5
  5
155
 10
49643.658684
 20
13332.206114
 30
0.0
 11
49808.66114
 21
13332.206114
 31
0.0
  0
LINE
  8
5
  6
CONTINUOUS
 62
     5
  5
156
 10
49808.66114
 20
13332.206114
 30
0.0
 11
49808.66114
 21
11214.705414
 31
0.0
  0
LINE
  8
5
  6
CONTINUOUS
 62
     5
  5
157
 10
48168.35814
 20
13332.206114
 30
0.0
 11
48168.35814
 21
11214.705414
 31
0.0
  0
LINE
  8
6
  6
CONTINUOUS
 62
     6
  5
158
 10
49658.66088
 20
13167.205957
 30
0.0
 11
49633.660556
 21
13167.205957
 31
0.0
  0
LINE
  8
6
  6
CONTINUOUS
 62
     6
  5
159
 10
49618.660362
 20
13167.205957
 30
0.0
 11
49643.660686
 21
13167.205957
 31
0.0
  0
LINE
  8
6
  6
CONTINUOUS
 62
     6
  5
15A
 10
49643.660686
 20
13167.205957
 30
0.0
 11
49643.660686
 21
13176.206074
 31
0.0
  0
LINE
  8
6
  6
CONTINUOUS
 62
     6
  5
15B
 10
49658.66088
 20
13097.206133
 30
0.0
 11
49658.66088
 21
13167.205957
 31
0.0
  0
LINE
  8
6
  6
CONTINUOUS
 62
     6
  5
15C
 10
49658.66088
 20
13097.206133
 30
0.0
 11
49633.660556
 21
13097.206133
 31
0.0
  0
LINE
  8
6
  6
CONTINUOUS
 62
     6
  5
15D
 10
49633.660556
 20
13167.205957
 30
0.0
 11
49633.660556
 21
13097.206133
 31
0.0
  0
LINE
  8
6
  6
CONTINUOUS
 62
     6
  5
15E
 10
49093.659972
 20
13167.205957
 30
0.0
 11
49093.659972
 21
13176.206074
 31
0.0
  0
LINE
  8
6
  6
CONTINUOUS
 62
     6
  5
15F
 10
49118.660296
 20
13167.205957
 30
0.0
 11
49093.659972
 21
13167.205957
 31
0.0
  0
LINE
  8
6
  6
CONTINUOUS
 62
     6
  5
160
 10
49078.659778
 20
13097.206133
 30
0.0
 11
49103.660101
 21
13097.206133
 31
0.0
  0
LINE
  8
6
  6
CONTINUOUS
 62
     6
  5
161
 10
49103.660101
 20
13167.205957
 30
0.0
 11
49103.660101
 21
13097.206133
 31
0.0
  0
LINE
  8
6
  6
CONTINUOUS
 62
     6
  5
162
 10
49078.659778
 20
13167.205957
 30
0.0
 11
49103.660101
 21
13167.205957
 31
0.0
  0
LINE
  8
6
  6
CONTINUOUS
 62
     6
  5
163
 10
49078.659778
 20
13167.205957
 30
0.0
 11
49078.659778
 21
13097.206133
 31
0.0
  0
LINE
  8
1
  6
CONTINUOUS
 62
     6
  5
164
 10
49634.660567
 20
13252.207074
 30
0.0
 11
49634.660567
 21
13237.206877
 31
0.0
  0
LINE
  8
1
  6
CONTINUOUS
 62
     6
  5
165
 10
48982.02714
 20
12500.944614
 30
0.0
 11
48960.11614
 21
12503.443314
 31
0.0
  0
LINE
  8
1
  6
CONTINUOUS
 62
     6
  5
166
 10
48965.02314
 20
12502.456414
 30
0.0
 11
48962.75014
 21
12482.508414
 31
0.0
  0
LINE
  8
1
  6
CONTINUOUS
 62
     6
  5
167
 10
48965.02314
 20
12502.456414
 30
0.0
 11
48976.95314
 21
12501.168614
 31
0.0
  0
LINE
  8
1
  6
CONTINUOUS
 62
     6
  5
168
 10
48987.01514
 20
12912.864514
 30
0.0
 11
48965.20614
 21
12910.582814
 31
0.0
  0
LINE
  8
1
  6
CONTINUOUS
 62
     6
  5
169
 10
48985.55314
 20
12914.109514
 30
0.0
 11
48965.25514
 21
12911.979114
 31
0.0
  0
LINE
  8
1
  6
CONTINUOUS
 62
     6
  5
16A
 10
48965.20614
 20
12503.835214
 30
0.0
 11
48987.01514
 21
12501.546614
 31
0.0
  0
ARC
  8
1
  6
CONTINUOUS
 62
     6
  5
16B
 10
48758.49114
 20
12707.204714
 30
0.0
 40
129.99997
 50
124.77037
 51
235.22961
  0
ARC
  8
1
  6
CONTINUOUS
 62
     6
  5
16C
 10
48968.71114
 20
12481.830314
 30
0.0
 40
5.999998
 50
173.5
 51
353.5
  0
ARC
  8
1
  6
CONTINUOUS
 62
     6
  5
16D
 10
49076.51714
 20
13496.224314
 30
0.0
 40
999.99992
 50
259.4513
 51
263.59848
  0
ARC
  8
1
  6
CONTINUOUS
 62
     6
  5
16E
 10
48959.95414
 20
12502.008514
 30
0.0
 40
1.442241
 50
83.5
 51
128.08644
  0
ARC
  8
1
  6
CONTINUOUS
 62
     6
  5
16F
 10
49076.79214
 20
11916.821114
 30
0.0
 40
999.99992
 50
96.40657
 51
100.09642
  0
ARC
  8
1
  6
CONTINUOUS
 62
     6
  5
170
 10
48996.14914
 20
12369.699214
 30
0.0
 40
539.99997
 50
100.09642
 51
123.11138
  0
ARC
  8
1
  6
CONTINUOUS
 62
     6
  5
171
 10
48810.41514
 20
12654.489014
 30
0.0
 40
199.99999
 50
123.11138
 51
134.56918
  0
ARC
  8
1
  6
CONTINUOUS
 62
     6
  5
172
 10
48992.30714
 20
12370.412214
 30
0.0
 40
539.99997
 50
100.54867
 51
124.77037
  0
ARC
  8
1
  6
CONTINUOUS
 62
     6
  5
173
 10
49076.51714
 20
11918.185914
 30
0.0
 40
999.99992
 50
96.38804
 51
100.54867
  0
ARC
  8
1
  6
CONTINUOUS
 62
     6
  5
174
 10
49076.79214
 20
13497.585614
 30
0.0
 40
999.99992
 50
259.90356
 51
263.59341
  0
ARC
  8
1
  6
CONTINUOUS
 62
     6
  5
175
 10
48996.14914
 20
13044.708414
 30
0.0
 40
539.99997
 50
236.88859
 51
259.90356
  0
ARC
  8
1
  6
CONTINUOUS
 62
     6
  5
176
 10
48810.41514
 20
12759.922114
 30
0.0
 40
199.99999
 50
225.4308
 51
236.88859
  0
ARC
  8
1
  6
CONTINUOUS
 62
     6
  5
177
 10
48758.49114
 20
12707.204714
 30
0.0
 40
125.99998
 50
134.56918
 51
225.4308
  0
ARC
  8
1
  6
CONTINUOUS
 62
     6
  5
178
 10
48992.30714
 20
13043.998014
 30
0.0
 40
539.99997
 50
235.22961
 51
259.4513
  0
LINE
  8
1
  6
CONTINUOUS
 62
     6
  5
179
 10
49364.95314
 20
12911.611714
 30
0.0
 11
49365.10714
 21
12913.368414
 31
0.0
  0
LINE
  8
1
  6
CONTINUOUS
 62
     6
  5
17A
 10
49196.48914
 20
12493.644714
 30
0.0
 11
49196.53114
 21
12491.880114
 31
0.0
  0
LINE
  8
1
  6
CONTINUOUS
 62
     6
  5
17B
 10
49035.50514
 20
12496.416314
 30
0.0
 11
49035.39814
 21
12494.644714
 31
0.0
  0
LINE
  8
1
  6
CONTINUOUS
 62
     6
  5
17C
 10
49349.01714
 20
12501.420614
 30
0.0
 11
49349.17014
 21
12499.663814
 31
0.0
  0
LINE
  8
1
  6
CONTINUOUS
 62
     6
  5
17D
 10
49231.98414
 20
12919.828514
 30
0.0
 11
49232.03714
 21
12921.591414
 31
0.0
  0
LINE
  8
1
  6
CONTINUOUS
 62
     6
  5
17E
 10
49020.57714
 20
12943.674214
 30
0.0
 11
49018.81214
 21
12943.830814
 31
0.0
  0
LINE
  8
1
  6
CONTINUOUS
 62
     6
  5
17F
 10
49220.48714
 20
12884.973414
 30
0.0
 11
49214.31514
 21
12884.973414
 31
0.0
  0
LINE
  8
1
  6
CONTINUOUS
 62
     6
  5
180
 10
49221.48814
 20
12893.704714
 30
0.0
 11
49220.48714
 21
12884.973414
 31
0.0
  0
LINE
  8
1
  6
CONTINUOUS
 62
     6
  5
181
 10
49214.31514
 20
12529.444614
 30
0.0
 11
49220.48714
 21
12529.444614
 31
0.0
  0
LINE
  8
1
  6
CONTINUOUS
 62
     6
  5
182
 10
49220.48714
 20
12529.444614
 30
0.0
 11
49221.48814
 21
12520.702914
 31
0.0
  0
LINE
  8
1
  6
CONTINUOUS
 62
     6
  5
183
 10
49408.18614
 20
12598.104914
 30
0.0
 11
49408.18614
 21
12816.305314
 31
0.0
  0
LINE
  8
1
  6
CONTINUOUS
 62
     6
  5
184
 10
48976.96014
 20
12501.168614
 30
0.0
 11
48974.67614
 21
12481.150614
 31
0.0
  0
LINE
  8
1
  6
CONTINUOUS
 62
     6
  5
185
 10
49056.55814
 20
12485.630814
 30
0.0
 11
48975.18714
 21
12485.630814
 31
0.0
  0
LINE
  8
1
  6
CONTINUOUS
 62
     6
  5
186
 10
49056.55814
 20
12478.029914
 30
0.0
 11
48973.35714
 21
12478.029914
 31
0.0
  0
LINE
  8
1
  6
CONTINUOUS
 62
     6
  5
187
 10
49216.04214
 20
12922.074314
 30
0.0
 11
49215.99214
 21
12920.311514
 31
0.0
  0
LINE
  8
1
  6
CONTINUOUS
 62
     6
  5
188
 10
49349.17014
 20
12914.742914
 30
0.0
 11
49349.01714
 21
12912.987014
 31
0.0
  0
LINE
  8
1
  6
CONTINUOUS
 62
     6
  5
189
 10
49051.36814
 20
12493.686714
 30
0.0
 11
49051.47614
 21
12495.457414
 31
0.0
  0
LINE
  8
1
  6
CONTINUOUS
 62
     6
  5
18A
 10
49212.52214
 20
12492.237014
 30
0.0
 11
49212.48514
 21
12494.001614
 31
0.0
  0
LINE
  8
1
  6
CONTINUOUS
 62
     6
  5
18B
 10
49365.10714
 20
12501.042614
 30
0.0
 11
49364.95314
 21
12502.798514
 31
0.0
  0
LINE
  8
1
  6
CONTINUOUS
 62
     6
  5
18C
 10
49019.11314
 20
12927.737414
 30
0.0
 11
49018.87014
 21
12925.130314
 31
0.0
  0
LINE
  8
1
  6
CONTINUOUS
 62
     6
  5
18D
 10
49017.34914
 20
12927.901014
 30
0.0
 11
49019.11314
 21
12927.737414
 31
0.0
  0
LINE
  8
1
  6
CONTINUOUS
 62
     6
  5
18E
 10
49167.25214
 20
12962.571514
 30
0.0
 11
49032.62614
 21
12959.047514
 31
0.0
  0
LINE
  8
1
  6
CONTINUOUS
 62
     6
  5
18F
 10
49044.32914
 20
12945.346914
 30
0.0
 11
49156.29014
 21
12948.279514
 31
0.0
  0
LINE
  8
1
  6
CONTINUOUS
 62
     6
  5
190
 10
49156.81114
 20
12928.290314
 30
0.0
 11
49044.85014
 21
12925.357714
 31
0.0
  0
LINE
  8
1
  6
CONTINUOUS
 62
     6
  5
191
 10
49020.99214
 20
12948.150014
 30
0.0
 11
49020.57714
 21
12943.674214
 31
0.0
  0
LINE
  8
1
  6
CONTINUOUS
 62
     6
  5
192
 10
49082.27214
 20
12835.083614
 30
0.0
 11
49081.99914
 21
12839.444014
 31
0.0
  0
LINE
  8
1
  6
CONTINUOUS
 62
     6
  5
193
 10
49080.07214
 20
12841.320614
 30
0.0
 11
49032.81714
 21
12842.909414
 31
0.0
  0
LINE
  8
1
  6
CONTINUOUS
 62
     6
  5
194
 10
49004.52014
 20
12905.998514
 30
0.0
 11
49025.56614
 21
12848.172614
 31
0.0
  0
LINE
  8
1
  6
CONTINUOUS
 62
     6
  5
195
 10
49001.79914
 20
12909.080714
 30
0.0
 11
49024.07514
 21
12847.882214
 31
0.0
  0
LINE
  8
1
  6
CONTINUOUS
 62
     6
  5
196
 10
49084.26514
 20
12833.208714
 30
0.0
 11
49090.48914
 21
12833.208714
 31
0.0
  0
LINE
  8
1
  6
CONTINUOUS
 62
     6
  5
197
 10
49081.99914
 20
12574.972314
 30
0.0
 11
49082.27214
 21
12579.332714
 31
0.0
  0
LINE
  8
1
  6
CONTINUOUS
 62
     6
  5
198
 10
49032.81714
 20
12571.501714
 30
0.0
 11
49080.07214
 21
12573.097514
 31
0.0
  0
LINE
  8
1
  6
CONTINUOUS
 62
     6
  5
199
 10
49025.56614
 20
12566.238414
 30
0.0
 11
49004.52014
 21
12508.411714
 31
0.0
  0
LINE
  8
1
  6
CONTINUOUS
 62
     6
  5
19A
 10
49418.48914
 20
12563.109014
 30
0.0
 11
49418.48914
 21
12851.301214
 31
0.0
  0
LINE
  8
1
  6
CONTINUOUS
 62
     6
  5
19B
 10
49024.07514
 20
12566.524514
 30
0.0
 11
49001.79914
 21
12505.326014
 31
0.0
  0
LINE
  8
1
  6
CONTINUOUS
 62
     6
  5
19C
 10
49092.48914
 20
12583.204014
 30
0.0
 11
49092.48914
 21
12831.203514
 31
0.0
  0
LINE
  8
1
  6
CONTINUOUS
 62
     6
  5
19D
 10
49090.48914
 20
12581.209314
 30
0.0
 11
49084.26514
 21
12581.209314
 31
0.0
  0
LINE
  8
1
  6
CONTINUOUS
 62
     6
  5
19E
 10
49148.08414
 20
12493.203714
 30
0.0
 11
49133.60114
 21
12493.203714
 31
0.0
  0
LINE
  8
1
  6
CONTINUOUS
 62
     6
  5
19F
 10
49182.76714
 20
12929.403214
 30
0.0
 11
49179.44614
 21
12952.296114
 31
0.0
  0
LINE
  8
1
  6
CONTINUOUS
 62
     6
  5
1A0
 10
49057.75614
 20
12825.705814
 30
0.0
 11
49057.75614
 21
12737.203314
 31
0.0
  0
LINE
  8
1
  6
CONTINUOUS
 62
     6
  5
1A1
 10
49057.75614
 20
12737.203314
 30
0.0
 11
49057.99114
 21
12736.972314
 31
0.0
  0
LINE
  8
1
  6
CONTINUOUS
 62
     6
  5
1A2
 10
49057.99114
 20
12736.972314
 30
0.0
 11
49057.99114
 21
12677.438714
 31
0.0
  0
LINE
  8
1
  6
CONTINUOUS
 62
     6
  5
1A3
 10
49057.75614
 20
12825.705814
 30
0.0
 11
49060.98814
 21
12825.705814
 31
0.0
  0
LINE
  8
1
  6
CONTINUOUS
 62
     6
  5
1A4
 10
49062.48614
 20
12827.202714
 30
0.0
 11
49062.48614
 21
12839.703814
 31
0.0
  0
LINE
  8
1
  6
CONTINUOUS
 62
     6
  5
1A5
 10
49025.08814
 20
12841.208614
 30
0.0
 11
49060.98814
 21
12841.208614
 31
0.0
  0
LINE
  8
1
  6
CONTINUOUS
 62
     6
  5
1A6
 10
49017.57314
 20
12846.468414
 30
0.0
 11
48995.30914
 21
12907.643214
 31
0.0
  0
LINE
  8
1
  6
CONTINUOUS
 62
     6
  5
1A7
 10
49057.75614
 20
12677.207814
 30
0.0
 11
49057.75614
 21
12588.705314
 31
0.0
  0
LINE
  8
1
  6
CONTINUOUS
 62
     6
  5
1A8
 10
49057.99114
 20
12677.438714
 30
0.0
 11
49057.75614
 21
12677.207814
 31
0.0
  0
LINE
  8
1
  6
CONTINUOUS
 62
     6
  5
1A9
 10
49060.98814
 20
12588.705314
 30
0.0
 11
49057.75614
 21
12588.705314
 31
0.0
  0
LINE
  8
1
  6
CONTINUOUS
 62
     6
  5
1AA
 10
49062.48614
 20
12574.703714
 30
0.0
 11
49062.48614
 21
12587.207514
 31
0.0
  0
LINE
  8
1
  6
CONTINUOUS
 62
     6
  5
1AB
 10
49060.98814
 20
12573.208614
 30
0.0
 11
49025.08814
 21
12573.208614
 31
0.0
  0
LINE
  8
1
  6
CONTINUOUS
 62
     6
  5
1AC
 10
48995.30914
 20
12506.774814
 30
0.0
 11
49017.57314
 21
12567.939214
 31
0.0
  0
LINE
  8
1
  6
CONTINUOUS
 62
     6
  5
1AD
 10
49215.99214
 20
12920.311514
 30
0.0
 11
49192.48914
 21
12920.843414
 31
0.0
  0
LINE
  8
1
  6
CONTINUOUS
 62
     6
  5
1AE
 10
49387.73514
 20
12909.458614
 30
0.0
 11
49364.95314
 21
12911.611714
 31
0.0
  0
LINE
  8
1
  6
CONTINUOUS
 62
     6
  5
1AF
 10
49364.95314
 20
12502.798514
 30
0.0
 11
49387.73514
 21
12504.951614
 31
0.0
  0
LINE
  8
1
  6
CONTINUOUS
 62
     6
  5
1B0
 10
49191.92514
 20
12493.560714
 30
0.0
 11
49196.48914
 21
12493.644714
 31
0.0
  0
LINE
  8
1
  6
CONTINUOUS
 62
     6
  5
1B1
 10
49009.74114
 20
12916.079714
 30
0.0
 11
49006.07414
 21
12915.776114
 31
0.0
  0
LINE
  8
1
  6
CONTINUOUS
 62
     6
  5
1B2
 10
48993.95514
 20
12504.402214
 30
0.0
 11
49001.50314
 21
12503.835214
 31
0.0
  0
LINE
  8
1
  6
CONTINUOUS
 62
     6
  5
1B3
 10
48997.96214
 20
12910.316014
 30
0.0
 11
48993.95514
 21
12910.001914
 31
0.0
  0
LINE
  8
1
  6
CONTINUOUS
 62
     6
  5
1B4
 10
49001.50314
 20
12910.575814
 30
0.0
 11
48997.96214
 21
12910.316014
 31
0.0
  0
LINE
  8
1
  6
CONTINUOUS
 62
     6
  5
1B5
 10
48976.95314
 20
12501.168614
 30
0.0
 11
48985.55314
 21
12500.297214
 31
0.0
  0
ARC
  8
1
  6
CONTINUOUS
 62
     6
  5
1B6
 10
48662.35214
 20
12707.204714
 30
0.0
 40
700.66453
 50
358.691802
 51
1.308181
  0
ARC
  8
1
  6
CONTINUOUS
 62
     6
  5
1B7
 10
49216.85614
 20
12758.969414
 30
0.0
 40
199.99999
 50
17.19091
 51
38.11651
  0
ARC
  8
1
  6
CONTINUOUS
 62
     6
  5
1B8
 10
49214.31514
 20
12873.971014
 30
0.0
 40
11.0
 50
90.0
 51
167.79786
  0
ARC
  8
1
  6
CONTINUOUS
 62
     6
  5
1B9
 10
50000.48514
 20
12707.204714
 30
0.0
 40
799.99998
 50
167.16142
 51
192.83856
  0
ARC
  8
1
  6
CONTINUOUS
 62
     6
  5
1BA
 10
49150.46314
 20
10494.755414
 30
0.0
 40
2399.9999
 50
84.75076
 51
88.30413
  0
ARC
  8
1
  6
CONTINUOUS
 62
     6
  5
1BB
 10
49216.85614
 20
12655.440814
 30
0.0
 40
199.99999
 50
321.883468
 51
342.809066
  0
ARC
  8
1
  6
CONTINUOUS
 62
     6
  5
1BC
 10
49985.48614
 20
12707.204714
 30
0.0
 40
799.99998
 50
167.79786
 51
192.20211
  0
ARC
  8
1
  6
CONTINUOUS
 62
     6
  5
1BD
 10
49214.31514
 20
12540.440114
 30
0.0
 40
11.0
 50
192.20211
 51
270.0
  0
ARC
  8
1
  6
CONTINUOUS
 62
     6
  5
1BE
 10
49150.46314
 20
14919.655814
 30
0.0
 40
2399.9999
 50
271.695846
 51
275.249222
  0
ARC
  8
1
  6
CONTINUOUS
 62
     6
  5
1BF
 10
49003.19014
 20
12707.204714
 30
0.0
 40
359.99995
 50
2.546737
 51
17.61141
  0
ARC
  8
1
  6
CONTINUOUS
 62
     6
  5
1C0
 10
49298.65914
 20
12800.999314
 30
0.0
 40
49.999999
 50
17.61141
 51
86.32331
  0
ARC
  8
1
  6
CONTINUOUS
 62
     6
  5
1C1
 10
49150.46314
 20
10494.755414
 30
0.0
 40
2360.9981
 50
86.32331
 51
87.56875
  0
ARC
  8
1
  6
CONTINUOUS
 62
     6
  5
1C2
 10
49249.34514
 20
12823.655114
 30
0.0
 40
30.0
 50
87.56875
 51
171.30142
  0
ARC
  8
1
  6
CONTINUOUS
 62
     6
  5
1C3
 10
50010.48614
 20
12707.204714
 30
0.0
 40
799.99998
 50
171.30142
 51
188.69856
  0
ARC
  8
1
  6
CONTINUOUS
 62
     6
  5
1C4
 10
49298.65914
 20
12613.411814
 30
0.0
 40
49.999999
 50
273.676666
 51
342.388565
  0
ARC
  8
1
  6
CONTINUOUS
 62
     6
  5
1C5
 10
49150.46314
 20
14919.655814
 30
0.0
 40
2360.9981
 50
272.431229
 51
273.676666
  0
ARC
  8
1
  6
CONTINUOUS
 62
     6
  5
1C6
 10
49249.34514
 20
12590.751614
 30
0.0
 40
30.0
 50
188.69856
 51
272.431229
  0
ARC
  8
1
  6
CONTINUOUS
 62
     6
  5
1C7
 10
49003.19014
 20
12707.204714
 30
0.0
 40
359.99995
 50
342.388565
 51
357.453247
  0
ARC
  8
1
  6
CONTINUOUS
 62
     6
  5
1C8
 10
49169.98914
 20
12495.226514
 30
0.0
 40
22.0
 50
181.5453
 51
359.52922
  0
ARC
  8
1
  6
CONTINUOUS
 62
     6
  5
1C9
 10
49056.55814
 20
14046.557514
 30
0.0
 40
1560.9291
 50
270.0
 51
273.398193
  0
ARC
  8
1
  6
CONTINUOUS
 62
     6
  5
1CA
 10
49056.55814
 20
14046.557514
 30
0.0
 40
1568.5291
 50
270.0
 51
273.532318
  0
ARC
  8
1
  6
CONTINUOUS
 62
     6
  5
1CB
 10
49150.57914
 20
10521.204414
 30
0.0
 40
2399.9999
 50
85.25724
 51
88.05622
  0
ARC
  8
1
  6
CONTINUOUS
 62
     6
  5
1CC
 10
49223.70114
 20
12910.609914
 30
0.0
 40
13.999998
 50
54.49822
 51
121.9962
  0
ARC
  8
1
  6
CONTINUOUS
 62
     6
  5
1CD
 10
49356.16914
 20
12902.873414
 30
0.0
 40
13.999998
 50
51.31726
 51
118.81524
  0
ARC
  8
1
  6
CONTINUOUS
 62
     6
  5
1CE
 10
49133.60114
 20
13993.204014
 30
0.0
 40
1499.9998
 50
265.12289
 51
266.25022
  0
ARC
  8
1
  6
CONTINUOUS
 62
     6
  5
1CF
 10
49044.05714
 20
12505.371514
 30
0.0
 40
13.999998
 50
232.80682
 51
300.304794
  0
ARC
  8
1
  6
CONTINUOUS
 62
     6
  5
1D0
 10
49204.27514
 20
12503.282314
 30
0.0
 40
13.999998
 50
237.53808
 51
305.036056
  0
ARC
  8
1
  6
CONTINUOUS
 62
     6
  5
1D1
 10
49150.57914
 20
14893.206514
 30
0.0
 40
2399.9999
 50
271.478058
 51
274.742737
  0
ARC
  8
1
  6
CONTINUOUS
 62
     6
  5
1D2
 10
49356.16914
 20
12511.533314
 30
0.0
 40
13.999998
 50
241.18473
 51
308.682724
  0
ARC
  8
1
  6
CONTINUOUS
 62
     6
  5
1D3
 10
49029.25614
 20
12934.841414
 30
0.0
 40
13.999998
 50
140.98849
 51
208.48646
  0
ARC
  8
1
  6
CONTINUOUS
 62
     6
  5
1D4
 10
49044.58914
 20
12935.352314
 30
0.0
 40
10.0
 50
91.5
 51
271.5
  0
ARC
  8
1
  6
CONTINUOUS
 62
     6
  5
1D5
 10
49156.55214
 20
12938.284914
 30
0.0
 40
10.0
 50
271.5
 51
91.5
  0
ARC
  8
1
  6
CONTINUOUS
 62
     6
  5
1D6
 10
49126.16314
 20
12811.280014
 30
0.0
 40
108.13588
 50
44.02322
 51
77.26219
  0
ARC
  8
1
  6
CONTINUOUS
 62
     6
  5
1D7
 10
49133.60114
 20
11421.203614
 30
0.0
 40
1496.7
 50
89.75372
 51
94.78312
  0
ARC
  8
1
  6
CONTINUOUS
 62
     6
  5
1D8
 10
49139.83914
 20
12871.783814
 30
0.0
 40
46.107687
 50
77.26219
 51
89.75372
  0
ARC
  8
1
  6
CONTINUOUS
 62
     6
  5
1D9
 10
50730.48914
 20
12707.204714
 30
0.0
 40
1599.9999
 50
172.99578
 51
187.00419
  0
ARC
  8
1
  6
CONTINUOUS
 62
     6
  5
1DA
 10
49009.21614
 20
12907.713214
 30
0.0
 40
5.0
 50
94.78312
 51
200.0
  0
ARC
  8
1
  6
CONTINUOUS
 62
     6
  5
1DB
 10
49033.08314
 20
12850.904914
 30
0.0
 40
7.999999
 50
200.0
 51
268.06767
  0
ARC
  8
1
  6
CONTINUOUS
 62
     6
  5
1DC
 10
49227.26314
 20
12793.604814
 30
0.0
 40
199.99999
 50
17.30087
 51
34.4998
  0
ARC
  8
1
  6
CONTINUOUS
 62
     6
  5
1DD
 10
49126.16314
 20
12603.130214
 30
0.0
 40
108.13588
 50
282.737792
 51
315.97676
  0
ARC
  8
1
  6
CONTINUOUS
 62
     6
  5
1DE
 10
49133.60114
 20
13993.204014
 30
0.0
 40
1496.7
 50
265.21685
 51
270.246262
  0
ARC
  8
1
  6
CONTINUOUS
 62
     6
  5
1DF
 10
49139.83914
 20
12542.630814
 30
0.0
 40
46.107687
 50
270.246262
 51
282.737792
  0
ARC
  8
1
  6
CONTINUOUS
 62
     6
  5
1E0
 10
49009.21614
 20
12506.697014
 30
0.0
 40
5.0
 50
160.0
 51
265.21685
  0
ARC
  8
1
  6
CONTINUOUS
 62
     6
  5
1E1
 10
49033.08314
 20
12563.501814
 30
0.0
 40
7.999999
 50
91.93231
 51
160.0
  0
ARC
  8
1
  6
CONTINUOUS
 62
     6
  5
1E2
 10
49133.60114
 20
13993.204014
 30
0.0
 40
1499.9998
 50
266.86138
 51
270.0
  0
ARC
  8
1
  6
CONTINUOUS
 62
     6
  5
1E3
 10
49227.26314
 20
12620.801914
 30
0.0
 40
199.99999
 50
325.500183
 51
342.699111
  0
ARC
  8
1
  6
CONTINUOUS
 62
     6
  5
1E4
 10
49171.96414
 20
12284.465214
 30
0.0
 40
211.98525
 50
84.70327
 51
96.37123
  0
ARC
  8
1
  6
CONTINUOUS
 62
     6
  5
1E5
 10
49192.66414
 20
12930.837114
 30
0.0
 40
10.0
 50
188.25219
 51
268.99943
  0
ARC
  8
1
  6
CONTINUOUS
 62
     6
  5
1E6
 10
49008.91414
 20
12926.050614
 30
0.0
 40
10.0
 50
274.736618
 51
354.737472
  0
ARC
  8
1
  6
CONTINUOUS
 62
     6
  5
1E7
 10
48981.83414
 20
12499.271914
 30
0.0
 40
1.687318
 50
49.86863
 51
83.5
  0
ARC
  8
1
  6
CONTINUOUS
 62
     6
  5
1E8
 10
49025.08814
 20
12849.207614
 30
0.0
 40
7.999999
 50
200.0
 51
270.0
  0
ARC
  8
1
  6
CONTINUOUS
 62
     6
  5
1E9
 10
49025.08814
 20
12565.209614
 30
0.0
 40
7.999999
 50
90.0
 51
160.0
  0
ARC
  8
1
  6
CONTINUOUS
 62
     6
  5
1EA
 10
49369.48214
 20
12878.715514
 30
0.0
 40
5.999998
 50
38.11651
 51
84.75076
  0
ARC
  8
1
  6
CONTINUOUS
 62
     6
  5
1EB
 10
49402.18814
 20
12816.305314
 30
0.0
 40
5.999998
 50
0.0
 51
17.19091
  0
ARC
  8
1
  6
CONTINUOUS
 62
     6
  5
1EC
 10
49369.48214
 20
12535.694714
 30
0.0
 40
5.999998
 50
275.249222
 51
321.883468
  0
ARC
  8
1
  6
CONTINUOUS
 62
     6
  5
1ED
 10
49402.18814
 20
12598.104914
 30
0.0
 40
5.999998
 50
342.809066
 51
0.0
  0
ARC
  8
1
  6
CONTINUOUS
 62
     6
  5
1EE
 10
49216.54414
 20
12922.061214
 30
0.0
 40
0.5
 50
121.9962
 51
178.24722
  0
ARC
  8
1
  6
CONTINUOUS
 62
     6
  5
1EF
 10
49231.54014
 20
12921.606314
 30
0.0
 40
0.5
 50
358.247222
 51
54.49822
  0
ARC
  8
1
  6
CONTINUOUS
 62
     6
  5
1F0
 10
49349.66714
 20
12914.700914
 30
0.0
 40
0.5
 50
118.81524
 51
175.06625
  0
ARC
  8
1
  6
CONTINUOUS
 62
     6
  5
1F1
 10
49364.61014
 20
12913.410414
 30
0.0
 40
0.5
 50
355.066253
 51
51.31726
  0
ARC
  8
1
  6
CONTINUOUS
 62
     6
  5
1F2
 10
49035.89614
 20
12494.617514
 30
0.0
 40
0.5
 50
176.5558
 51
232.80682
  0
ARC
  8
1
  6
CONTINUOUS
 62
     6
  5
1F3
 10
49050.86614
 20
12493.714714
 30
0.0
 40
0.5
 50
300.304794
 51
356.555801
  0
ARC
  8
1
  6
CONTINUOUS
 62
     6
  5
1F4
 10
49197.02814
 20
12491.894914
 30
0.0
 40
0.5
 50
181.28707
 51
237.53808
  0
ARC
  8
1
  6
CONTINUOUS
 62
     6
  5
1F5
 10
49212.02514
 20
12492.230914
 30
0.0
 40
0.5
 50
305.036056
 51
1.287078
  0
ARC
  8
1
  6
CONTINUOUS
 62
     6
  5
1F6
 10
49349.66714
 20
12499.705814
 30
0.0
 40
0.5
 50
184.93373
 51
241.18473
  0
ARC
  8
1
  6
CONTINUOUS
 62
     6
  5
1F7
 10
49364.61014
 20
12501.000614
 30
0.0
 40
0.5
 50
308.682724
 51
4.933731
  0
ARC
  8
1
  6
CONTINUOUS
 62
     6
  5
1F8
 10
49017.39114
 20
12928.398814
 30
0.0
 40
0.5
 50
208.48646
 51
264.73747
  0
ARC
  8
1
  6
CONTINUOUS
 62
     6
  5
1F9
 10
49018.77014
 20
12943.338214
 30
0.0
 40
0.5
 50
84.73747
 51
140.98849
  0
ARC
  8
1
  6
CONTINUOUS
 62
     6
  5
1FA
 10
49032.94314
 20
12947.051214
 30
0.0
 40
11.999996
 50
91.5
 51
174.73747
  0
ARC
  8
1
  6
CONTINUOUS
 62
     6
  5
1FB
 10
49167.56914
 20
12950.574314
 30
0.0
 40
11.999996
 50
8.252197
 51
91.5
  0
ARC
  8
1
  6
CONTINUOUS
 62
     6
  5
1FC
 10
49080.00414
 20
12839.318014
 30
0.0
 40
2.0
 50
3.554168
 51
88.06767
  0
ARC
  8
1
  6
CONTINUOUS
 62
     6
  5
1FD
 10
49090.48914
 20
12831.203514
 30
0.0
 40
2.0
 50
0.0
 51
90.0
  0
ARC
  8
1
  6
CONTINUOUS
 62
     6
  5
1FE
 10
49084.26514
 20
12835.203514
 30
0.0
 40
2.0
 50
183.55416
 51
270.0
  0
ARC
  8
1
  6
CONTINUOUS
 62
     6
  5
1FF
 10
48986.48914
 20
12834.201714
 30
0.0
 40
39.999999
 50
10.08312
 51
20.0
  0
ARC
  8
1
  6
CONTINUOUS
 62
     6
  5
200
 10
49006.50114
 20
12910.792814
 30
0.0
 40
5.0
 50
94.87709
 51
200.0
  0
ARC
  8
1
  6
CONTINUOUS
 62
     6
  5
201
 10
49387.14714
 20
12903.485014
 30
0.0
 40
5.999998
 50
34.4998
 51
84.32896
  0
ARC
  8
1
  6
CONTINUOUS
 62
     6
  5
202
 10
49412.49114
 20
12851.301214
 30
0.0
 40
5.999998
 50
0.0
 51
17.30087
  0
ARC
  8
1
  6
CONTINUOUS
 62
     6
  5
203
 10
49080.00414
 20
12575.092214
 30
0.0
 40
2.0
 50
271.932312
 51
356.445816
  0
ARC
  8
1
  6
CONTINUOUS
 62
     6
  5
204
 10
49090.48914
 20
12583.204014
 30
0.0
 40
2.0
 50
270.0
 51
0.0
  0
ARC
  8
1
  6
CONTINUOUS
 62
     6
  5
205
 10
49084.26514
 20
12579.206714
 30
0.0
 40
2.0
 50
90.0
 51
176.44581
  0
ARC
  8
1
  6
CONTINUOUS
 62
     6
  5
206
 10
49006.50114
 20
12503.618314
 30
0.0
 40
5.0
 50
160.0
 51
265.12289
  0
ARC
  8
1
  6
CONTINUOUS
 62
     6
  5
207
 10
49387.14714
 20
12510.925214
 30
0.0
 40
5.999998
 50
275.67102
 51
325.500183
  0
ARC
  8
1
  6
CONTINUOUS
 62
     6
  5
208
 10
49412.49114
 20
12563.109014
 30
0.0
 40
5.999998
 50
342.699111
 51
0.0
  0
ARC
  8
1
  6
CONTINUOUS
 62
     6
  5
209
 10
49148.49714
 20
12494.644714
 30
0.0
 40
0.5
 50
96.37123
 51
181.5453
  0
ARC
  8
1
  6
CONTINUOUS
 62
     6
  5
20A
 10
49191.48814
 20
12495.051514
 30
0.0
 40
0.5
 50
359.52922
 51
84.70327
  0
ARC
  8
1
  6
CONTINUOUS
 62
     6
  5
20B
 10
48986.48914
 20
12580.208514
 30
0.0
 40
39.999999
 50
340.0
 51
349.916854
  0
ARC
  8
1
  6
CONTINUOUS
 62
     6
  5
20C
 10
49060.98814
 20
12827.202714
 30
0.0
 40
1.499999
 50
270.0
 51
0.0
  0
ARC
  8
1
  6
CONTINUOUS
 62
     6
  5
20D
 10
49060.98814
 20
12839.703814
 30
0.0
 40
1.499999
 50
0.0
 51
90.0
  0
ARC
  8
1
  6
CONTINUOUS
 62
     6
  5
20E
 10
48986.33614
 20
12906.148114
 30
0.0
 40
7.999999
 50
42.52577
 51
95.60845
  0
ARC
  8
1
  6
CONTINUOUS
 62
     6
  5
20F
 10
48987.79014
 20
12904.906614
 30
0.0
 40
7.999999
 50
20.0
 51
95.56906
  0
ARC
  8
1
  6
CONTINUOUS
 62
     6
  5
210
 10
49060.98814
 20
12587.207514
 30
0.0
 40
1.499999
 50
0.0
 51
90.0
  0
ARC
  8
1
  6
CONTINUOUS
 62
     6
  5
211
 10
49060.98814
 20
12574.703714
 30
0.0
 40
1.499999
 50
270.0
 51
0.0
  0
ARC
  8
1
  6
CONTINUOUS
 62
     6
  5
212
 10
48986.33614
 20
12508.258614
 30
0.0
 40
7.999999
 50
264.39152
 51
317.474212
  0
ARC
  8
1
  6
CONTINUOUS
 62
     6
  5
213
 10
48987.79014
 20
12509.511414
 30
0.0
 40
7.999999
 50
264.43092
 51
340.0
  0
LINE
  8
1
  6
CONTINUOUS
 62
     6
  5
214
 10
49102.66009
 20
13252.207074
 30
0.0
 11
49102.66009
 21
13237.206877
 31
0.0
  0
LINE
  8
1
  6
CONTINUOUS
 62
     6
  5
215
 10
49563.6597
 20
13205.20645
 30
0.0
 11
49168.660957
 21
13205.20645
 31
0.0
  0
LINE
  8
1
  6
CONTINUOUS
 62
     6
  5
216
 10
49563.6597
 20
13199.206371
 30
0.0
 11
49168.660957
 21
13199.206371
 31
0.0
  0
LINE
  8
1
  6
CONTINUOUS
 62
     6
  5
217
 10
49618.660357
 20
13167.205957
 30
0.0
 11
49118.6603
 21
13167.205957
 31
0.0
  0
LINE
  8
1
  6
CONTINUOUS
 62
     6
  5
218
 10
49618.660357
 20
13237.206877
 30
0.0
 11
49118.6603
 21
13237.206877
 31
0.0
  0
LINE
  8
1
  6
DOT
 62
     6
  5
219
 10
49658.36014
 20
13067.206014
 30
0.0
 11
49428.36014
 21
13067.206014
 31
0.0
  0
LINE
  8
1
  6
CONTINUOUS
 62
     6
  5
21A
 10
49658.36014
 20
11337.205014
 30
0.0
 11
49658.36014
 21
13087.206014
 31
0.0
  0
LINE
  8
1
  6
CONTINUOUS
 62
     6
  5
21B
 10
49428.36014
 20
12287.205014
 30
0.0
 11
49428.36014
 21
13087.206014
 31
0.0
  0
LINE
  8
1
  6
CONTINUOUS
 62
     6
  5
21C
 10
49428.36014
 20
12287.205014
 30
0.0
 11
49093.36014
 21
12187.205014
 31
0.0
  0
LINE
  8
1
  6
CONTINUOUS
 62
     6
  5
21D
 10
49678.36014
 20
11337.205014
 30
0.0
 11
49093.36014
 21
11337.205014
 31
0.0
  0
LINE
  8
1
  6
CONTINUOUS
 62
     6
  5
21E
 10
49058.358154
 20
11332.205414
 30
0.0
 11
49088.358154
 21
11332.205414
 31
0.0
  0
LINE
  8
1
  6
CONTINUOUS
 62
     6
  5
21F
 10
49056.358397
 20
11294.205414
 30
0.0
 11
49056.358154
 21
11332.205401
 31
0.0
  0
LINE
  8
1
  6
CONTINUOUS
 62
     6
  5
220
 10
49058.358409
 20
11292.205414
 30
0.0
 11
49058.358154
 21
11332.205414
 31
0.0
  0
LINE
  8
1
  6
CONTINUOUS
 62
     6
  5
221
 10
49063.358409
 20
11292.205414
 30
0.0
 11
49043.358409
 21
11292.205414
 31
0.0
  0
LINE
  8
1
  6
CONTINUOUS
 62
     6
  5
222
 10
49063.358543
 20
11271.205414
 30
0.0
 11
49063.358409
 21
11292.205414
 31
0.0
  0
LINE
  8
1
  6
CONTINUOUS
 62
     6
  5
223
 10
49043.358543
 20
11271.205414
 30
0.0
 11
49043.358409
 21
11292.205414
 31
0.0
  0
LINE
  8
1
  6
CONTINUOUS
 62
     6
  5
224
 10
49063.358543
 20
11271.205414
 30
0.0
 11
49043.358543
 21
11271.205414
 31
0.0
  0
LINE
  8
1
  6
CONTINUOUS
 62
     6
  5
225
 10
49056.358154
 20
11332.205401
 30
0.0
 11
48380.35914
 21
11332.205401
 31
0.0
  0
LINE
  8
1
  6
CONTINUOUS
 62
     6
  5
226
 10
49056.358397
 20
11294.205414
 30
0.0
 11
48380.35914
 21
11294.205414
 31
0.0
  0
LINE
  8
1
  6
CONTINUOUS
 62
     6
  5
227
 10
48380.35914
 20
11332.205401
 30
0.0
 11
48380.35914
 21
11294.205414
 31
0.0
  0
LINE
  8
1
  6
CONTINUOUS
 62
     6
  5
228
 10
48378.35914
 20
11332.205414
 30
0.0
 11
48378.35914
 21
11292.205414
 31
0.0
  0
LINE
  8
1
  6
CONTINUOUS
 62
     6
  5
229
 10
48378.35914
 20
11332.205414
 30
0.0
 11
48348.35914
 21
11332.205414
 31
0.0
  0
LINE
  8
1
  6
CONTINUOUS
 62
     6
  5
22A
 10
48373.35914
 20
11292.205414
 30
0.0
 11
48373.35914
 21
11271.205414
 31
0.0
  0
LINE
  8
1
  6
CONTINUOUS
 62
     6
  5
22B
 10
48393.35914
 20
11292.205414
 30
0.0
 11
48378.35914
 21
11292.205414
 31
0.0
  0
LINE
  8
1
  6
CONTINUOUS
 62
     6
  5
22C
 10
48393.35914
 20
11292.205414
 30
0.0
 11
48393.35914
 21
11271.205414
 31
0.0
  0
LINE
  8
1
  6
CONTINUOUS
 62
     6
  5
22D
 10
48393.35914
 20
11271.205414
 30
0.0
 11
48373.35914
 21
11271.205414
 31
0.0
  0
LINE
  8
1
  6
CONTINUOUS
 62
     6
  5
22E
 10
48378.35914
 20
11292.205414
 30
0.0
 11
48373.35914
 21
11292.205414
 31
0.0
  0
LINE
  8
1
  6
CONTINUOUS
 62
     6
  5
22F
 10
49058.359047
 20
11212.205414
 30
0.0
 11
49088.359175
 21
11212.205414
 31
0.0
  0
LINE
  8
1
  6
CONTINUOUS
 62
     6
  5
230
 10
49058.358543
 20
11271.205414
 30
0.0
 11
49058.35892
 21
11212.205414
 31
0.0
  0
LINE
  8
1
  6
CONTINUOUS
 62
     6
  5
231
 10
48378.35914
 20
11212.205414
 30
0.0
 11
48348.35914
 21
11212.205414
 31
0.0
  0
LINE
  8
1
  6
CONTINUOUS
 62
     6
  5
232
 10
48378.35914
 20
11271.205414
 30
0.0
 11
48378.35914
 21
11212.205414
 31
0.0
  0
LINE
  8
1
  6
CONTINUOUS
 62
     6
  5
233
 10
48348.35914
 20
11332.205414
 30
0.0
 11
48348.35914
 21
11212.205414
 31
0.0
  0
LINE
  8
1
  6
CONTINUOUS
 62
     6
  5
234
 10
49678.36014
 20
13087.206014
 30
0.0
 11
49428.36014
 21
13087.206014
 31
0.0
  0
LINE
  8
1
  6
CONTINUOUS
 62
     6
  5
235
 10
49678.36014
 20
11337.205014
 30
0.0
 11
49678.36014
 21
13087.206014
 31
0.0
  0
LINE
  8
6
  6
CONTINUOUS
 62
     6
  5
236
 10
49083.659842
 20
13352.208359
 30
0.0
 11
49658.660815
 21
13352.208359
 31
0.0
  0
LINE
  8
6
  6
CONTINUOUS
 62
     6
  5
237
 10
49658.660815
 20
13352.208359
 30
0.0
 11
49658.660815
 21
13332.208098
 31
0.0
  0
LINE
  8
6
  6
CONTINUOUS
 62
     6
  5
238
 10
49083.659842
 20
13352.208359
 30
0.0
 11
49083.659842
 21
13332.402806
 31
0.0
  0
LINE
  8
1
  6
CONTINUOUS
 62
     5
  5
239
 10
49678.66114
 20
11329.705014
 30
0.0
 11
49088.36114
 21
11329.705014
 31
0.0
  0
LINE
  8
1
  6
CONTINUOUS
 62
     5
  5
23A
 10
48168.35814
 20
11214.705414
 30
0.0
 11
48348.35914
 21
11214.705414
 31
0.0
  0
LINE
  8
1
  6
CONTINUOUS
 62
     5
  5
23B
 10
49088.359011
 20
11214.705414
 30
0.0
 11
49808.66114
 21
11214.705414
 31
0.0
  0
LINE
  8
4
  6
CENTER1
 62
     2
  5
23C
 10
49758.66114
 20
11214.705414
 30
0.0
 11
49758.66114
 21
13382.208359
 31
0.0
  0
LINE
  8
3
  6
CONTINUOUS
 62
     2
  5
23D
 10
47938.35814
 20
13222.206214
 30
0.0
 11
48088.35814
 21
13222.206214
 31
0.0
  0
LINE
  8
3
  6
CONTINUOUS
 62
     2
  5
23E
 10
47938.35814
 20
11272.206414
 30
0.0
 11
48088.35814
 21
11272.206414
 31
0.0
  0
LINE
  8
3
  6
CONTINUOUS
 62
     2
  5
23F
 10
47938.35814
 20
13222.206214
 30
0.0
 11
47938.35814
 21
11272.206414
 31
0.0
  0
LINE
  8
4
  6
CENTER1
 62
     2
  5
240
 10
48068.35814
 20
13222.206214
 30
0.0
 11
49808.66114
 21
13222.206214
 31
0.0
  0
LINE
  8
5
  6
CONTINUOUS
 62
     3
  5
241
 10
49758.66114
 20
10984.705414
 30
0.0
 11
49758.66114
 21
11184.705414
 31
0.0
  0
LINE
  8
5
  6
CONTINUOUS
 62
     3
  5
242
 10
48378.35914
 20
11084.705414
 30
0.0
 11
48378.35914
 21
11184.705414
 31
0.0
  0
LINE
  8
5
  6
CONTINUOUS
 62
     3
  5
243
 10
49058.35892
 20
11084.705414
 30
0.0
 11
49058.35892
 21
11184.705414
 31
0.0
  0
CIRCLE
  8
5
  6
CONTINUOUS
 62
     3
  5
244
 10
49758.66114
 20
10984.705414
 30
0.0
 40
7.5
  0
CIRCLE
  8
5
  6
CONTINUOUS
 62
     3
  5
245
 10
48378.35914
 20
11084.705414
 30
0.0
 40
7.5
  0
CIRCLE
  8
5
  6
CONTINUOUS
 62
     3
  5
246
 10
49058.35892
 20
11084.705414
 30
0.0
 40
7.5
  0
CIRCLE
  8
5
  6
CONTINUOUS
 62
     3
  5
247
 10
49758.66114
 20
11084.705414
 30
0.0
 40
7.5
  0
TEXT
  8
5
  6
CONTINUOUS
 62
     3
  5
248
 10
48258.35914
 20
11084.705414
 30
0.0
 40
60.0
  1
120
 41
0.666667
  7

 72
     5
 11
48378.35914
 21
11084.705414
 31
0.0
  0
TEXT
  8
5
  6
CONTINUOUS
 62
     3
  5
249
 10
48658.35903
 20
11084.705414
 30
0.0
 40
60.0
  1
680
 41
0.666667
  7

 72
     5
 11
48778.35903
 21
11084.705414
 31
0.0
  0
LINE
  8
5
  6
CONTINUOUS
 62
     3
  5
24A
 10
48378.35914
 20
11084.705414
 30
0.0
 11
49058.35892
 21
11084.705414
 31
0.0
  0
LINE
  8
5
  6
CONTINUOUS
 62
     3
  5
24B
 10
49058.35892
 20
11084.705414
 30
0.0
 11
49758.66114
 21
11084.705414
 31
0.0
  0
TEXT
  8
5
  6
CONTINUOUS
 62
     3
  5
24C
 10
48918.51014
 20
10984.705414
 30
0.0
 40
60.0
  1
1,500
 41
0.6
  7

 72
     5
 11
49098.51014
 21
10984.705414
 31
0.0
  0
TEXT
  8
5
  6
CONTINUOUS
 62
     3
  5
24D
 10
49348.51003
 20
11084.705414
 30
0.0
 40
60.0
  1
700
 41
0.666667
  7

 72
     5
 11
49468.51003
 21
11084.705414
 31
0.0
  0
LINE
  8
1
  6
CONTINUOUS
 62
     6
  5
24E
 10
49093.36014
 20
11337.205014
 30
0.0
 11
49093.36014
 21
12187.205014
 31
0.0
  0
LINE
  8
1
  6
CONTINUOUS
 62
     6
  5
24F
 10
49108.36014
 20
11337.205014
 30
0.0
 11
49108.36014
 21
12191.593239
 31
0.0
  0
LINE
  8
1
  6
DOT
 62
     6
  5
250
 10
49103.36014
 20
11337.205014
 30
0.0
 11
49103.36014
 21
12190.246979
 31
0.0
  0
LINE
  8
5
  6
CONTINUOUS
 62
     6
  5
251
 10
49372.250239
 20
11531.383321
 30
0.0
 11
49405.051082
 21
11543.783947
 31
0.0
  0
LINE
  8
5
  6
CONTINUOUS
 62
     6
  5
252
 10
49405.051082
 20
11543.783947
 30
0.0
 11
49435.708423
 21
11564.008327
 31
0.0
  0
LINE
  8
5
  6
CONTINUOUS
 62
     6
  5
253
 10
49304.470041
 20
11531.383321
 30
0.0
 11
49338.36014
 21
11527.205014
 31
0.0
  0
LINE
  8
5
  6
CONTINUOUS
 62
     6
  5
254
 10
49338.36014
 20
11527.205014
 30
0.0
 11
49372.250239
 21
11531.383321
 31
0.0
  0
LINE
  8
5
  6
CONTINUOUS
 62
     6
  5
255
 10
49241.011857
 20
11564.008327
 30
0.0
 11
49271.669198
 21
11543.783947
 31
0.0
  0
LINE
  8
5
  6
CONTINUOUS
 62
     6
  5
256
 10
49271.669198
 20
11543.783947
 30
0.0
 11
49304.470041
 21
11531.383321
 31
0.0
  0
LINE
  8
5
  6
CONTINUOUS
 62
     6
  5
257
 10
49171.223108
 20
11663.999161
 30
0.0
 11
49189.968525
 21
11625.097665
 31
0.0
  0
LINE
  8
5
  6
CONTINUOUS
 62
     6
  5
258
 10
49150.277875
 20
11752.304365
 30
0.0
 11
49157.849613
 21
11706.860595
 31
0.0
  0
LINE
  8
5
  6
CONTINUOUS
 62
     6
  5
259
 10
49157.849613
 20
11706.860595
 30
0.0
 11
49171.223108
 21
11663.999161
 31
0.0
  0
LINE
  8
5
  6
CONTINUOUS
 62
     6
  5
25A
 10
49163.833769
 20
11889.391522
 30
0.0
 11
49153.318822
 21
11845.060456
 31
0.0
  0
LINE
  8
5
  6
CONTINUOUS
 62
     6
  5
25B
 10
49153.318822
 20
11845.060456
 30
0.0
 11
49148.751256
 21
11798.86987
 31
0.0
  0
LINE
  8
5
  6
CONTINUOUS
 62
     6
  5
25C
 10
49148.751256
 20
11798.86987
 30
0.0
 11
49150.277875
 21
11752.304365
 31
0.0
  0
LINE
  8
5
  6
CONTINUOUS
 62
     6
  5
25D
 10
49179.958136
 20
11930.438229
 30
0.0
 11
49163.833769
 21
11889.391522
 31
0.0
  0
LINE
  8
5
  6
CONTINUOUS
 62
     6
  5
25E
 10
49388.853933
 20
12037.835357
 30
0.0
 11
49355.373681
 21
12046.15833
 31
0.0
  0
LINE
  8
5
  6
CONTINUOUS
 62
     6
  5
25F
 10
49420.711274
 20
12021.456919
 30
0.0
 11
49388.853933
 21
12037.835357
 31
0.0
  0
LINE
  8
5
  6
CONTINUOUS
 62
     6
  5
260
 10
49526.442405
 20
11752.304365
 30
0.0
 11
49527.969024
 21
11798.86987
 31
0.0
  0
LINE
  8
5
  6
CONTINUOUS
 62
     6
  5
261
 10
49527.969024
 20
11798.86987
 30
0.0
 11
49523.401458
 21
11845.060456
 31
0.0
  0
LINE
  8
5
  6
CONTINUOUS
 62
     6
  5
262
 10
49475.546605
 20
11966.881302
 30
0.0
 11
49449.921781
 21
11997.549432
 31
0.0
  0
LINE
  8
5
  6
CONTINUOUS
 62
     6
  5
263
 10
49449.921781
 20
11997.549432
 30
0.0
 11
49420.711274
 21
12021.456919
 31
0.0
  0
LINE
  8
5
  6
CONTINUOUS
 62
     6
  5
264
 10
49512.886511
 20
11889.391522
 30
0.0
 11
49496.762143
 21
11930.438229
 31
0.0
  0
LINE
  8
5
  6
CONTINUOUS
 62
     6
  5
265
 10
49496.762143
 20
11930.438229
 30
0.0
 11
49475.546605
 21
11966.881302
 31
0.0
  0
LINE
  8
5
  6
CONTINUOUS
 62
     6
  5
266
 10
49523.401458
 20
11845.060456
 30
0.0
 11
49512.886511
 21
11889.391522
 31
0.0
  0
LINE
  8
5
  6
CONTINUOUS
 62
     6
  5
267
 10
49518.870667
 20
11706.860595
 30
0.0
 11
49526.442405
 21
11752.304365
 31
0.0
  0
LINE
  8
5
  6
CONTINUOUS
 62
     6
  5
268
 10
49486.751755
 20
11625.097665
 30
0.0
 11
49505.497172
 21
11663.999161
 31
0.0
  0
LINE
  8
5
  6
CONTINUOUS
 62
     6
  5
269
 10
49463.23691
 20
11591.406432
 30
0.0
 11
49486.751755
 21
11625.097665
 31
0.0
  0
LINE
  8
5
  6
CONTINUOUS
 62
     6
  5
26A
 10
49435.708423
 20
11564.008327
 30
0.0
 11
49463.23691
 21
11591.406432
 31
0.0
  0
LINE
  8
5
  6
CONTINUOUS
 62
     6
  5
26B
 10
49505.497172
 20
11663.999161
 30
0.0
 11
49518.870667
 21
11706.860595
 31
0.0
  0
LINE
  8
5
  6
CONTINUOUS
 62
     6
  5
26C
 10
49213.48337
 20
11591.406432
 30
0.0
 11
49241.011857
 21
11564.008327
 31
0.0
  0
LINE
  8
5
  6
CONTINUOUS
 62
     6
  5
26D
 10
49189.968525
 20
11625.097665
 30
0.0
 11
49213.48337
 21
11591.406432
 31
0.0
  0
LINE
  8
5
  6
CONTINUOUS
 62
     6
  5
26E
 10
49256.009006
 20
12021.456919
 30
0.0
 11
49226.798499
 21
11997.549432
 31
0.0
  0
LINE
  8
5
  6
CONTINUOUS
 62
     6
  5
26F
 10
49226.798499
 20
11997.549432
 30
0.0
 11
49201.173675
 21
11966.881302
 31
0.0
  0
LINE
  8
5
  6
CONTINUOUS
 62
     6
  5
270
 10
49201.173675
 20
11966.881302
 30
0.0
 11
49179.958136
 21
11930.438229
 31
0.0
  0
LINE
  8
5
  6
CONTINUOUS
 62
     6
  5
271
 10
49287.866347
 20
12037.835357
 30
0.0
 11
49256.009006
 21
12021.456919
 31
0.0
  0
CIRCLE
  8
1
  6
CONTINUOUS
 62
     6
  5
272
 10
49433.36014
 20
11787.205014
 30
0.0
 40
30.0
  0
LINE
  8
1
  6
DOT
 62
     6
  5
273
 10
49433.380679
 20
12057.495674
 30
0.0
 11
49396.622209
 21
12076.393872
 31
0.0
  0
LINE
  8
1
  6
DOT
 62
     6
  5
274
 10
49396.622209
 20
12076.393872
 30
0.0
 11
49357.991149
 21
12085.997302
 31
0.0
  0
LINE
  8
1
  6
DOT
 62
     6
  5
275
 10
49467.08511
 20
12029.910112
 30
0.0
 11
49433.380679
 21
12057.495674
 31
0.0
  0
LINE
  8
1
  6
DOT
 62
     6
  5
276
 10
49521.131682
 20
11952.474108
 30
0.0
 11
49496.652215
 21
11994.523808
 31
0.0
  0
LINE
  8
1
  6
DOT
 62
     6
  5
277
 10
49496.652215
 20
11994.523808
 30
0.0
 11
49467.08511
 21
12029.910112
 31
0.0
  0
LINE
  8
1
  6
DOT
 62
     6
  5
278
 10
49539.736722
 20
11905.112523
 30
0.0
 11
49521.131682
 21
11952.474108
 31
0.0
  0
LINE
  8
1
  6
DOT
 62
     6
  5
279
 10
49558.36014
 20
11527.205014
 30
0.0
 11
49558.36014
 21
12047.205014
 31
0.0
  0
LINE
  8
1
  6
DOT
 62
     6
  5
27A
 10
49377.4641
 20
11492.026137
 30
0.0
 11
49415.311226
 21
11506.334552
 31
0.0
  0
LINE
  8
1
  6
DOT
 62
     6
  5
27B
 10
49415.311226
 20
11506.334552
 30
0.0
 11
49450.685082
 21
11529.670376
 31
0.0
  0
LINE
  8
1
  6
DOT
 62
     6
  5
27C
 10
49450.685082
 20
11529.670376
 30
0.0
 11
49482.448721
 21
11561.283574
 31
0.0
  0
LINE
  8
1
  6
DOT
 62
     6
  5
27D
 10
49338.36014
 20
11487.205014
 30
0.0
 11
49377.4641
 21
11492.026137
 31
0.0
  0
LINE
  8
1
  6
DOT
 62
     6
  5
27E
 10
49261.409053
 20
11506.334552
 30
0.0
 11
49299.25618
 21
11492.026137
 31
0.0
  0
LINE
  8
1
  6
DOT
 62
     6
  5
27F
 10
49299.25618
 20
11492.026137
 30
0.0
 11
49338.36014
 21
11487.205014
 31
0.0
  0
LINE
  8
1
  6
DOT
 62
     6
  5
280
 10
49558.36014
 20
11527.205014
 30
0.0
 11
49338.36014
 21
11487.205014
 31
0.0
  0
LINE
  8
1
  6
DOT
 62
     6
  5
281
 10
49280.098071
 20
12076.393872
 30
0.0
 11
49243.339601
 21
12057.495674
 31
0.0
  0
LINE
  8
1
  6
DOT
 62
     6
  5
282
 10
49243.339601
 20
12057.495674
 30
0.0
 11
49209.63517
 21
12029.910112
 31
0.0
  0
LINE
  8
1
  6
DOT
 62
     6
  5
283
 10
49180.068065
 20
11994.523808
 30
0.0
 11
49155.588597
 21
11952.474108
 31
0.0
  0
LINE
  8
1
  6
DOT
 62
     6
  5
284
 10
49155.588597
 20
11952.474108
 30
0.0
 11
49136.983558
 21
11905.112523
 31
0.0
  0
LINE
  8
1
  6
DOT
 62
     6
  5
285
 10
49136.983558
 20
11905.112523
 30
0.0
 11
49124.850927
 21
11853.961294
 31
0.0
  0
LINE
  8
1
  6
DOT
 62
     6
  5
286
 10
49119.580658
 20
11800.664463
 30
0.0
 11
49121.342142
 21
11746.935034
 31
0.0
  0
LINE
  8
1
  6
DOT
 62
     6
  5
287
 10
49124.850927
 20
11853.961294
 30
0.0
 11
49119.580658
 21
11800.664463
 31
0.0
  0
LINE
  8
1
  6
DOT
 62
     6
  5
288
 10
49130.078763
 20
11694.499915
 30
0.0
 11
49145.509718
 21
11645.044415
 31
0.0
  0
LINE
  8
1
  6
DOT
 62
     6
  5
289
 10
49121.342142
 20
11746.935034
 30
0.0
 11
49130.078763
 21
11694.499915
 31
0.0
  0
LINE
  8
1
  6
DOT
 62
     6
  5
28A
 10
49145.509718
 20
11645.044415
 30
0.0
 11
49167.139045
 21
11600.158073
 31
0.0
  0
LINE
  8
1
  6
DOT
 62
     6
  5
28B
 10
49167.139045
 20
11600.158073
 30
0.0
 11
49194.271559
 21
11561.283574
 31
0.0
  0
LINE
  8
1
  6
DOT
 62
     6
  5
28C
 10
49226.035198
 20
11529.670376
 30
0.0
 11
49261.409053
 21
11506.334552
 31
0.0
  0
LINE
  8
1
  6
DOT
 62
     6
  5
28D
 10
49194.271559
 20
11561.283574
 30
0.0
 11
49226.035198
 21
11529.670376
 31
0.0
  0
LINE
  8
1
  6
DOT
 62
     6
  5
28E
 10
49551.869353
 20
11853.961294
 30
0.0
 11
49539.736722
 21
11905.112523
 31
0.0
  0
LINE
  8
1
  6
DOT
 62
     6
  5
28F
 10
49546.641517
 20
11694.499915
 30
0.0
 11
49555.378138
 21
11746.935034
 31
0.0
  0
LINE
  8
1
  6
DOT
 62
     6
  5
290
 10
49555.378138
 20
11746.935034
 30
0.0
 11
49557.139621
 21
11800.664463
 31
0.0
  0
LINE
  8
1
  6
DOT
 62
     6
  5
291
 10
49557.139621
 20
11800.664463
 30
0.0
 11
49551.869353
 21
11853.961294
 31
0.0
  0
LINE
  8
1
  6
DOT
 62
     6
  5
292
 10
49531.210561
 20
11645.044415
 30
0.0
 11
49546.641517
 21
11694.499915
 31
0.0
  0
LINE
  8
1
  6
DOT
 62
     6
  5
293
 10
49509.581235
 20
11600.158073
 30
0.0
 11
49531.210561
 21
11645.044415
 31
0.0
  0
LINE
  8
1
  6
DOT
 62
     6
  5
294
 10
49209.63517
 20
12029.910112
 30
0.0
 11
49180.068065
 21
11994.523808
 31
0.0
  0
LINE
  8
1
  6
DOT
 62
     6
  5
295
 10
49482.448721
 20
11561.283574
 30
0.0
 11
49509.581235
 21
11600.158073
 31
0.0
  0
LINE
  8
5
  6
CONTINUOUS
 62
     6
  5
296
 10
49355.373681
 20
12046.15833
 30
0.0
 11
49321.346599
 21
12046.15833
 31
0.0
  0
LINE
  8
5
  6
CONTINUOUS
 62
     6
  5
297
 10
49321.346599
 20
12046.15833
 30
0.0
 11
49287.866347
 21
12037.835357
 31
0.0
  0
LINE
  8
1
  6
DOT
 62
     6
  5
298
 10
49357.991149
 20
12085.997302
 30
0.0
 11
49318.729131
 21
12085.997302
 31
0.0
  0
LINE
  8
1
  6
DOT
 62
     6
  5
299
 10
49318.729131
 20
12085.997302
 30
0.0
 11
49280.098071
 21
12076.393872
 31
0.0
  0
LINE
  8
1
  6
DOT
 62
     6
  5
29A
 10
49558.36014
 20
12047.205014
 30
0.0
 11
49338.36014
 21
12087.205014
 31
0.0
  0
LINE
  8
1
  6
CONTINUOUS
 62
     5
  5
29B
 10
49088.358154
 20
11332.205414
 30
0.0
 11
49088.359029
 21
11212.205414
 31
0.0
  0
LINE
  8
5
  6
CONTINUOUS
 62
     5
  5
29C
 10
49118.6603
 20
13167.205957
 30
0.0
 11
49078.659778
 21
13167.205957
 31
0.0
  0
LINE
  8
5
  6
CONTINUOUS
 62
     3
  5
29D
 10
49633.660554
 20
13462.206114
 30
0.0
 11
49633.660554
 21
13362.206114
 31
0.0
  0
LINE
  8
5
  6
CONTINUOUS
 62
     3
  5
29E
 10
49103.660103
 20
13462.206114
 30
0.0
 11
49103.660103
 21
13362.206114
 31
0.0
  0
CIRCLE
  8
5
  6
CONTINUOUS
 62
     3
  5
29F
 10
49103.660103
 20
13462.206114
 30
0.0
 40
7.5
  0
CIRCLE
  8
5
  6
CONTINUOUS
 62
     3
  5
2A0
 10
49633.660554
 20
13462.206114
 30
0.0
 40
7.5
  0
CIRCLE
  8
5
  6
CONTINUOUS
 62
     3
  5
2A1
 10
49758.66114
 20
13462.206114
 30
0.0
 40
7.5
  0
TEXT
  8
5
  6
CONTINUOUS
 62
     3
  5
2A2
 10
49308.660329
 20
13462.206114
 30
0.0
 40
60.0
  1
530
 41
0.666667
  7

 72
     5
 11
49428.660329
 21
13462.206114
 31
0.0
  0
LINE
  8
5
  6
CONTINUOUS
 62
     3
  5
2A3
 10
49103.660103
 20
13462.206114
 30
0.0
 11
49633.660554
 21
13462.206114
 31
0.0
  0
TEXT
  8
5
  6
CONTINUOUS
 62
     3
  5
2A4
 10
49636.160847
 20
13462.206114
 30
0.0
 40
60.0
  1
125
 41
0.666667
  7

 72
     5
 11
49756.160847
 21
13462.206114
 31
0.0
  0
LINE
  8
5
  6
CONTINUOUS
 62
     3
  5
2A5
 10
49633.660554
 20
13462.206114
 30
0.0
 11
49758.66114
 21
13462.206114
 31
0.0
  0
LINE
  8
4
  6
CENTER1
 62
     2
  5
2A6
 10
48258.65914
 20
13382.208359
 30
0.0
 11
48258.65914
 21
11214.705414
 31
0.0
  0
LINE
  8
5
  6
CONTINUOUS
 62
     3
  5
2A7
 10
48258.65914
 20
10984.705414
 30
0.0
 11
48258.65914
 21
11184.705414
 31
0.0
  0
CIRCLE
  8
5
  6
CONTINUOUS
 62
     3
  5
2A8
 10
48258.65914
 20
10984.705414
 30
0.0
 40
7.5
  0
CIRCLE
  8
5
  6
CONTINUOUS
 62
     3
  5
2A9
 10
48258.65914
 20
11084.705414
 30
0.0
 40
7.5
  0
LINE
  8
5
  6
CONTINUOUS
 62
     3
  5
2AA
 10
49758.66114
 20
10984.705414
 30
0.0
 11
48258.65914
 21
10984.705414
 31
0.0
  0
LINE
  8
5
  6
CONTINUOUS
 62
     3
  5
2AB
 10
48258.65914
 20
11084.705414
 30
0.0
 11
48378.35914
 21
11084.705414
 31
0.0
  0
CIRCLE
  8
5
  6
CONTINUOUS
 62
     3
  5
2AC
 10
48258.65914
 20
13462.206114
 30
0.0
 40
7.5
  0
LINE
  8
5
  6
CONTINUOUS
 62
     3
  5
2AD
 10
48258.65914
 20
13462.206114
 30
0.0
 11
49103.660103
 21
13462.206114
 31
0.0
  0
TEXT
  8
5
  6
CONTINUOUS
 62
     3
  5
2AE
 10
48621.009622
 20
13462.206114
 30
0.0
 40
60.0
  1
845
 41
0.666667
  7

 72
     5
 11
48741.009622
 21
13462.206114
 31
0.0
  0
TEXT
  8
3
  6
CONTINUOUS
 62
     2
  5
2AF
 10
47938.35814
 20
12157.206314
 30
0.0
 40
60.0
  1
1,950
 50
90.0
 41
0.6
  7

 72
     5
 11
47938.35814
 21
12337.206314
 31
0.0
  0
CIRCLE
  8
5
  6
CONTINUOUS
 62
     3
  5
2B0
 10
47938.35814
 20
13222.206214
 30
0.0
 40
7.5
  0
CIRCLE
  8
5
  6
CONTINUOUS
 62
     3
  5
2B1
 10
47938.35814
 20
11272.206414
 30
0.0
 40
7.5
  0
LINE
  8
1
  6
CONTINUOUS
 62
     6
  5
2B2
 10
49668.35914
 20
9074.163786
 30
0.0
 11
49668.35914
 21
8994.163786
 31
0.0
  0
LINE
  8
1
  6
CONTINUOUS
 62
     6
  5
2B3
 10
49668.35914
 20
9074.163786
 30
0.0
 11
49668.35914
 21
8994.163786
 31
0.0
  0
LINE
  8
1
  6
CONTINUOUS
 62
     6
  5
2B4
 10
49668.35914
 20
9074.163786
 30
0.0
 11
49668.35914
 21
8994.163786
 31
0.0
  0
LINE
  8
1
  6
CONTINUOUS
 62
     6
  5
2B5
 10
49653.35914
 20
9074.163786
 30
0.0
 11
49668.35914
 21
9074.163786
 31
0.0
  0
LINE
  8
1
  6
CONTINUOUS
 62
     6
  5
2B6
 10
49668.35914
 20
9074.163786
 30
0.0
 11
49668.35914
 21
8994.163786
 31
0.0
  0
LINE
  8
1
  6
CONTINUOUS
 62
     6
  5
2B7
 10
49653.35914
 20
9074.163786
 30
0.0
 11
49653.35914
 21
9009.163786
 31
0.0
  0
LINE
  8
1
  6
CONTINUOUS
 62
     6
  5
2B8
 10
49433.35914
 20
8994.163786
 30
0.0
 11
49668.35914
 21
8994.163786
 31
0.0
  0
LINE
  8
1
  6
CONTINUOUS
 62
     6
  5
2B9
 10
49418.35914
 20
9009.163786
 30
0.0
 11
49653.35914
 21
9009.163786
 31
0.0
  0
LINE
  8
1
  6
CONTINUOUS
 62
     6
  5
2BA
 10
49433.35914
 20
8994.163786
 30
0.0
 11
49433.35914
 21
8884.163786
 31
0.0
  0
LINE
  8
1
  6
CONTINUOUS
 62
     6
  5
2BB
 10
49418.35914
 20
8884.163786
 30
0.0
 11
49418.35914
 21
9009.163786
 31
0.0
  0
LINE
  8
1
  6
CONTINUOUS
 62
     6
  5
2BC
 10
49418.35914
 20
8884.163786
 30
0.0
 11
49433.35914
 21
8884.163786
 31
0.0
  0
LINE
  8
2
  6
CONTINUOUS
 62
     2
  5
2BD
 10
48780.395874
 20
8324.163886
 30
0.0
 11
48348.35914
 21
8324.163886
 31
0.0
  0
LINE
  8
2
  6
CONTINUOUS
 62
     3
  5
2BE
 10
49668.35914
 20
8801.324986
 30
0.0
 11
49668.35914
 21
8274.163786
 31
0.0
  0
LINE
  8
5
  6
CONTINUOUS
 62
     5
  5
2BF
 10
48348.35914
 20
10574.163886
 30
0.0
 11
49668.35914
 21
10574.163886
 31
0.0
  0
LINE
  8
5
  6
CONTINUOUS
 62
     5
  5
2C0
 10
48348.35914
 20
10574.163886
 30
0.0
 11
48348.35914
 21
8274.163786
 31
0.0
  0
LINE
  8
5
  6
CONTINUOUS
 62
     5
  5
2C1
 10
48348.35914
 20
8274.163786
 30
0.0
 11
49668.35914
 21
8274.163786
 31
0.0
  0
LINE
  8
2
  6
CONTINUOUS
 62
     2
  5
2C2
 10
49643.35914
 20
8994.163786
 30
0.0
 11
49643.35914
 21
8274.163786
 31
0.0
  0
LINE
  8
8
  6
CENTER
 62
     2
  5
2C3
 10
48508.35914
 20
9724.163786
 30
0.0
 11
48508.35914
 21
9124.163786
 31
0.0
  0
LINE
  8
2
  6
CONTINUOUS
 62
     5
  5
2C4
 10
49668.35914
 20
10574.163886
 30
0.0
 11
49668.35914
 21
8274.164286
 31
0.0
  0
LINE
  8
8
  6
CENTER
 62
     2
  5
2C5
 10
48658.35914
 20
9724.163786
 30
0.0
 11
48658.35914
 21
9124.163786
 31
0.0
  0
LINE
  8
8
  6
CENTER
 62
     2
  5
2C6
 10
48808.35914
 20
9724.163786
 30
0.0
 11
48808.35914
 21
9124.163786
 31
0.0
  0
LINE
  8
8
  6
CENTER
 62
     2
  5
2C7
 10
48958.35914
 20
9724.163786
 30
0.0
 11
48958.35914
 21
9124.163786
 31
0.0
  0
LINE
  8
8
  6
CENTER
 62
     2
  5
2C8
 10
48508.35914
 20
9724.163786
 30
0.0
 11
48958.35914
 21
9724.163786
 31
0.0
  0
LINE
  8
8
  6
CENTER
 62
     2
  5
2C9
 10
48508.35914
 20
9124.163786
 30
0.0
 11
48958.35914
 21
9124.163786
 31
0.0
  0
LINE
  8
8
  6
CENTER
 62
     2
  5
2CA
 10
48508.35914
 20
9574.163786
 30
0.0
 11
48958.35914
 21
9574.163786
 31
0.0
  0
LINE
  8
8
  6
CENTER
 62
     2
  5
2CB
 10
48508.35914
 20
9424.163786
 30
0.0
 11
48958.35914
 21
9424.163786
 31
0.0
  0
LINE
  8
8
  6
CENTER
 62
     2
  5
2CC
 10
48508.35914
 20
9274.163786
 30
0.0
 11
48958.35914
 21
9274.163786
 31
0.0
  0
LINE
  8
5
  6
CONTINUOUS
 62
     3
  5
2CD
 10
48118.35914
 20
9724.163786
 30
0.0
 11
48318.35914
 21
9724.163786
 31
0.0
  0
LINE
  8
5
  6
CONTINUOUS
 62
     3
  5
2CE
 10
48118.35914
 20
8274.163786
 30
0.0
 11
48318.35914
 21
8274.163786
 31
0.0
  0
LINE
  8
5
  6
CONTINUOUS
 62
     3
  5
2CF
 10
48218.35914
 20
9124.163786
 30
0.0
 11
48318.35914
 21
9124.163786
 31
0.0
  0
CIRCLE
  8
5
  6
CONTINUOUS
 62
     3
  5
2D0
 10
48118.35914
 20
9724.163786
 30
0.0
 40
7.5
  0
CIRCLE
  8
5
  6
CONTINUOUS
 62
     3
  5
2D1
 10
48118.35914
 20
8274.163786
 30
0.0
 40
7.5
  0
CIRCLE
  8
5
  6
CONTINUOUS
 62
     3
  5
2D2
 10
48218.35914
 20
8274.163786
 30
0.0
 40
7.5
  0
CIRCLE
  8
5
  6
CONTINUOUS
 62
     3
  5
2D3
 10
48218.35914
 20
9124.163786
 30
0.0
 40
7.5
  0
CIRCLE
  8
5
  6
CONTINUOUS
 62
     3
  5
2D4
 10
48218.35914
 20
9724.163786
 30
0.0
 40
7.5
  0
TEXT
  8
5
  6
CONTINUOUS
 62
     3
  5
2D5
 10
48118.35914
 20
8909.163786
 30
0.0
 40
60.0
  1
1,450
 50
90.0
 41
0.6
  7

 72
     5
 11
48118.35914
 21
9089.163786
 31
0.0
  0
LINE
  8
5
  6
CONTINUOUS
 62
     3
  5
2D6
 10
48118.35914
 20
9724.163786
 30
0.0
 11
48118.35914
 21
8274.163786
 31
0.0
  0
TEXT
  8
5
  6
CONTINUOUS
 62
     3
  5
2D7
 10
48218.35914
 20
8639.163786
 30
0.0
 40
60.0
  1
850
 50
90.0
 41
0.666667
  7

 72
     5
 11
48218.35914
 21
8759.163786
 31
0.0
  0
LINE
  8
5
  6
CONTINUOUS
 62
     3
  5
2D8
 10
48218.35914
 20
8274.163786
 30
0.0
 11
48218.35914
 21
9124.163786
 31
0.0
  0
TEXT
  8
5
  6
CONTINUOUS
 62
     3
  5
2D9
 10
48218.35914
 20
9364.163786
 30
0.0
 40
60.0
  1
600
 50
90.0
 41
0.666667
  7

 72
     5
 11
48218.35914
 21
9484.163786
 31
0.0
  0
LINE
  8
5
  6
CONTINUOUS
 62
     3
  5
2DA
 10
48218.35914
 20
9124.163786
 30
0.0
 11
48218.35914
 21
9724.163786
 31
0.0
  0
LINE
  8
5
  6
CONTINUOUS
 62
     3
  5
2DB
 10
49668.35914
 20
9954.163786
 30
0.0
 11
49668.35914
 21
9754.163786
 31
0.0
  0
LINE
  8
5
  6
CONTINUOUS
 62
     3
  5
2DC
 10
49898.35914
 20
10574.163886
 30
0.0
 11
49698.35914
 21
10574.163886
 31
0.0
  0
LINE
  8
5
  6
CONTINUOUS
 62
     3
  5
2DD
 10
49898.35914
 20
8274.164286
 30
0.0
 11
49698.35914
 21
8274.164286
 31
0.0
  0
CIRCLE
  8
5
  6
CONTINUOUS
 62
     3
  5
2DE
 10
49898.35914
 20
8274.164286
 30
0.0
 40
7.5
  0
CIRCLE
  8
5
  6
CONTINUOUS
 62
     3
  5
2DF
 10
49898.35914
 20
10574.163886
 30
0.0
 40
7.5
  0
TEXT
  8
5
  6
CONTINUOUS
 62
     3
  5
2E0
 10
49898.35914
 20
9334.164086
 30
0.0
 40
60.0
  1
2,300
 50
90.0
 41
0.6
  7

 72
     5
 11
49898.35914
 21
9514.164086
 31
0.0
  0
LINE
  8
5
  6
CONTINUOUS
 62
     3
  5
2E1
 10
49898.35914
 20
8274.164286
 30
0.0
 11
49898.35914
 21
10574.163886
 31
0.0
  0
LINE
  8
5
  6
CONTINUOUS
 62
     5
  5
2E2
 10
48348.35914
 20
13107.206314
 30
0.0
 11
48348.35914
 21
11214.705414
 31
0.0
  0
CIRCLE
  8
5
  6
CONTINUOUS
 62
     3
  5
2E3
 10
48508.35914
 20
10054.163786
 30
0.0
 40
7.5
  0
CIRCLE
  8
5
  6
CONTINUOUS
 62
     3
  5
2E4
 10
49668.35914
 20
10054.163786
 30
0.0
 40
7.5
  0
CIRCLE
  8
5
  6
CONTINUOUS
 62
     3
  5
2E5
 10
48508.35914
 20
9954.163786
 30
0.0
 40
7.5
  0
CIRCLE
  8
5
  6
CONTINUOUS
 62
     3
  5
2E6
 10
48958.35914
 20
9954.163786
 30
0.0
 40
7.5
  0
CIRCLE
  8
5
  6
CONTINUOUS
 62
     3
  5
2E7
 10
49668.35914
 20
9954.163786
 30
0.0
 40
7.5
  0
TEXT
  8
5
  6
CONTINUOUS
 62
     3
  5
2E8
 10
49253.35914
 20
9954.163786
 30
0.0
 40
60.0
  1
710
 41
0.666667
  7

 72
     5
 11
49373.35914
 21
9954.163786
 31
0.0
  0
LINE
  8
5
  6
CONTINUOUS
 62
     3
  5
2E9
 10
48958.35914
 20
9954.163786
 30
0.0
 11
49668.35914
 21
9954.163786
 31
0.0
  0
LINE
  8
5
  6
CONTINUOUS
 62
     3
  5
2EA
 10
48508.35914
 20
10054.163786
 30
0.0
 11
48508.35914
 21
9754.163786
 31
0.0
  0
LINE
  8
5
  6
CONTINUOUS
 62
     3
  5
2EB
 10
48508.35914
 20
9954.163786
 30
0.0
 11
48958.35914
 21
9954.163786
 31
0.0
  0
LINE
  8
5
  6
CONTINUOUS
 62
     3
  5
2EC
 10
48958.35914
 20
9954.163786
 30
0.0
 11
48958.35914
 21
9754.163786
 31
0.0
  0
TEXT
  8
5
  6
CONTINUOUS
 62
     3
  5
2ED
 10
48673.35914
 20
9954.163786
 30
0.0
 40
60.0
  1
450
 41
0.666667
  7

 72
     5
 11
48793.35914
 21
9954.163786
 31
0.0
  0
LINE
  8
2
  6
CONTINUOUS
 62
     3
  5
2EE
 10
49668.35914
 20
10054.163786
 30
0.0
 11
49668.35914
 21
8274.163786
 31
0.0
  0
LINE
  8
5
  6
CONTINUOUS
 62
     3
  5
2EF
 10
48508.35914
 20
10054.163786
 30
0.0
 11
49668.35914
 21
10054.163786
 31
0.0
  0
TEXT
  8
5
  6
CONTINUOUS
 62
     3
  5
2F0
 10
48998.35914
 20
10054.163786
 30
0.0
 40
60.0
  1
1,160
 41
0.6
  7

 72
     5
 11
49178.35914
 21
10054.163786
 31
0.0
  0
TEXT
  8
5
  6
CONTINUOUS
 62
     3
  5
2F1
 10
48660.989699
 20
9813.563786
 30
0.0
 40
60.0
  1
テスリックス
 41
0.837
  7

 72
     5
 11
49020.989699
 21
9813.563786
 31
0.0
  0
LINE
  8
5
  6
CONTINUOUS
 62
     3
  5
2F2
 10
48610.989699
 20
9813.563786
 30
0.0
 11
49020.989699
 21
9813.563786
 31
0.0
  0
LINE
  8
5
  6
CONTINUOUS
 62
     3
  5
2F3
 10
48567.688429
 20
9738.563786
 30
0.0
 11
48610.989699
 21
9813.563786
 31
0.0
  0
ARC
  8
8
  6
CONTINUOUS
 62
     4
  5
2F4
 10
48538.95914
 20
9693.563786
 30
0.0
 40
45.0
 50
90.0
 51
180.0
  0
ARC
  8
8
  6
CONTINUOUS
 62
     4
  5
2F5
 10
48540.75914
 20
9691.763786
 30
0.0
 40
18.0
 50
90.0
 51
180.0
  0
ARC
  8
8
  6
CONTINUOUS
 62
     4
  5
2F6
 10
48625.95914
 20
9606.563786
 30
0.0
 40
18.0
 50
270.0
 51
0.0
  0
ARC
  8
8
  6
CONTINUOUS
 62
     4
  5
2F7
 10
48625.95914
 20
9541.763786
 30
0.0
 40
18.0
 50
0.0
 51
90.0
  0
LINE
  8
8
  6
CONTINUOUS
 62
     4
  5
2F8
 10
48643.95914
 20
9691.763786
 30
0.0
 11
48643.95914
 21
9606.563786
 31
0.0
  0
LINE
  8
8
  6
CONTINUOUS
 62
     4
  5
2F9
 10
48625.95914
 20
9588.563786
 30
0.0
 11
48540.75914
 21
9588.563786
 31
0.0
  0
LINE
  8
8
  6
CONTINUOUS
 62
     4
  5
2FA
 10
48625.95914
 20
9559.763786
 30
0.0
 11
48540.75914
 21
9559.763786
 31
0.0
  0
ARC
  8
8
  6
CONTINUOUS
 62
     4
  5
2FB
 10
48516.35914
 20
9574.163786
 30
0.0
 40
45.0
 50
18.68
 51
81.82
  0
ARC
  8
8
  6
DIVIDE
 62
     4
  5
2FC
 10
48516.35914
 20
9574.163786
 30
0.0
 40
42.7
 50
19.71
 51
81.38
  0
ARC
  8
8
  6
DIVIDE
 62
     4
  5
2FD
 10
48516.35914
 20
9574.163786
 30
0.0
 40
42.7
 50
278.62
 51
340.29
  0
ARC
  8
8
  6
CONTINUOUS
 62
     4
  5
2FE
 10
48516.35914
 20
9574.163786
 30
0.0
 40
45.0
 50
278.18
 51
341.32
  0
ARC
  8
8
  6
CONTINUOUS
 62
     4
  5
2FF
 10
48927.75914
 20
9693.563786
 30
0.0
 40
45.0
 50
0.0
 51
90.0
  0
ARC
  8
8
  6
CONTINUOUS
 62
     4
  5
300
 10
48925.95914
 20
9691.763786
 30
0.0
 40
18.0
 50
0.0
 51
90.0
  0
LINE
  8
8
  6
CONTINUOUS
 62
     4
  5
301
 10
48775.95914
 20
9588.563786
 30
0.0
 11
48690.75914
 21
9588.563786
 31
0.0
  0
LINE
  8
8
  6
CONTINUOUS
 62
     4
  5
302
 10
48775.95914
 20
9559.763786
 30
0.0
 11
48690.75914
 21
9559.763786
 31
0.0
  0
ARC
  8
8
  6
CONTINUOUS
 62
     4
  5
303
 10
48775.95914
 20
9606.563786
 30
0.0
 40
18.0
 50
270.0
 51
0.0
  0
ARC
  8
8
  6
CONTINUOUS
 62
     4
  5
304
 10
48775.95914
 20
9541.763786
 30
0.0
 40
18.0
 50
0.0
 51
90.0
  0
LINE
  8
8
  6
CONTINUOUS
 62
     4
  5
305
 10
48943.95914
 20
9691.763786
 30
0.0
 11
48943.95914
 21
9606.563786
 31
0.0
  0
LINE
  8
8
  6
CONTINUOUS
 62
     4
  5
306
 10
48822.75914
 20
9691.763786
 30
0.0
 11
48822.75914
 21
9606.563786
 31
0.0
  0
LINE
  8
8
  6
CONTINUOUS
 62
     4
  5
307
 10
48793.95914
 20
9691.763786
 30
0.0
 11
48793.95914
 21
9606.563786
 31
0.0
  0
ARC
  8
8
  6
CONTINUOUS
 62
     4
  5
308
 10
48932.85914
 20
9604.463786
 30
0.0
 40
7.7
 50
210.0
 51
30.0
  0
ARC
  8
8
  6
CONTINUOUS
 62
     4
  5
309
 10
48950.35914
 20
9574.163786
 30
0.0
 40
41.8
 50
110.63
 51
129.02
  0
LINE
  8
8
  6
CONTINUOUS
 62
     4
  5
30A
 10
48938.75914
 20
9607.863786
 30
0.0
 11
48935.65914
 21
9613.263786
 31
0.0
  0
LINE
  8
8
  6
CONTINUOUS
 62
     4
  5
30B
 10
48936.05914
 20
9614.363786
 30
0.0
 11
48939.55914
 21
9608.363786
 31
0.0
  0
ARC
  8
8
  6
DIVIDE
 62
     4
  5
30C
 10
48950.35914
 20
9574.163786
 30
0.0
 40
42.7
 50
98.62
 51
160.29
  0
ARC
  8
8
  6
CONTINUOUS
 62
     4
  5
30D
 10
48950.35914
 20
9574.163786
 30
0.0
 40
45.0
 50
98.18
 51
161.32
  0
CIRCLE
  8
8
  6
CONTINUOUS
 62
     4
  5
30E
 10
48932.85914
 20
9604.463786
 30
0.0
 40
4.0
  0
CIRCLE
  8
8
  6
CONTINUOUS
 62
     4
  5
30F
 10
48932.85914
 20
9604.463786
 30
0.0
 40
4.4
  0
ARC
  8
8
  6
CONTINUOUS
 62
     4
  5
310
 10
48690.75914
 20
9606.563786
 30
0.0
 40
18.0
 50
180.0
 51
270.0
  0
ARC
  8
8
  6
CONTINUOUS
 62
     4
  5
311
 10
48690.75914
 20
9541.763786
 30
0.0
 40
18.0
 50
90.0
 51
180.0
  0
LINE
  8
8
  6
CONTINUOUS
 62
     4
  5
312
 10
48672.75914
 20
9691.763786
 30
0.0
 11
48672.75914
 21
9606.563786
 31
0.0
  0
LINE
  8
8
  6
CONTINUOUS
 62
     4
  5
313
 10
48643.95914
 20
9241.763786
 30
0.0
 11
48643.95914
 21
9156.563786
 31
0.0
  0
LINE
  8
8
  6
CONTINUOUS
 62
     4
  5
314
 10
48672.75914
 20
9241.763786
 30
0.0
 11
48672.75914
 21
9156.563786
 31
0.0
  0
LINE
  8
8
  6
CONTINUOUS
 62
     4
  5
315
 10
48793.95914
 20
9241.763786
 30
0.0
 11
48793.95914
 21
9156.563786
 31
0.0
  0
LINE
  8
8
  6
CONTINUOUS
 62
     4
  5
316
 10
48672.75914
 20
9541.763786
 30
0.0
 11
48672.75914
 21
9456.563786
 31
0.0
  0
LINE
  8
8
  6
CONTINUOUS
 62
     4
  5
317
 10
48775.95914
 20
9288.563786
 30
0.0
 11
48690.75914
 21
9288.563786
 31
0.0
  0
LINE
  8
8
  6
CONTINUOUS
 62
     4
  5
318
 10
48775.95914
 20
9259.763786
 30
0.0
 11
48690.75914
 21
9259.763786
 31
0.0
  0
LINE
  8
8
  6
CONTINUOUS
 62
     4
  5
319
 10
48672.75914
 20
9391.763786
 30
0.0
 11
48672.75914
 21
9306.563786
 31
0.0
  0
LINE
  8
8
  6
CONTINUOUS
 62
     4
  5
31A
 10
48793.95914
 20
9391.763786
 30
0.0
 11
48793.95914
 21
9306.563786
 31
0.0
  0
LINE
  8
8
  6
CONTINUOUS
 62
     4
  5
31B
 10
48793.95914
 20
9541.763786
 30
0.0
 11
48793.95914
 21
9456.563786
 31
0.0
  0
ARC
  8
8
  6
CONTINUOUS
 62
     4
  5
31C
 10
48690.75914
 20
9306.563786
 30
0.0
 40
18.0
 50
180.0
 51
270.0
  0
ARC
  8
8
  6
CONTINUOUS
 62
     4
  5
31D
 10
48775.95914
 20
9241.763786
 30
0.0
 40
18.0
 50
0.0
 51
90.0
  0
ARC
  8
8
  6
CONTINUOUS
 62
     4
  5
31E
 10
48775.95914
 20
9306.563786
 30
0.0
 40
18.0
 50
270.0
 51
0.0
  0
ARC
  8
8
  6
CONTINUOUS
 62
     4
  5
31F
 10
48690.75914
 20
9241.763786
 30
0.0
 40
18.0
 50
90.0
 51
180.0
  0
LINE
  8
8
  6
CONTINUOUS
 62
     4
  5
320
 10
48643.95914
 20
9391.763786
 30
0.0
 11
48643.95914
 21
9306.563786
 31
0.0
  0
LINE
  8
8
  6
CONTINUOUS
 62
     4
  5
321
 10
48643.95914
 20
9541.763786
 30
0.0
 11
48643.95914
 21
9456.563786
 31
0.0
  0
ARC
  8
8
  6
CONTINUOUS
 62
     4
  5
322
 10
48625.95914
 20
9241.763786
 30
0.0
 40
18.0
 50
0.0
 51
90.0
  0
ARC
  8
8
  6
CONTINUOUS
 62
     4
  5
323
 10
48625.95914
 20
9306.563786
 30
0.0
 40
18.0
 50
270.0
 51
0.0
  0
ARC
  8
8
  6
CONTINUOUS
 62
     4
  5
324
 10
48538.95914
 20
9154.763786
 30
0.0
 40
45.0
 50
180.0
 51
270.0
  0
ARC
  8
8
  6
CONTINUOUS
 62
     4
  5
325
 10
48540.75914
 20
9156.563786
 30
0.0
 40
18.0
 50
180.0
 51
270.0
  0
LINE
  8
8
  6
CONTINUOUS
 62
     4
  5
326
 10
48625.95914
 20
9438.563786
 30
0.0
 11
48540.75914
 21
9438.563786
 31
0.0
  0
LINE
  8
8
  6
CONTINUOUS
 62
     4
  5
327
 10
48625.95914
 20
9409.763786
 30
0.0
 11
48540.35914
 21
9409.763786
 31
0.0
  0
LINE
  8
8
  6
CONTINUOUS
 62
     4
  5
328
 10
48775.95914
 20
9438.563786
 30
0.0
 11
48690.75914
 21
9438.563786
 31
0.0
  0
LINE
  8
8
  6
CONTINUOUS
 62
     4
  5
329
 10
48775.95914
 20
9409.763786
 30
0.0
 11
48690.45914
 21
9409.763786
 31
0.0
  0
ARC
  8
8
  6
CONTINUOUS
 62
     4
  5
32A
 10
48690.75914
 20
9456.563786
 30
0.0
 40
18.0
 50
180.0
 51
270.0
  0
ARC
  8
8
  6
CONTINUOUS
 62
     4
  5
32B
 10
48690.75914
 20
9391.763786
 30
0.0
 40
18.0
 50
90.0
 51
180.0
  0
ARC
  8
8
  6
CONTINUOUS
 62
     4
  5
32C
 10
48775.95914
 20
9456.563786
 30
0.0
 40
18.0
 50
270.0
 51
0.0
  0
ARC
  8
8
  6
CONTINUOUS
 62
     4
  5
32D
 10
48775.95914
 20
9391.763786
 30
0.0
 40
18.0
 50
0.0
 51
90.0
  0
ARC
  8
8
  6
CONTINUOUS
 62
     4
  5
32E
 10
48625.95914
 20
9456.563786
 30
0.0
 40
18.0
 50
270.0
 51
0.0
  0
ARC
  8
8
  6
CONTINUOUS
 62
     4
  5
32F
 10
48625.95914
 20
9391.763786
 30
0.0
 40
18.0
 50
0.0
 51
90.0
  0
LINE
  8
8
  6
CONTINUOUS
 62
     4
  5
330
 10
48625.95914
 20
9288.563786
 30
0.0
 11
48540.75914
 21
9288.563786
 31
0.0
  0
LINE
  8
8
  6
CONTINUOUS
 62
     4
  5
331
 10
48625.95914
 20
9259.763786
 30
0.0
 11
48540.75914
 21
9259.763786
 31
0.0
  0
ARC
  8
8
  6
DIVIDE
 62
     4
  5
332
 10
48516.35914
 20
9274.163786
 30
0.0
 40
42.7
 50
19.71
 51
81.38
  0
ARC
  8
8
  6
CONTINUOUS
 62
     4
  5
333
 10
48516.35914
 20
9274.163786
 30
0.0
 40
45.0
 50
18.68
 51
81.82
  0
ARC
  8
8
  6
CONTINUOUS
 62
     4
  5
334
 10
48516.35914
 20
9274.163786
 30
0.0
 40
45.0
 50
278.18
 51
341.32
  0
ARC
  8
8
  6
DIVIDE
 62
     4
  5
335
 10
48516.35914
 20
9274.163786
 30
0.0
 40
42.7
 50
278.62
 51
340.29
  0
LINE
  8
8
  6
CONTINUOUS
 62
     4
  5
336
 10
48822.75914
 20
9241.763786
 30
0.0
 11
48822.75914
 21
9156.563786
 31
0.0
  0
LINE
  8
8
  6
CONTINUOUS
 62
     4
  5
337
 10
48822.75914
 20
9391.763786
 30
0.0
 11
48822.75914
 21
9306.563786
 31
0.0
  0
LINE
  8
8
  6
CONTINUOUS
 62
     4
  5
338
 10
48822.75914
 20
9541.763786
 30
0.0
 11
48822.75914
 21
9456.563786
 31
0.0
  0
ARC
  8
8
  6
CONTINUOUS
 62
     4
  5
339
 10
48840.75914
 20
9241.763786
 30
0.0
 40
18.0
 50
90.0
 51
180.0
  0
ARC
  8
8
  6
CONTINUOUS
 62
     4
  5
33A
 10
48840.75914
 20
9306.563786
 30
0.0
 40
18.0
 50
180.0
 51
270.0
  0
ARC
  8
8
  6
CONTINUOUS
 62
     4
  5
33B
 10
48927.75914
 20
9154.763786
 30
0.0
 40
45.0
 50
270.0
 51
0.0
  0
ARC
  8
8
  6
CONTINUOUS
 62
     4
  5
33C
 10
48925.95914
 20
9156.563786
 30
0.0
 40
18.0
 50
270.0
 51
0.0
  0
ARC
  8
8
  6
CONTINUOUS
 62
     4
  5
33D
 10
48925.95914
 20
9456.563786
 30
0.0
 40
18.0
 50
270.0
 51
0.0
  0
ARC
  8
8
  6
CONTINUOUS
 62
     4
  5
33E
 10
48925.95914
 20
9391.763786
 30
0.0
 40
18.0
 50
0.0
 51
90.0
  0
LINE
  8
8
  6
CONTINUOUS
 62
     4
  5
33F
 10
48840.75914
 20
9438.563786
 30
0.0
 11
48925.95914
 21
9438.563786
 31
0.0
  0
LINE
  8
8
  6
CONTINUOUS
 62
     4
  5
340
 10
48840.75914
 20
9409.763786
 30
0.0
 11
48926.35914
 21
9409.763786
 31
0.0
  0
ARC
  8
8
  6
CONTINUOUS
 62
     4
  5
341
 10
48840.75914
 20
9456.563786
 30
0.0
 40
18.0
 50
180.0
 51
270.0
  0
ARC
  8
8
  6
CONTINUOUS
 62
     4
  5
342
 10
48840.75914
 20
9391.763786
 30
0.0
 40
18.0
 50
90.0
 51
180.0
  0
LINE
  8
8
  6
CONTINUOUS
 62
     4
  5
343
 10
48943.95914
 20
9541.763786
 30
0.0
 11
48943.95914
 21
9456.563786
 31
0.0
  0
LINE
  8
8
  6
CONTINUOUS
 62
     4
  5
344
 10
48943.95914
 20
9391.763786
 30
0.0
 11
48943.95914
 21
9306.563786
 31
0.0
  0
ARC
  8
8
  6
CONTINUOUS
 62
     4
  5
345
 10
48925.95914
 20
9306.563786
 30
0.0
 40
18.0
 50
270.0
 51
0.0
  0
LINE
  8
8
  6
CONTINUOUS
 62
     4
  5
346
 10
48840.75914
 20
9288.563786
 30
0.0
 11
48925.95914
 21
9288.563786
 31
0.0
  0
ARC
  8
8
  6
CONTINUOUS
 62
     4
  5
347
 10
48925.95914
 20
9241.763786
 30
0.0
 40
18.0
 50
0.0
 51
90.0
  0
LINE
  8
8
  6
CONTINUOUS
 62
     4
  5
348
 10
48840.75914
 20
9259.763786
 30
0.0
 11
48925.95914
 21
9259.763786
 31
0.0
  0
LINE
  8
8
  6
CONTINUOUS
 62
     4
  5
349
 10
48943.95914
 20
9241.763786
 30
0.0
 11
48943.95914
 21
9156.563786
 31
0.0
  0
ARC
  8
8
  6
CONTINUOUS
 62
     4
  5
34A
 10
48932.85914
 20
9243.863786
 30
0.0
 40
7.7
 50
330.0
 51
150.0
  0
ARC
  8
8
  6
CONTINUOUS
 62
     4
  5
34B
 10
48932.85914
 20
9243.863786
 30
0.0
 40
6.8
 50
330.0
 51
150.0
  0
LINE
  8
8
  6
CONTINUOUS
 62
     4
  5
34C
 10
48935.95914
 20
9233.963786
 30
0.0
 11
48939.45914
 21
9240.063786
 31
0.0
  0
LINE
  8
8
  6
CONTINUOUS
 62
     4
  5
34D
 10
48938.65914
 20
9240.463786
 30
0.0
 11
48935.55914
 21
9235.063786
 31
0.0
  0
ARC
  8
8
  6
CONTINUOUS
 62
     4
  5
34E
 10
48950.35914
 20
9274.163786
 30
0.0
 40
41.8
 50
230.63
 51
249.02
  0
LINE
  8
8
  6
CONTINUOUS
 62
     4
  5
34F
 10
48926.95914
 20
9247.263786
 30
0.0
 11
48923.85914
 21
9241.863786
 31
0.0
  0
LINE
  8
8
  6
CONTINUOUS
 62
     4
  5
350
 10
48922.65914
 20
9241.663786
 30
0.0
 11
48926.15914
 21
9247.663786
 31
0.0
  0
ARC
  8
8
  6
DIVIDE
 62
     4
  5
351
 10
48950.35914
 20
9274.163786
 30
0.0
 40
42.7
 50
199.71
 51
261.38
  0
ARC
  8
8
  6
CONTINUOUS
 62
     4
  5
352
 10
48950.35914
 20
9274.163786
 30
0.0
 40
45.0
 50
198.68
 51
261.82
  0
CIRCLE
  8
8
  6
CONTINUOUS
 62
     4
  5
353
 10
48932.85914
 20
9243.863786
 30
0.0
 40
4.0
  0
CIRCLE
  8
8
  6
CONTINUOUS
 62
     4
  5
354
 10
48932.85914
 20
9243.863786
 30
0.0
 40
4.4
  0
ARC
  8
8
  6
CONTINUOUS
 62
     4
  5
355
 10
48932.85914
 20
9304.463786
 30
0.0
 40
7.7
 50
210.0
 51
30.0
  0
ARC
  8
8
  6
CONTINUOUS
 62
     4
  5
356
 10
48932.85914
 20
9304.463786
 30
0.0
 40
6.8
 50
210.0
 51
30.0
  0
LINE
  8
8
  6
CONTINUOUS
 62
     4
  5
357
 10
48922.75914
 20
9306.763786
 30
0.0
 11
48926.25914
 21
9300.663786
 31
0.0
  0
LINE
  8
8
  6
CONTINUOUS
 62
     4
  5
358
 10
48927.05914
 20
9301.163786
 30
0.0
 11
48923.85914
 21
9306.563786
 31
0.0
  0
ARC
  8
8
  6
CONTINUOUS
 62
     4
  5
359
 10
48950.35914
 20
9274.163786
 30
0.0
 40
41.8
 50
110.63
 51
129.02
  0
LINE
  8
8
  6
CONTINUOUS
 62
     4
  5
35A
 10
48938.75914
 20
9307.863786
 30
0.0
 11
48935.65914
 21
9313.263786
 31
0.0
  0
LINE
  8
8
  6
CONTINUOUS
 62
     4
  5
35B
 10
48936.05914
 20
9314.363786
 30
0.0
 11
48939.55914
 21
9308.363786
 31
0.0
  0
ARC
  8
8
  6
DIVIDE
 62
     4
  5
35C
 10
48950.35914
 20
9274.163786
 30
0.0
 40
42.7
 50
98.62
 51
160.29
  0
ARC
  8
8
  6
CONTINUOUS
 62
     4
  5
35D
 10
48950.35914
 20
9274.163786
 30
0.0
 40
45.0
 50
98.18
 51
161.32
  0
CIRCLE
  8
8
  6
CONTINUOUS
 62
     4
  5
35E
 10
48932.85914
 20
9304.463786
 30
0.0
 40
4.0
  0
CIRCLE
  8
8
  6
CONTINUOUS
 62
     4
  5
35F
 10
48932.85914
 20
9304.463786
 30
0.0
 40
4.4
  0
ARC
  8
8
  6
CONTINUOUS
 62
     4
  5
360
 10
48840.75914
 20
9606.563786
 30
0.0
 40
18.0
 50
180.0
 51
270.0
  0
ARC
  8
8
  6
CONTINUOUS
 62
     4
  5
361
 10
48840.75914
 20
9541.763786
 30
0.0
 40
18.0
 50
90.0
 51
180.0
  0
LINE
  8
8
  6
CONTINUOUS
 62
     4
  5
362
 10
48840.75914
 20
9588.563786
 30
0.0
 11
48925.95914
 21
9588.563786
 31
0.0
  0
ARC
  8
8
  6
CONTINUOUS
 62
     4
  5
363
 10
48925.95914
 20
9606.563786
 30
0.0
 40
18.0
 50
270.0
 51
0.0
  0
ARC
  8
8
  6
CONTINUOUS
 62
     4
  5
364
 10
48925.95914
 20
9541.763786
 30
0.0
 40
18.0
 50
0.0
 51
90.0
  0
LINE
  8
8
  6
CONTINUOUS
 62
     4
  5
365
 10
48840.75914
 20
9559.763786
 30
0.0
 11
48925.95914
 21
9559.763786
 31
0.0
  0
ARC
  8
8
  6
CONTINUOUS
 62
     4
  5
366
 10
48932.85914
 20
9604.463786
 30
0.0
 40
6.8
 50
210.0
 51
30.0
  0
LINE
  8
8
  6
CONTINUOUS
 62
     4
  5
367
 10
48922.75914
 20
9606.763786
 30
0.0
 11
48926.25914
 21
9600.663786
 31
0.0
  0
LINE
  8
8
  6
CONTINUOUS
 62
     4
  5
368
 10
48927.05914
 20
9601.163786
 30
0.0
 11
48923.85914
 21
9606.563786
 31
0.0
  0
ARC
  8
8
  6
CONTINUOUS
 62
     4
  5
369
 10
48932.85914
 20
9543.863786
 30
0.0
 40
7.7
 50
330.0
 51
150.0
  0
ARC
  8
8
  6
CONTINUOUS
 62
     4
  5
36A
 10
48932.85914
 20
9543.863786
 30
0.0
 40
6.8
 50
330.0
 51
150.0
  0
LINE
  8
8
  6
CONTINUOUS
 62
     4
  5
36B
 10
48935.95914
 20
9533.963786
 30
0.0
 11
48939.45914
 21
9540.063786
 31
0.0
  0
LINE
  8
8
  6
CONTINUOUS
 62
     4
  5
36C
 10
48938.65914
 20
9540.463786
 30
0.0
 11
48935.55914
 21
9535.063786
 31
0.0
  0
ARC
  8
8
  6
CONTINUOUS
 62
     4
  5
36D
 10
48950.35914
 20
9574.163786
 30
0.0
 40
41.8
 50
230.63
 51
249.02
  0
LINE
  8
8
  6
CONTINUOUS
 62
     4
  5
36E
 10
48926.95914
 20
9547.263786
 30
0.0
 11
48923.85914
 21
9541.863786
 31
0.0
  0
LINE
  8
8
  6
CONTINUOUS
 62
     4
  5
36F
 10
48922.65914
 20
9541.663786
 30
0.0
 11
48926.15914
 21
9547.663786
 31
0.0
  0
ARC
  8
8
  6
DIVIDE
 62
     4
  5
370
 10
48950.35914
 20
9574.163786
 30
0.0
 40
42.7
 50
199.71
 51
261.38
  0
ARC
  8
8
  6
CONTINUOUS
 62
     4
  5
371
 10
48950.35914
 20
9574.163786
 30
0.0
 40
45.0
 50
198.68
 51
261.82
  0
CIRCLE
  8
8
  6
CONTINUOUS
 62
     4
  5
372
 10
48932.85914
 20
9543.863786
 30
0.0
 40
4.0
  0
CIRCLE
  8
8
  6
CONTINUOUS
 62
     4
  5
373
 10
48932.85914
 20
9543.863786
 30
0.0
 40
4.4
  0
LINE
  8
8
  6
CONTINUOUS
 62
     4
  5
374
 10
48927.75914
 20
9109.763786
 30
0.0
 11
48538.95914
 21
9109.763786
 31
0.0
  0
LINE
  8
8
  6
CONTINUOUS
 62
     4
  5
375
 10
48625.95914
 20
9138.563786
 30
0.0
 11
48540.75914
 21
9138.563786
 31
0.0
  0
LINE
  8
8
  6
CONTINUOUS
 62
     4
  5
376
 10
48775.95914
 20
9138.563786
 30
0.0
 11
48690.75914
 21
9138.563786
 31
0.0
  0
ARC
  8
8
  6
CONTINUOUS
 62
     4
  5
377
 10
48690.75914
 20
9156.563786
 30
0.0
 40
18.0
 50
180.0
 51
270.0
  0
ARC
  8
8
  6
CONTINUOUS
 62
     4
  5
378
 10
48775.95914
 20
9156.563786
 30
0.0
 40
18.0
 50
270.0
 51
0.0
  0
ARC
  8
8
  6
CONTINUOUS
 62
     4
  5
379
 10
48625.95914
 20
9156.563786
 30
0.0
 40
18.0
 50
270.0
 51
0.0
  0
LINE
  8
8
  6
CONTINUOUS
 62
     4
  5
37A
 10
48840.75914
 20
9138.563786
 30
0.0
 11
48925.95914
 21
9138.563786
 31
0.0
  0
ARC
  8
8
  6
CONTINUOUS
 62
     4
  5
37B
 10
48840.75914
 20
9156.563786
 30
0.0
 40
18.0
 50
180.0
 51
270.0
  0
LINE
  8
8
  6
CONTINUOUS
 62
     4
  5
37C
 10
48972.75914
 20
9693.563786
 30
0.0
 11
48972.75914
 21
9154.763786
 31
0.0
  0
LINE
  8
8
  6
CONTINUOUS
 62
     4
  5
37D
 10
48927.75914
 20
9738.563786
 30
0.0
 11
48538.95914
 21
9738.563786
 31
0.0
  0
ARC
  8
8
  6
CONTINUOUS
 62
     4
  5
37E
 10
48625.95914
 20
9691.763786
 30
0.0
 40
18.0
 50
0.0
 51
90.0
  0
LINE
  8
8
  6
CONTINUOUS
 62
     4
  5
37F
 10
48540.75914
 20
9709.763786
 30
0.0
 11
48625.95914
 21
9709.763786
 31
0.0
  0
ARC
  8
8
  6
CONTINUOUS
 62
     4
  5
380
 10
48775.95914
 20
9691.763786
 30
0.0
 40
18.0
 50
0.0
 51
90.0
  0
ARC
  8
8
  6
CONTINUOUS
 62
     4
  5
381
 10
48840.75914
 20
9691.763786
 30
0.0
 40
18.0
 50
90.0
 51
180.0
  0
LINE
  8
8
  6
CONTINUOUS
 62
     4
  5
382
 10
48925.95914
 20
9709.763786
 30
0.0
 11
48840.75914
 21
9709.763786
 31
0.0
  0
LINE
  8
8
  6
CONTINUOUS
 62
     4
  5
383
 10
48690.75914
 20
9709.763786
 30
0.0
 11
48775.95914
 21
9709.763786
 31
0.0
  0
ARC
  8
8
  6
CONTINUOUS
 62
     4
  5
384
 10
48950.35914
 20
9574.163786
 30
0.0
 40
45.0
 50
299.87
 51
60.13
  0
ARC
  8
8
  6
DIVIDE
 62
     4
  5
385
 10
48950.35914
 20
9574.163786
 30
0.0
 40
42.7
 50
301.61
 51
58.39
  0
ARC
  8
8
  6
CONTINUOUS
 62
     4
  5
386
 10
48690.75914
 20
9691.763786
 30
0.0
 40
18.0
 50
90.0
 51
180.0
  0
ARC
  8
8
  6
CONTINUOUS
 62
     4
  5
387
 10
48985.35914
 20
9274.163786
 30
0.0
 40
7.7
 50
90.0
 51
270.0
  0
ARC
  8
8
  6
CONTINUOUS
 62
     4
  5
388
 10
48985.35914
 20
9274.163786
 30
0.0
 40
6.8
 50
90.0
 51
270.0
  0
LINE
  8
8
  6
CONTINUOUS
 62
     4
  5
389
 10
48992.35914
 20
9281.763786
 30
0.0
 11
48985.35914
 21
9281.763786
 31
0.0
  0
LINE
  8
8
  6
CONTINUOUS
 62
     4
  5
38A
 10
48985.35914
 20
9280.863786
 30
0.0
 11
48991.65914
 21
9280.863786
 31
0.0
  0
ARC
  8
8
  6
CONTINUOUS
 62
     4
  5
38B
 10
48950.35914
 20
9274.163786
 30
0.0
 40
41.8
 50
350.63
 51
9.02
  0
LINE
  8
8
  6
CONTINUOUS
 62
     4
  5
38C
 10
48985.35914
 20
9267.363786
 30
0.0
 11
48991.55914
 21
9267.363786
 31
0.0
  0
LINE
  8
8
  6
CONTINUOUS
 62
     4
  5
38D
 10
48992.35914
 20
9266.463786
 30
0.0
 11
48985.35914
 21
9266.463786
 31
0.0
  0
ARC
  8
8
  6
DIVIDE
 62
     4
  5
38E
 10
48950.35914
 20
9274.163786
 30
0.0
 40
42.7
 50
301.61
 51
58.39
  0
ARC
  8
8
  6
CONTINUOUS
 62
     4
  5
38F
 10
48950.35914
 20
9274.163786
 30
0.0
 40
45.0
 50
299.87
 51
60.13
  0
CIRCLE
  8
8
  6
CONTINUOUS
 62
     4
  5
390
 10
48985.35914
 20
9274.163786
 30
0.0
 40
4.0
  0
CIRCLE
  8
8
  6
CONTINUOUS
 62
     4
  5
391
 10
48985.35914
 20
9274.163786
 30
0.0
 40
4.4
  0
ARC
  8
8
  6
CONTINUOUS
 62
     4
  5
392
 10
48985.35914
 20
9574.163786
 30
0.0
 40
7.7
 50
90.0
 51
270.0
  0
ARC
  8
8
  6
CONTINUOUS
 62
     4
  5
393
 10
48985.35914
 20
9574.163786
 30
0.0
 40
6.8
 50
90.0
 51
270.0
  0
LINE
  8
8
  6
CONTINUOUS
 62
     4
  5
394
 10
48992.35914
 20
9581.763786
 30
0.0
 11
48985.35914
 21
9581.763786
 31
0.0
  0
LINE
  8
8
  6
CONTINUOUS
 62
     4
  5
395
 10
48985.35914
 20
9580.863786
 30
0.0
 11
48991.65914
 21
9580.863786
 31
0.0
  0
ARC
  8
8
  6
CONTINUOUS
 62
     4
  5
396
 10
48950.35914
 20
9574.163786
 30
0.0
 40
41.8
 50
350.63
 51
9.02
  0
LINE
  8
8
  6
CONTINUOUS
 62
     4
  5
397
 10
48985.35914
 20
9567.363786
 30
0.0
 11
48991.55914
 21
9567.363786
 31
0.0
  0
LINE
  8
8
  6
CONTINUOUS
 62
     4
  5
398
 10
48992.35914
 20
9566.463786
 30
0.0
 11
48985.35914
 21
9566.463786
 31
0.0
  0
CIRCLE
  8
8
  6
CONTINUOUS
 62
     4
  5
399
 10
48985.35914
 20
9574.163786
 30
0.0
 40
4.0
  0
CIRCLE
  8
8
  6
CONTINUOUS
 62
     4
  5
39A
 10
48985.35914
 20
9574.163786
 30
0.0
 40
4.4
  0
LINE
  8
8
  6
CONTINUOUS
 62
     4
  5
39B
 10
48493.95914
 20
9693.563786
 30
0.0
 11
48493.95914
 21
9154.763786
 31
0.0
  0
LINE
  8
8
  6
CONTINUOUS
 62
     4
  5
39C
 10
48522.75914
 20
9691.763786
 30
0.0
 11
48522.75914
 21
9606.563786
 31
0.0
  0
ARC
  8
8
  6
CONTINUOUS
 62
     4
  5
39D
 10
48540.75914
 20
9606.563786
 30
0.0
 40
18.0
 50
180.0
 51
270.0
  0
ARC
  8
8
  6
CONTINUOUS
 62
     4
  5
39E
 10
48540.75914
 20
9541.763786
 30
0.0
 40
18.0
 50
90.0
 51
180.0
  0
ARC
  8
8
  6
CONTINUOUS
 62
     4
  5
39F
 10
48533.85914
 20
9604.463786
 30
0.0
 40
7.7
 50
150.0
 51
330.0
  0
ARC
  8
8
  6
CONTINUOUS
 62
     4
  5
3A0
 10
48533.85914
 20
9604.463786
 30
0.0
 40
6.8
 50
150.0
 51
330.0
  0
LINE
  8
8
  6
CONTINUOUS
 62
     4
  5
3A1
 10
48530.75914
 20
9614.363786
 30
0.0
 11
48527.25914
 21
9608.263786
 31
0.0
  0
LINE
  8
8
  6
CONTINUOUS
 62
     4
  5
3A2
 10
48528.05914
 20
9607.863786
 30
0.0
 11
48531.15914
 21
9613.263786
 31
0.0
  0
ARC
  8
8
  6
CONTINUOUS
 62
     4
  5
3A3
 10
48516.35914
 20
9574.163786
 30
0.0
 40
41.8
 50
50.63
 51
69.02
  0
LINE
  8
8
  6
CONTINUOUS
 62
     4
  5
3A4
 10
48539.75914
 20
9601.063786
 30
0.0
 11
48542.85914
 21
9606.463786
 31
0.0
  0
LINE
  8
8
  6
CONTINUOUS
 62
     4
  5
3A5
 10
48544.05914
 20
9606.663786
 30
0.0
 11
48540.55914
 21
9600.663786
 31
0.0
  0
CIRCLE
  8
8
  6
CONTINUOUS
 62
     4
  5
3A6
 10
48533.85914
 20
9604.463786
 30
0.0
 40
4.4
  0
CIRCLE
  8
8
  6
CONTINUOUS
 62
     4
  5
3A7
 10
48533.85914
 20
9604.463786
 30
0.0
 40
4.0
  0
ARC
  8
8
  6
CONTINUOUS
 62
     4
  5
3A8
 10
48533.85914
 20
9543.863786
 30
0.0
 40
7.7
 50
30.0
 51
210.0
  0
ARC
  8
8
  6
CONTINUOUS
 62
     4
  5
3A9
 10
48533.85914
 20
9543.863786
 30
0.0
 40
6.8
 50
30.0
 51
210.0
  0
CIRCLE
  8
8
  6
CONTINUOUS
 62
     4
  5
3AA
 10
48533.85914
 20
9543.863786
 30
0.0
 40
4.4
  0
ARC
  8
8
  6
CONTINUOUS
 62
     4
  5
3AB
 10
48481.35914
 20
9574.163786
 30
0.0
 40
7.7
 50
270.0
 51
90.0
  0
ARC
  8
8
  6
CONTINUOUS
 62
     4
  5
3AC
 10
48481.35914
 20
9574.163786
 30
0.0
 40
6.8
 50
270.0
 51
90.0
  0
LINE
  8
8
  6
CONTINUOUS
 62
     4
  5
3AD
 10
48474.35914
 20
9566.563786
 30
0.0
 11
48481.35914
 21
9566.563786
 31
0.0
  0
LINE
  8
8
  6
CONTINUOUS
 62
     4
  5
3AE
 10
48481.35914
 20
9567.463786
 30
0.0
 11
48475.05914
 21
9567.463786
 31
0.0
  0
ARC
  8
8
  6
CONTINUOUS
 62
     4
  5
3AF
 10
48516.35914
 20
9574.163786
 30
0.0
 40
41.8
 50
170.63
 51
189.02
  0
LINE
  8
8
  6
CONTINUOUS
 62
     4
  5
3B0
 10
48481.35914
 20
9580.963786
 30
0.0
 11
48475.15914
 21
9580.963786
 31
0.0
  0
LINE
  8
8
  6
CONTINUOUS
 62
     4
  5
3B1
 10
48474.35914
 20
9581.863786
 30
0.0
 11
48481.35914
 21
9581.863786
 31
0.0
  0
ARC
  8
8
  6
DIVIDE
 62
     4
  5
3B2
 10
48516.35914
 20
9574.163786
 30
0.0
 40
42.7
 50
121.61
 51
238.39
  0
ARC
  8
8
  6
CONTINUOUS
 62
     4
  5
3B3
 10
48516.35914
 20
9574.163786
 30
0.0
 40
45.0
 50
119.87
 51
240.13
  0
CIRCLE
  8
8
  6
CONTINUOUS
 62
     4
  5
3B4
 10
48481.35914
 20
9574.163786
 30
0.0
 40
4.0
  0
CIRCLE
  8
8
  6
CONTINUOUS
 62
     4
  5
3B5
 10
48481.35914
 20
9574.163786
 30
0.0
 40
4.4
  0
ARC
  8
8
  6
CONTINUOUS
 62
     4
  5
3B6
 10
48540.75914
 20
9456.563786
 30
0.0
 40
18.0
 50
180.0
 51
270.0
  0
ARC
  8
8
  6
CONTINUOUS
 62
     4
  5
3B7
 10
48540.75914
 20
9391.763786
 30
0.0
 40
18.0
 50
90.0
 51
180.0
  0
LINE
  8
8
  6
CONTINUOUS
 62
     4
  5
3B8
 10
48522.75914
 20
9541.763786
 30
0.0
 11
48522.75914
 21
9456.563786
 31
0.0
  0
LINE
  8
8
  6
CONTINUOUS
 62
     4
  5
3B9
 10
48522.75914
 20
9391.763786
 30
0.0
 11
48522.75914
 21
9306.563786
 31
0.0
  0
ARC
  8
8
  6
CONTINUOUS
 62
     4
  5
3BA
 10
48540.75914
 20
9306.563786
 30
0.0
 40
18.0
 50
180.0
 51
270.0
  0
ARC
  8
8
  6
CONTINUOUS
 62
     4
  5
3BB
 10
48540.75914
 20
9241.763786
 30
0.0
 40
18.0
 50
90.0
 51
180.0
  0
LINE
  8
8
  6
CONTINUOUS
 62
     4
  5
3BC
 10
48522.75914
 20
9241.763786
 30
0.0
 11
48522.75914
 21
9156.563786
 31
0.0
  0
ARC
  8
8
  6
CONTINUOUS
 62
     4
  5
3BD
 10
48533.85914
 20
9304.463786
 30
0.0
 40
7.7
 50
150.0
 51
330.0
  0
ARC
  8
8
  6
CONTINUOUS
 62
     4
  5
3BE
 10
48533.85914
 20
9304.463786
 30
0.0
 40
6.8
 50
150.0
 51
330.0
  0
LINE
  8
8
  6
CONTINUOUS
 62
     4
  5
3BF
 10
48530.75914
 20
9314.363786
 30
0.0
 11
48527.25914
 21
9308.263786
 31
0.0
  0
LINE
  8
8
  6
CONTINUOUS
 62
     4
  5
3C0
 10
48528.05914
 20
9307.863786
 30
0.0
 11
48531.15914
 21
9313.263786
 31
0.0
  0
ARC
  8
8
  6
CONTINUOUS
 62
     4
  5
3C1
 10
48516.35914
 20
9274.163786
 30
0.0
 40
41.8
 50
50.63
 51
69.02
  0
LINE
  8
8
  6
CONTINUOUS
 62
     4
  5
3C2
 10
48539.75914
 20
9301.063786
 30
0.0
 11
48542.85914
 21
9306.463786
 31
0.0
  0
LINE
  8
8
  6
CONTINUOUS
 62
     4
  5
3C3
 10
48544.05914
 20
9306.663786
 30
0.0
 11
48540.55914
 21
9300.663786
 31
0.0
  0
CIRCLE
  8
8
  6
CONTINUOUS
 62
     4
  5
3C4
 10
48533.85914
 20
9304.463786
 30
0.0
 40
4.4
  0
CIRCLE
  8
8
  6
CONTINUOUS
 62
     4
  5
3C5
 10
48533.85914
 20
9304.463786
 30
0.0
 40
4.0
  0
ARC
  8
8
  6
CONTINUOUS
 62
     4
  5
3C6
 10
48533.85914
 20
9243.863786
 30
0.0
 40
7.7
 50
30.0
 51
210.0
  0
ARC
  8
8
  6
CONTINUOUS
 62
     4
  5
3C7
 10
48533.85914
 20
9243.863786
 30
0.0
 40
6.8
 50
30.0
 51
210.0
  0
LINE
  8
8
  6
CONTINUOUS
 62
     4
  5
3C8
 10
48543.95914
 20
9241.563786
 30
0.0
 11
48540.45914
 21
9247.663786
 31
0.0
  0
LINE
  8
8
  6
CONTINUOUS
 62
     4
  5
3C9
 10
48539.65914
 20
9247.163786
 30
0.0
 11
48542.85914
 21
9241.763786
 31
0.0
  0
ARC
  8
8
  6
CONTINUOUS
 62
     4
  5
3CA
 10
48516.35914
 20
9274.163786
 30
0.0
 40
41.8
 50
290.63
 51
309.02
  0
LINE
  8
8
  6
CONTINUOUS
 62
     4
  5
3CB
 10
48527.95914
 20
9240.463786
 30
0.0
 11
48531.05914
 21
9235.063786
 31
0.0
  0
LINE
  8
8
  6
CONTINUOUS
 62
     4
  5
3CC
 10
48530.65914
 20
9233.963786
 30
0.0
 11
48527.15914
 21
9239.963786
 31
0.0
  0
CIRCLE
  8
8
  6
CONTINUOUS
 62
     4
  5
3CD
 10
48533.85914
 20
9243.863786
 30
0.0
 40
4.0
  0
CIRCLE
  8
8
  6
CONTINUOUS
 62
     4
  5
3CE
 10
48533.85914
 20
9243.863786
 30
0.0
 40
4.4
  0
ARC
  8
8
  6
CONTINUOUS
 62
     4
  5
3CF
 10
48481.35914
 20
9274.163786
 30
0.0
 40
7.7
 50
270.0
 51
90.0
  0
ARC
  8
8
  6
CONTINUOUS
 62
     4
  5
3D0
 10
48481.35914
 20
9274.163786
 30
0.0
 40
6.8
 50
270.0
 51
90.0
  0
LINE
  8
8
  6
CONTINUOUS
 62
     4
  5
3D1
 10
48474.35914
 20
9266.563786
 30
0.0
 11
48481.35914
 21
9266.563786
 31
0.0
  0
LINE
  8
8
  6
CONTINUOUS
 62
     4
  5
3D2
 10
48481.35914
 20
9267.463786
 30
0.0
 11
48475.05914
 21
9267.463786
 31
0.0
  0
ARC
  8
8
  6
CONTINUOUS
 62
     4
  5
3D3
 10
48516.35914
 20
9274.163786
 30
0.0
 40
41.8
 50
170.63
 51
189.02
  0
LINE
  8
8
  6
CONTINUOUS
 62
     4
  5
3D4
 10
48481.35914
 20
9280.963786
 30
0.0
 11
48475.15914
 21
9280.963786
 31
0.0
  0
LINE
  8
8
  6
CONTINUOUS
 62
     4
  5
3D5
 10
48474.35914
 20
9281.863786
 30
0.0
 11
48481.35914
 21
9281.863786
 31
0.0
  0
ARC
  8
8
  6
CONTINUOUS
 62
     4
  5
3D6
 10
48516.35914
 20
9274.163786
 30
0.0
 40
45.0
 50
119.87
 51
240.13
  0
ARC
  8
8
  6
DIVIDE
 62
     4
  5
3D7
 10
48516.35914
 20
9274.163786
 30
0.0
 40
42.7
 50
121.61
 51
238.39
  0
CIRCLE
  8
8
  6
CONTINUOUS
 62
     4
  5
3D8
 10
48481.35914
 20
9274.163786
 30
0.0
 40
4.0
  0
CIRCLE
  8
8
  6
CONTINUOUS
 62
     4
  5
3D9
 10
48481.35914
 20
9274.163786
 30
0.0
 40
4.4
  0
LINE
  8
8
  6
CONTINUOUS
 62
     4
  5
3DA
 10
48543.95914
 20
9541.563786
 30
0.0
 11
48540.45914
 21
9547.663786
 31
0.0
  0
LINE
  8
8
  6
CONTINUOUS
 62
     4
  5
3DB
 10
48539.65914
 20
9547.163786
 30
0.0
 11
48542.85914
 21
9541.763786
 31
0.0
  0
ARC
  8
8
  6
CONTINUOUS
 62
     4
  5
3DC
 10
48516.35914
 20
9574.163786
 30
0.0
 40
41.8
 50
290.63
 51
309.02
  0
LINE
  8
8
  6
CONTINUOUS
 62
     4
  5
3DD
 10
48527.95914
 20
9540.463786
 30
0.0
 11
48531.05914
 21
9535.063786
 31
0.0
  0
LINE
  8
8
  6
CONTINUOUS
 62
     4
  5
3DE
 10
48530.65914
 20
9533.963786
 30
0.0
 11
48527.15914
 21
9539.963786
 31
0.0
  0
CIRCLE
  8
8
  6
CONTINUOUS
 62
     4
  5
3DF
 10
48533.85914
 20
9543.863786
 30
0.0
 40
4.0
  0
LINE
  8
5
  6
CONTINUOUS
 62
     3
  5
3E0
 10
49758.66114
 20
13562.206114
 30
0.0
 11
49758.66114
 21
13362.206114
 31
0.0
  0
CIRCLE
  8
5
  6
CONTINUOUS
 62
     3
  5
3E1
 10
48258.65914
 20
13562.206114
 30
0.0
 40
7.5
  0
LINE
  8
5
  6
CONTINUOUS
 62
     3
  5
3E2
 10
48258.65914
 20
13562.206114
 30
0.0
 11
48258.65914
 21
13362.206114
 31
0.0
  0
LINE
  8
5
  6
CONTINUOUS
 62
     3
  5
3E3
 10
49758.66114
 20
13562.206114
 30
0.0
 11
48258.65914
 21
13562.206114
 31
0.0
  0
TEXT
  8
5
  6
CONTINUOUS
 62
     3
  5
3E4
 10
48918.51014
 20
13562.206114
 30
0.0
 40
60.0
  1
1,500
 41
0.6
  7

 72
     5
 11
49098.51014
 21
13562.206114
 31
0.0
  0
CIRCLE
  8
5
  6
CONTINUOUS
 62
     3
  5
3E5
 10
49758.66114
 20
13562.206114
 30
0.0
 40
7.5
  0
LINE
  8
40
  6
DOT
 62
     3
  5
3E6
 10
48941.242464
 20
13056.13088
 30
0.0
 11
48956.242484
 21
13056.13088
 31
0.0
  0
LINE
  8
40
  6
DOT
 62
     3
  5
3E7
 10
48941.242464
 20
13056.13088
 30
0.0
 11
48941.242464
 21
13062.131
 31
0.0
  0
LINE
  8
40
  6
DOT
 62
     3
  5
3E8
 10
48956.242484
 20
13056.13088
 30
0.0
 11
48956.242484
 21
13062.131
 31
0.0
  0
LINE
  8
40
  6
CONTINUOUS
 62
     4
  5
3E9
 10
48962.742404
 20
13062.13086
 30
0.0
 11
48962.742404
 21
13084.715193
 31
0.0
  0
LINE
  8
40
  6
CONTINUOUS
 62
     4
  5
3EA
 10
48962.742404
 20
13062.131
 30
0.0
 11
48934.742404
 21
13062.131
 31
0.0
  0
LINE
  8
40
  6
CONTINUOUS
 62
     4
  5
3EB
 10
48964.203304
 20
13092.13111
 30
0.0
 11
48933.380764
 21
13092.13111
 31
0.0
  0
LINE
  8
40
  6
CONTINUOUS
 62
     4
  5
3EC
 10
48927.137324
 20
13094.13108
 30
0.0
 11
48970.418324
 21
13094.13108
 31
0.0
  0
LINE
  8
40
  6
CONTINUOUS
 62
     4
  5
3ED
 10
48903.742484
 20
13112.13109
 30
0.0
 11
48903.742484
 21
13101.64418
 31
0.0
  0
LINE
  8
40
  6
CONTINUOUS
 62
     4
  5
3EE
 10
48993.742464
 20
13112.13109
 30
0.0
 11
48993.742464
 21
13101.61555
 31
0.0
  0
LINE
  8
40
  6
CONTINUOUS
 62
     4
  5
3EF
 10
48992.996404
 20
13100.13113
 30
0.0
 11
48904.531944
 21
13100.13113
 31
0.0
  0
ARC
  8
40
  6
CONTINUOUS
 62
     4
  5
3F0
 10
48905.742384
 20
13101.74687
 30
0.0
 40
2.00004
 50
180.0
 51
255.529705
  0
ARC
  8
40
  6
CONTINUOUS
 62
     4
  5
3F1
 10
48991.740744
 20
13101.70382
 30
0.0
 40
2.00004
 50
284.069648
 51
0.0
  0
LINE
  8
1
  6
CONTINUOUS
 62
     4
  5
3F2
 10
48916.431524
 20
13119.31715
 30
0.0
 11
48920.431604
 21
13120.01218
 31
0.0
  0
LINE
  8
1
  6
CONTINUOUS
 62
     4
  5
3F3
 10
48916.431524
 20
13122.35347
 30
0.0
 11
48920.431604
 21
13123.06271
 31
0.0
  0
LINE
  8
1
  6
CONTINUOUS
 62
     4
  5
3F4
 10
48916.431524
 20
13125.40659
 30
0.0
 11
48920.431604
 21
13126.11583
 31
0.0
  0
LINE
  8
1
  6
CONTINUOUS
 62
     4
  5
3F5
 10
48916.431524
 20
13128.45971
 30
0.0
 11
48920.431604
 21
13129.16888
 31
0.0
  0
LINE
  8
1
  6
CONTINUOUS
 62
     4
  5
3F6
 10
48916.431524
 20
13131.51017
 30
0.0
 11
48920.431604
 21
13132.20513
 31
0.0
  0
LINE
  8
1
  6
CONTINUOUS
 62
     4
  5
3F7
 10
48916.431524
 20
13134.54628
 30
0.0
 11
48920.431604
 21
13135.25552
 31
0.0
  0
LINE
  8
1
  6
CONTINUOUS
 62
     4
  5
3F8
 10
48920.036384
 20
13118.42199
 30
0.0
 11
48916.826744
 21
13117.85436
 31
0.0
  0
LINE
  8
1
  6
CONTINUOUS
 62
     4
  5
3F9
 10
48920.036384
 20
13121.45544
 30
0.0
 11
48916.826744
 21
13120.88788
 31
0.0
  0
LINE
  8
1
  6
CONTINUOUS
 62
     4
  5
3FA
 10
48920.036384
 20
13124.50856
 30
0.0
 11
48916.826744
 21
13123.941
 31
0.0
  0
LINE
  8
1
  6
CONTINUOUS
 62
     4
  5
3FB
 10
48920.036384
 20
13127.56168
 30
0.0
 11
48916.826744
 21
13126.99419
 31
0.0
  0
LINE
  8
1
  6
CONTINUOUS
 62
     4
  5
3FC
 10
48920.036384
 20
13130.61487
 30
0.0
 11
48916.826744
 21
13130.04731
 31
0.0
  0
LINE
  8
1
  6
CONTINUOUS
 62
     4
  5
3FD
 10
48920.036384
 20
13133.64839
 30
0.0
 11
48916.826744
 21
13133.08083
 31
0.0
  0
LINE
  8
1
  6
CONTINUOUS
 62
     4
  5
3FE
 10
48920.036384
 20
13136.70151
 30
0.0
 11
48916.826744
 21
13136.13388
 31
0.0
  0
LINE
  8
1
  6
CONTINUOUS
 62
     4
  5
3FF
 10
48916.431524
 20
13116.26578
 30
0.0
 11
48920.431604
 21
13116.96998
 31
0.0
  0
LINE
  8
1
  6
CONTINUOUS
 62
     4
  5
400
 10
48918.431564
 20
13106.13111
 30
0.0
 11
48914.181584
 21
13106.13111
 31
0.0
  0
LINE
  8
1
  6
CONTINUOUS
 62
     4
  5
401
 10
48916.431524
 20
13110.21925
 30
0.0
 11
48920.431604
 21
13110.92849
 31
0.0
  0
LINE
  8
1
  6
CONTINUOUS
 62
     4
  5
402
 10
48916.431524
 20
13113.2331
 30
0.0
 11
48920.431604
 21
13113.94234
 31
0.0
  0
LINE
  8
1
  6
CONTINUOUS
 62
     4
  5
403
 10
48920.036384
 20
13109.34082
 30
0.0
 11
48916.826744
 21
13108.77326
 31
0.0
  0
LINE
  8
1
  6
CONTINUOUS
 62
     4
  5
404
 10
48920.036384
 20
13112.35474
 30
0.0
 11
48916.826744
 21
13111.78718
 31
0.0
  0
LINE
  8
1
  6
CONTINUOUS
 62
     4
  5
405
 10
48920.036384
 20
13115.38833
 30
0.0
 11
48916.826744
 21
13114.82077
 31
0.0
  0
LINE
  8
1
  6
CONTINUOUS
 62
     4
  5
406
 10
48915.828544
 20
13106.13111
 30
0.0
 11
48917.031564
 21
13107.33406
 31
0.0
  0
LINE
  8
1
  6
CONTINUOUS
 62
     4
  5
407
 10
48915.828544
 20
13106.13111
 30
0.0
 11
48914.181584
 21
13106.13111
 31
0.0
  0
LINE
  8
1
  6
CONTINUOUS
 62
     4
  5
408
 10
48921.034584
 20
13106.13111
 30
0.0
 11
48919.831564
 21
13107.33406
 31
0.0
  0
LINE
  8
1
  6
CONTINUOUS
 62
     4
  5
409
 10
48921.034584
 20
13106.13111
 30
0.0
 11
48922.681544
 21
13106.13111
 31
0.0
  0
LINE
  8
1
  6
CONTINUOUS
 62
     4
  5
40A
 10
48920.036384
 20
13107.81426
 30
0.0
 11
48916.826744
 21
13107.24677
 31
0.0
  0
LINE
  8
1
  6
CONTINUOUS
 62
     4
  5
40B
 10
48917.824804
 20
13102.64007
 30
0.0
 11
48919.038324
 21
13102.64007
 31
0.0
  0
LINE
  8
1
  6
CONTINUOUS
 62
     4
  5
40C
 10
48917.824804
 20
13102.1311
 30
0.0
 11
48917.824804
 21
13102.64007
 31
0.0
  0
LINE
  8
1
  6
CONTINUOUS
 62
     4
  5
40D
 10
48919.038324
 20
13102.1311
 30
0.0
 11
48919.038324
 21
13102.64007
 31
0.0
  0
LINE
  8
1
  6
CONTINUOUS
 62
     4
  5
40E
 10
48917.824804
 20
13102.1311
 30
0.0
 11
48919.038324
 21
13102.1311
 31
0.0
  0
LINE
  8
1
  6
CONTINUOUS
 62
     4
  5
40F
 10
48916.431524
 20
13137.5994
 30
0.0
 11
48920.431604
 21
13138.30864
 31
0.0
  0
LINE
  8
1
  6
CONTINUOUS
 62
     4
  5
410
 10
48919.822884
 20
13141.25382
 30
0.0
 11
48916.937904
 21
13140.74226
 31
0.0
  0
LINE
  8
1
  6
CONTINUOUS
 62
     4
  5
411
 10
48920.036384
 20
13139.75456
 30
0.0
 11
48916.826744
 21
13139.187
 31
0.0
  0
LINE
  8
1
  6
CONTINUOUS
 62
     4
  5
412
 10
48919.530004
 20
13142.71808
 30
0.0
 11
48917.252624
 21
13142.31544
 31
0.0
  0
LINE
  8
1
  6
CONTINUOUS
 62
     4
  5
413
 10
48977.053344
 20
13119.31715
 30
0.0
 11
48981.053284
 21
13120.01218
 31
0.0
  0
LINE
  8
1
  6
CONTINUOUS
 62
     4
  5
414
 10
48977.053344
 20
13122.35347
 30
0.0
 11
48981.053284
 21
13123.06271
 31
0.0
  0
LINE
  8
1
  6
CONTINUOUS
 62
     4
  5
415
 10
48977.053344
 20
13125.40659
 30
0.0
 11
48981.053284
 21
13126.11583
 31
0.0
  0
LINE
  8
1
  6
CONTINUOUS
 62
     4
  5
416
 10
48977.053344
 20
13128.45971
 30
0.0
 11
48981.053284
 21
13129.16888
 31
0.0
  0
LINE
  8
1
  6
CONTINUOUS
 62
     4
  5
417
 10
48977.053344
 20
13131.51017
 30
0.0
 11
48981.053284
 21
13132.20513
 31
0.0
  0
LINE
  8
1
  6
CONTINUOUS
 62
     4
  5
418
 10
48977.053344
 20
13134.54628
 30
0.0
 11
48981.053284
 21
13135.25552
 31
0.0
  0
LINE
  8
1
  6
CONTINUOUS
 62
     4
  5
419
 10
48980.658204
 20
13118.42199
 30
0.0
 11
48977.448424
 21
13117.85436
 31
0.0
  0
LINE
  8
1
  6
CONTINUOUS
 62
     4
  5
41A
 10
48980.658204
 20
13121.45544
 30
0.0
 11
48977.448424
 21
13120.88788
 31
0.0
  0
LINE
  8
1
  6
CONTINUOUS
 62
     4
  5
41B
 10
48980.658204
 20
13124.50856
 30
0.0
 11
48977.448424
 21
13123.941
 31
0.0
  0
LINE
  8
1
  6
CONTINUOUS
 62
     4
  5
41C
 10
48980.658204
 20
13127.56168
 30
0.0
 11
48977.448424
 21
13126.99419
 31
0.0
  0
LINE
  8
1
  6
CONTINUOUS
 62
     4
  5
41D
 10
48980.658204
 20
13130.61487
 30
0.0
 11
48977.448424
 21
13130.04731
 31
0.0
  0
LINE
  8
1
  6
CONTINUOUS
 62
     4
  5
41E
 10
48980.658204
 20
13133.64839
 30
0.0
 11
48977.448424
 21
13133.08083
 31
0.0
  0
LINE
  8
1
  6
CONTINUOUS
 62
     4
  5
41F
 10
48980.658204
 20
13136.70151
 30
0.0
 11
48977.448424
 21
13136.13388
 31
0.0
  0
LINE
  8
1
  6
CONTINUOUS
 62
     4
  5
420
 10
48977.053344
 20
13116.26578
 30
0.0
 11
48981.053284
 21
13116.96998
 31
0.0
  0
LINE
  8
1
  6
CONTINUOUS
 62
     4
  5
421
 10
48979.053384
 20
13106.13111
 30
0.0
 11
48974.803264
 21
13106.13111
 31
0.0
  0
LINE
  8
1
  6
CONTINUOUS
 62
     4
  5
422
 10
48977.053344
 20
13110.21925
 30
0.0
 11
48981.053284
 21
13110.92849
 31
0.0
  0
LINE
  8
1
  6
CONTINUOUS
 62
     4
  5
423
 10
48977.053344
 20
13113.2331
 30
0.0
 11
48981.053284
 21
13113.94234
 31
0.0
  0
LINE
  8
1
  6
CONTINUOUS
 62
     4
  5
424
 10
48980.658204
 20
13109.34082
 30
0.0
 11
48977.448424
 21
13108.77326
 31
0.0
  0
LINE
  8
1
  6
CONTINUOUS
 62
     4
  5
425
 10
48980.658204
 20
13112.35474
 30
0.0
 11
48977.448424
 21
13111.78718
 31
0.0
  0
LINE
  8
1
  6
CONTINUOUS
 62
     4
  5
426
 10
48980.658204
 20
13115.38833
 30
0.0
 11
48977.448424
 21
13114.82077
 31
0.0
  0
LINE
  8
1
  6
CONTINUOUS
 62
     4
  5
427
 10
48976.450364
 20
13106.13111
 30
0.0
 11
48977.653384
 21
13107.33406
 31
0.0
  0
LINE
  8
1
  6
CONTINUOUS
 62
     4
  5
428
 10
48976.450364
 20
13106.13111
 30
0.0
 11
48974.803264
 21
13106.13111
 31
0.0
  0
LINE
  8
1
  6
CONTINUOUS
 62
     4
  5
429
 10
48981.656264
 20
13106.13111
 30
0.0
 11
48980.453384
 21
13107.33406
 31
0.0
  0
LINE
  8
1
  6
CONTINUOUS
 62
     4
  5
42A
 10
48981.656264
 20
13106.13111
 30
0.0
 11
48983.303364
 21
13106.13111
 31
0.0
  0
LINE
  8
1
  6
CONTINUOUS
 62
     4
  5
42B
 10
48980.658204
 20
13107.81426
 30
0.0
 11
48977.448424
 21
13107.24677
 31
0.0
  0
LINE
  8
1
  6
CONTINUOUS
 62
     4
  5
42C
 10
48978.446624
 20
13102.64007
 30
0.0
 11
48979.660004
 21
13102.64007
 31
0.0
  0
LINE
  8
1
  6
CONTINUOUS
 62
     4
  5
42D
 10
48978.446624
 20
13102.1311
 30
0.0
 11
48978.446624
 21
13102.64007
 31
0.0
  0
LINE
  8
1
  6
CONTINUOUS
 62
     4
  5
42E
 10
48979.660004
 20
13102.1311
 30
0.0
 11
48979.660004
 21
13102.64007
 31
0.0
  0
LINE
  8
1
  6
CONTINUOUS
 62
     4
  5
42F
 10
48978.446624
 20
13102.1311
 30
0.0
 11
48979.660004
 21
13102.1311
 31
0.0
  0
LINE
  8
1
  6
CONTINUOUS
 62
     4
  5
430
 10
48977.053344
 20
13137.5994
 30
0.0
 11
48981.053284
 21
13138.30864
 31
0.0
  0
LINE
  8
1
  6
CONTINUOUS
 62
     4
  5
431
 10
48980.444564
 20
13141.25382
 30
0.0
 11
48977.559724
 21
13140.74226
 31
0.0
  0
LINE
  8
1
  6
CONTINUOUS
 62
     4
  5
432
 10
48980.658204
 20
13139.75456
 30
0.0
 11
48977.448424
 21
13139.187
 31
0.0
  0
LINE
  8
1
  6
CONTINUOUS
 62
     4
  5
433
 10
48980.151824
 20
13142.71808
 30
0.0
 11
48977.874304
 21
13142.31544
 31
0.0
  0
LINE
  8
40
  6
CONTINUOUS
 62
     4
  5
434
 10
48993.717404
 20
13112.13109
 30
0.0
 11
48993.717404
 21
13101.61555
 31
0.0
  0
LINE
  8
40
  6
CONTINUOUS
 62
     4
  5
435
 10
48991.217424
 20
13099.49861
 30
0.0
 11
48991.217424
 21
13107.13113
 31
0.0
  0
LINE
  8
40
  6
CONTINUOUS
 62
     4
  5
436
 10
48931.012384
 20
13093.13113
 30
0.0
 11
48966.543404
 21
13093.13113
 31
0.0
  0
LINE
  8
40
  6
CONTINUOUS
 62
     4
  5
437
 10
48934.742404
 20
13092.13111
 30
0.0
 11
48962.742404
 21
13092.13111
 31
0.0
  0
LINE
  8
40
  6
CONTINUOUS
 62
     4
  5
438
 10
48963.326764
 20
13091.13109
 30
0.0
 11
48934.226364
 21
13091.13109
 31
0.0
  0
LINE
  8
40
  6
CONTINUOUS
 62
     4
  5
439
 10
48962.888424
 20
13090.131
 30
0.0
 11
48934.623264
 21
13090.131
 31
0.0
  0
LINE
  8
12
  6
CONTINUOUS
 62
     4
  5
43A
 10
48972.129404
 20
13107.13113
 30
0.0
 11
48993.742464
 21
13107.13113
 31
0.0
  0
LINE
  8
12
  6
CONTINUOUS
 62
     4
  5
43B
 10
48906.242464
 20
13099.52339
 30
0.0
 11
48906.242464
 21
13107.13113
 31
0.0
  0
LINE
  8
12
  6
CONTINUOUS
 62
     4
  5
43C
 10
48927.091824
 20
13094.14291
 30
0.0
 11
48927.091824
 21
13094.11337
 31
0.0
  0
LINE
  8
12
  6
CONTINUOUS
 62
     4
  5
43D
 10
48925.373884
 20
13094.58615
 30
0.0
 11
48925.373884
 21
13107.13113
 31
0.0
  0
LINE
  8
12
  6
CONTINUOUS
 62
     4
  5
43E
 10
48927.085664
 20
13094.23839
 30
0.0
 11
48925.460964
 21
13107.23641
 31
0.0
  0
LINE
  8
12
  6
CONTINUOUS
 62
     4
  5
43F
 10
48970.411604
 20
13094.03749
 30
0.0
 11
48970.411604
 21
13094.00802
 31
0.0
  0
LINE
  8
12
  6
CONTINUOUS
 62
     4
  5
440
 10
48972.129404
 20
13094.4808
 30
0.0
 11
48972.129404
 21
13107.02585
 31
0.0
  0
LINE
  8
12
  6
CONTINUOUS
 62
     4
  5
441
 10
48970.417764
 20
13094.13311
 30
0.0
 11
48972.042464
 21
13107.13113
 31
0.0
  0
LINE
  8
12
  6
CONTINUOUS
 62
     4
  5
442
 10
48925.474124
 20
13107.13113
 30
0.0
 11
48906.242464
 21
13107.13113
 31
0.0
  0
LINE
  8
12
  6
CONTINUOUS
 62
     4
  5
443
 10
48925.474124
 20
13106.13111
 30
0.0
 11
48906.242464
 21
13106.13111
 31
0.0
  0
LINE
  8
12
  6
CONTINUOUS
 62
     4
  5
444
 10
48972.129404
 20
13106.13111
 30
0.0
 11
48993.742464
 21
13106.13111
 31
0.0
  0
LINE
  8
12
  6
CONTINUOUS
 62
     4
  5
445
 10
48922.681544
 20
13106.13111
 30
0.0
 11
48914.181584
 21
13106.13111
 31
0.0
  0
LINE
  8
12
  6
CONTINUOUS
 62
     4
  5
446
 10
48914.181584
 20
13106.13111
 30
0.0
 11
48914.181584
 21
13103.13112
 31
0.0
  0
LINE
  8
12
  6
CONTINUOUS
 62
     4
  5
447
 10
48922.681544
 20
13106.13111
 30
0.0
 11
48922.681544
 21
13103.13112
 31
0.0
  0
LINE
  8
12
  6
CONTINUOUS
 62
     4
  5
448
 10
48922.681544
 20
13103.13112
 30
0.0
 11
48922.681544
 21
13106.13111
 31
0.0
  0
LINE
  8
12
  6
CONTINUOUS
 62
     4
  5
449
 10
48914.181584
 20
13103.13112
 30
0.0
 11
48914.181584
 21
13106.13111
 31
0.0
  0
LINE
  8
12
  6
CONTINUOUS
 62
     4
  5
44A
 10
48914.181584
 20
13103.13112
 30
0.0
 11
48922.681544
 21
13103.13112
 31
0.0
  0
ARC
  8
12
  6
CONTINUOUS
 62
     4
  5
44B
 10
48918.431564
 20
13111.66237
 30
0.0
 40
9.53134
 50
243.51896
 51
296.48104
  0
LINE
  8
12
  6
CONTINUOUS
 62
     4
  5
44C
 10
48919.831564
 20
13106.13111
 30
0.0
 11
48919.831564
 21
13137.1311
 31
0.0
  0
LINE
  8
12
  6
CONTINUOUS
 62
     4
  5
44D
 10
48917.031564
 20
13106.13111
 30
0.0
 11
48917.031564
 21
13137.1311
 31
0.0
  0
LINE
  8
12
  6
CONTINUOUS
 62
     4
  5
44E
 10
48919.831564
 20
13137.1311
 30
0.0
 11
48917.031564
 21
13137.1311
 31
0.0
  0
LINE
  8
12
  6
CONTINUOUS
 62
     4
  5
44F
 10
48918.431564
 20
13144.1311
 30
0.0
 11
48917.031564
 21
13137.1311
 31
0.0
  0
LINE
  8
12
  6
CONTINUOUS
 62
     4
  5
450
 10
48918.431564
 20
13144.1311
 30
0.0
 11
48919.831564
 21
13137.1311
 31
0.0
  0
LINE
  8
12
  6
CENTER
 62
     4
  5
451
 10
48918.431564
 20
13103.13112
 30
0.0
 11
48918.431564
 21
13144.1311
 31
0.0
  0
LINE
  8
12
  6
CENTER
 62
     4
  5
452
 10
48918.431564
 20
13144.1311
 30
0.0
 11
48918.431564
 21
13104.62408
 31
0.0
  0
LINE
  8
12
  6
CONTINUOUS
 62
     4
  5
453
 10
48983.303364
 20
13106.13111
 30
0.0
 11
48974.803264
 21
13106.13111
 31
0.0
  0
LINE
  8
12
  6
CONTINUOUS
 62
     4
  5
454
 10
48974.803264
 20
13106.13111
 30
0.0
 11
48974.803264
 21
13103.13112
 31
0.0
  0
LINE
  8
12
  6
CONTINUOUS
 62
     4
  5
455
 10
48983.303364
 20
13106.13111
 30
0.0
 11
48983.303364
 21
13103.13112
 31
0.0
  0
LINE
  8
12
  6
CONTINUOUS
 62
     4
  5
456
 10
48983.303364
 20
13103.13112
 30
0.0
 11
48983.303364
 21
13106.13111
 31
0.0
  0
LINE
  8
12
  6
CONTINUOUS
 62
     4
  5
457
 10
48974.803264
 20
13103.13112
 30
0.0
 11
48974.803264
 21
13106.13111
 31
0.0
  0
LINE
  8
12
  6
CONTINUOUS
 62
     4
  5
458
 10
48974.803264
 20
13103.13112
 30
0.0
 11
48983.303364
 21
13103.13112
 31
0.0
  0
ARC
  8
12
  6
CONTINUOUS
 62
     4
  5
459
 10
48979.053384
 20
13111.66237
 30
0.0
 40
9.53134
 50
243.51896
 51
296.48104
  0
LINE
  8
12
  6
CONTINUOUS
 62
     4
  5
45A
 10
48980.453384
 20
13106.13111
 30
0.0
 11
48980.453384
 21
13137.1311
 31
0.0
  0
LINE
  8
12
  6
CONTINUOUS
 62
     4
  5
45B
 10
48977.653384
 20
13106.13111
 30
0.0
 11
48977.653384
 21
13137.1311
 31
0.0
  0
LINE
  8
12
  6
CONTINUOUS
 62
     4
  5
45C
 10
48980.453384
 20
13137.1311
 30
0.0
 11
48977.653384
 21
13137.1311
 31
0.0
  0
LINE
  8
12
  6
CONTINUOUS
 62
     4
  5
45D
 10
48979.053384
 20
13144.1311
 30
0.0
 11
48977.653384
 21
13137.1311
 31
0.0
  0
LINE
  8
12
  6
CONTINUOUS
 62
     4
  5
45E
 10
48979.053384
 20
13144.1311
 30
0.0
 11
48980.453384
 21
13137.1311
 31
0.0
  0
LINE
  8
12
  6
CENTER
 62
     4
  5
45F
 10
48979.053384
 20
13103.13112
 30
0.0
 11
48979.053384
 21
13144.1311
 31
0.0
  0
LINE
  8
12
  6
CENTER
 62
     4
  5
460
 10
48979.053384
 20
13144.1311
 30
0.0
 11
48979.053384
 21
13104.62408
 31
0.0
  0
LINE
  8
12
  6
CONTINUOUS
 62
     4
  5
461
 10
48924.140064
 20
13106.37835
 30
0.0
 11
48912.640044
 21
13106.37835
 31
0.0
  0
LINE
  8
12
  6
CONTINUOUS
 62
     4
  5
462
 10
48924.140064
 20
13107.17824
 30
0.0
 11
48912.640044
 21
13107.17824
 31
0.0
  0
LINE
  8
12
  6
CONTINUOUS
 62
     4
  5
463
 10
48924.140064
 20
13106.37835
 30
0.0
 11
48924.140064
 21
13107.17824
 31
0.0
  0
LINE
  8
12
  6
CONTINUOUS
 62
     4
  5
464
 10
48921.140144
 20
13106.37835
 30
0.0
 11
48921.140144
 21
13107.17824
 31
0.0
  0
LINE
  8
12
  6
CONTINUOUS
 62
     4
  5
465
 10
48915.640104
 20
13106.37835
 30
0.0
 11
48915.640104
 21
13107.17824
 31
0.0
  0
LINE
  8
12
  6
CONTINUOUS
 62
     4
  5
466
 10
48912.640044
 20
13106.37835
 30
0.0
 11
48912.640044
 21
13107.17824
 31
0.0
  0
LINE
  8
12
  6
CONTINUOUS
 62
     4
  5
467
 10
48984.758244
 20
13106.37835
 30
0.0
 11
48973.258224
 21
13106.37835
 31
0.0
  0
LINE
  8
12
  6
CONTINUOUS
 62
     4
  5
468
 10
48984.758244
 20
13107.17824
 30
0.0
 11
48973.258224
 21
13107.17824
 31
0.0
  0
LINE
  8
12
  6
CONTINUOUS
 62
     4
  5
469
 10
48984.758244
 20
13106.37835
 30
0.0
 11
48984.758244
 21
13107.17824
 31
0.0
  0
LINE
  8
12
  6
CONTINUOUS
 62
     4
  5
46A
 10
48981.758184
 20
13106.37835
 30
0.0
 11
48981.758184
 21
13107.17824
 31
0.0
  0
LINE
  8
12
  6
CONTINUOUS
 62
     4
  5
46B
 10
48976.258144
 20
13106.37835
 30
0.0
 11
48976.258144
 21
13107.17824
 31
0.0
  0
LINE
  8
12
  6
CONTINUOUS
 62
     4
  5
46C
 10
48973.258224
 20
13106.37835
 30
0.0
 11
48973.258224
 21
13107.17824
 31
0.0
  0
LINE
  8
8
  6
CONTINUOUS
 62
     4
  5
46D
 10
48965.742884
 20
13092.92449
 30
0.0
 11
48992.238444
 21
13099.76202
 31
0.0
  0
LINE
  8
8
  6
CONTINUOUS
 62
     4
  5
46E
 10
48931.930644
 20
13092.89404
 30
0.0
 11
48905.199604
 21
13099.7924
 31
0.0
  0
ARC
  8
8
  6
CONTINUOUS
 62
     4
  5
46F
 10
48930.774664
 20
13089.09514
 30
0.0
 40
4.00008
 50
0.0
 51
75.529706
  0
LINE
  8
50
  6
CENTER
 62
     4
  5
470
 10
48918.390124
 20
13106.37835
 30
0.0
 11
48918.390124
 21
13108.50033
 31
0.0
  0
LINE
  8
50
  6
CENTER
 62
     4
  5
471
 10
48979.008164
 20
13106.37835
 30
0.0
 11
48979.008164
 21
13108.50033
 31
0.0
  0
ARC
  8
8
  6
CONTINUOUS
 62
     4
  5
472
 10
48966.736884
 20
13089.04425
 30
0.0
 40
4.00008
 50
104.470294
 51
180.0
  0
LINE
  8
40
  6
CONTINUOUS
 62
     4
  5
473
 10
48934.742404
 20
13062.13086
 30
0.0
 11
48934.742404
 21
13084.715193
 31
0.0
  0
LINE
  8
40
  6
DOT
 62
     3
  5
474
 10
48510.475936
 20
13056.13102
 30
0.0
 11
48525.475956
 21
13056.13102
 31
0.0
  0
LINE
  8
40
  6
DOT
 62
     3
  5
475
 10
48510.475936
 20
13056.13102
 30
0.0
 11
48510.475936
 21
13062.13114
 31
0.0
  0
LINE
  8
40
  6
DOT
 62
     3
  5
476
 10
48525.475956
 20
13056.13102
 30
0.0
 11
48525.475956
 21
13062.13114
 31
0.0
  0
LINE
  8
40
  6
CONTINUOUS
 62
     4
  5
477
 10
48531.975876
 20
13062.131
 30
0.0
 11
48531.975876
 21
13084.715333
 31
0.0
  0
LINE
  8
40
  6
CONTINUOUS
 62
     4
  5
478
 10
48531.975876
 20
13062.13114
 30
0.0
 11
48503.975876
 21
13062.13114
 31
0.0
  0
LINE
  8
40
  6
CONTINUOUS
 62
     4
  5
479
 10
48533.436776
 20
13092.13125
 30
0.0
 11
48502.614236
 21
13092.13125
 31
0.0
  0
LINE
  8
40
  6
CONTINUOUS
 62
     4
  5
47A
 10
48496.370796
 20
13094.13122
 30
0.0
 11
48539.651796
 21
13094.13122
 31
0.0
  0
LINE
  8
40
  6
CONTINUOUS
 62
     4
  5
47B
 10
48472.975956
 20
13112.13123
 30
0.0
 11
48472.975956
 21
13101.64432
 31
0.0
  0
LINE
  8
40
  6
CONTINUOUS
 62
     4
  5
47C
 10
48562.975936
 20
13112.13123
 30
0.0
 11
48562.975936
 21
13101.61569
 31
0.0
  0
LINE
  8
40
  6
CONTINUOUS
 62
     4
  5
47D
 10
48562.229876
 20
13100.13127
 30
0.0
 11
48473.765416
 21
13100.13127
 31
0.0
  0
ARC
  8
40
  6
CONTINUOUS
 62
     4
  5
47E
 10
48474.975856
 20
13101.74701
 30
0.0
 40
2.00004
 50
180.0
 51
255.529705
  0
ARC
  8
40
  6
CONTINUOUS
 62
     4
  5
47F
 10
48560.974216
 20
13101.70396
 30
0.0
 40
2.00004
 50
284.069648
 51
0.0
  0
LINE
  8
1
  6
CONTINUOUS
 62
     4
  5
480
 10
48485.664996
 20
13119.31729
 30
0.0
 11
48489.665076
 21
13120.01232
 31
0.0
  0
LINE
  8
1
  6
CONTINUOUS
 62
     4
  5
481
 10
48485.664996
 20
13122.35361
 30
0.0
 11
48489.665076
 21
13123.06285
 31
0.0
  0
LINE
  8
1
  6
CONTINUOUS
 62
     4
  5
482
 10
48485.664996
 20
13125.40673
 30
0.0
 11
48489.665076
 21
13126.11597
 31
0.0
  0
LINE
  8
1
  6
CONTINUOUS
 62
     4
  5
483
 10
48485.664996
 20
13128.45985
 30
0.0
 11
48489.665076
 21
13129.16902
 31
0.0
  0
LINE
  8
1
  6
CONTINUOUS
 62
     4
  5
484
 10
48485.664996
 20
13131.51031
 30
0.0
 11
48489.665076
 21
13132.20527
 31
0.0
  0
LINE
  8
1
  6
CONTINUOUS
 62
     4
  5
485
 10
48485.664996
 20
13134.54642
 30
0.0
 11
48489.665076
 21
13135.25566
 31
0.0
  0
LINE
  8
1
  6
CONTINUOUS
 62
     4
  5
486
 10
48489.269856
 20
13118.42213
 30
0.0
 11
48486.060216
 21
13117.8545
 31
0.0
  0
LINE
  8
1
  6
CONTINUOUS
 62
     4
  5
487
 10
48489.269856
 20
13121.45558
 30
0.0
 11
48486.060216
 21
13120.88802
 31
0.0
  0
LINE
  8
1
  6
CONTINUOUS
 62
     4
  5
488
 10
48489.269856
 20
13124.5087
 30
0.0
 11
48486.060216
 21
13123.94114
 31
0.0
  0
LINE
  8
1
  6
CONTINUOUS
 62
     4
  5
489
 10
48489.269856
 20
13127.56182
 30
0.0
 11
48486.060216
 21
13126.99433
 31
0.0
  0
LINE
  8
1
  6
CONTINUOUS
 62
     4
  5
48A
 10
48489.269856
 20
13130.61501
 30
0.0
 11
48486.060216
 21
13130.04745
 31
0.0
  0
LINE
  8
1
  6
CONTINUOUS
 62
     4
  5
48B
 10
48489.269856
 20
13133.64853
 30
0.0
 11
48486.060216
 21
13133.08097
 31
0.0
  0
LINE
  8
1
  6
CONTINUOUS
 62
     4
  5
48C
 10
48489.269856
 20
13136.70165
 30
0.0
 11
48486.060216
 21
13136.13402
 31
0.0
  0
LINE
  8
1
  6
CONTINUOUS
 62
     4
  5
48D
 10
48485.664996
 20
13116.26592
 30
0.0
 11
48489.665076
 21
13116.97012
 31
0.0
  0
LINE
  8
1
  6
CONTINUOUS
 62
     4
  5
48E
 10
48487.665036
 20
13106.13125
 30
0.0
 11
48483.415056
 21
13106.13125
 31
0.0
  0
LINE
  8
1
  6
CONTINUOUS
 62
     4
  5
48F
 10
48485.664996
 20
13110.21939
 30
0.0
 11
48489.665076
 21
13110.92863
 31
0.0
  0
LINE
  8
1
  6
CONTINUOUS
 62
     4
  5
490
 10
48485.664996
 20
13113.23324
 30
0.0
 11
48489.665076
 21
13113.94248
 31
0.0
  0
LINE
  8
1
  6
CONTINUOUS
 62
     4
  5
491
 10
48489.269856
 20
13109.34096
 30
0.0
 11
48486.060216
 21
13108.7734
 31
0.0
  0
LINE
  8
1
  6
CONTINUOUS
 62
     4
  5
492
 10
48489.269856
 20
13112.35488
 30
0.0
 11
48486.060216
 21
13111.78732
 31
0.0
  0
LINE
  8
1
  6
CONTINUOUS
 62
     4
  5
493
 10
48489.269856
 20
13115.38847
 30
0.0
 11
48486.060216
 21
13114.82091
 31
0.0
  0
LINE
  8
1
  6
CONTINUOUS
 62
     4
  5
494
 10
48485.062016
 20
13106.13125
 30
0.0
 11
48486.265036
 21
13107.3342
 31
0.0
  0
LINE
  8
1
  6
CONTINUOUS
 62
     4
  5
495
 10
48485.062016
 20
13106.13125
 30
0.0
 11
48483.415056
 21
13106.13125
 31
0.0
  0
LINE
  8
1
  6
CONTINUOUS
 62
     4
  5
496
 10
48490.268056
 20
13106.13125
 30
0.0
 11
48489.065036
 21
13107.3342
 31
0.0
  0
LINE
  8
1
  6
CONTINUOUS
 62
     4
  5
497
 10
48490.268056
 20
13106.13125
 30
0.0
 11
48491.915016
 21
13106.13125
 31
0.0
  0
LINE
  8
1
  6
CONTINUOUS
 62
     4
  5
498
 10
48489.269856
 20
13107.8144
 30
0.0
 11
48486.060216
 21
13107.24691
 31
0.0
  0
LINE
  8
1
  6
CONTINUOUS
 62
     4
  5
499
 10
48487.058276
 20
13102.64021
 30
0.0
 11
48488.271796
 21
13102.64021
 31
0.0
  0
LINE
  8
1
  6
CONTINUOUS
 62
     4
  5
49A
 10
48487.058276
 20
13102.13124
 30
0.0
 11
48487.058276
 21
13102.64021
 31
0.0
  0
LINE
  8
1
  6
CONTINUOUS
 62
     4
  5
49B
 10
48488.271796
 20
13102.13124
 30
0.0
 11
48488.271796
 21
13102.64021
 31
0.0
  0
LINE
  8
1
  6
CONTINUOUS
 62
     4
  5
49C
 10
48487.058276
 20
13102.13124
 30
0.0
 11
48488.271796
 21
13102.13124
 31
0.0
  0
LINE
  8
1
  6
CONTINUOUS
 62
     4
  5
49D
 10
48485.664996
 20
13137.59954
 30
0.0
 11
48489.665076
 21
13138.30878
 31
0.0
  0
LINE
  8
1
  6
CONTINUOUS
 62
     4
  5
49E
 10
48489.056356
 20
13141.25396
 30
0.0
 11
48486.171376
 21
13140.7424
 31
0.0
  0
LINE
  8
1
  6
CONTINUOUS
 62
     4
  5
49F
 10
48489.269856
 20
13139.7547
 30
0.0
 11
48486.060216
 21
13139.18714
 31
0.0
  0
LINE
  8
1
  6
CONTINUOUS
 62
     4
  5
4A0
 10
48488.763476
 20
13142.71822
 30
0.0
 11
48486.486096
 21
13142.31558
 31
0.0
  0
LINE
  8
1
  6
CONTINUOUS
 62
     4
  5
4A1
 10
48546.286816
 20
13119.31729
 30
0.0
 11
48550.286756
 21
13120.01232
 31
0.0
  0
LINE
  8
1
  6
CONTINUOUS
 62
     4
  5
4A2
 10
48546.286816
 20
13122.35361
 30
0.0
 11
48550.286756
 21
13123.06285
 31
0.0
  0
LINE
  8
1
  6
CONTINUOUS
 62
     4
  5
4A3
 10
48546.286816
 20
13125.40673
 30
0.0
 11
48550.286756
 21
13126.11597
 31
0.0
  0
LINE
  8
1
  6
CONTINUOUS
 62
     4
  5
4A4
 10
48546.286816
 20
13128.45985
 30
0.0
 11
48550.286756
 21
13129.16902
 31
0.0
  0
LINE
  8
1
  6
CONTINUOUS
 62
     4
  5
4A5
 10
48546.286816
 20
13131.51031
 30
0.0
 11
48550.286756
 21
13132.20527
 31
0.0
  0
LINE
  8
1
  6
CONTINUOUS
 62
     4
  5
4A6
 10
48546.286816
 20
13134.54642
 30
0.0
 11
48550.286756
 21
13135.25566
 31
0.0
  0
LINE
  8
1
  6
CONTINUOUS
 62
     4
  5
4A7
 10
48549.891676
 20
13118.42213
 30
0.0
 11
48546.681896
 21
13117.8545
 31
0.0
  0
LINE
  8
1
  6
CONTINUOUS
 62
     4
  5
4A8
 10
48549.891676
 20
13121.45558
 30
0.0
 11
48546.681896
 21
13120.88802
 31
0.0
  0
LINE
  8
1
  6
CONTINUOUS
 62
     4
  5
4A9
 10
48549.891676
 20
13124.5087
 30
0.0
 11
48546.681896
 21
13123.94114
 31
0.0
  0
LINE
  8
1
  6
CONTINUOUS
 62
     4
  5
4AA
 10
48549.891676
 20
13127.56182
 30
0.0
 11
48546.681896
 21
13126.99433
 31
0.0
  0
LINE
  8
1
  6
CONTINUOUS
 62
     4
  5
4AB
 10
48549.891676
 20
13130.61501
 30
0.0
 11
48546.681896
 21
13130.04745
 31
0.0
  0
LINE
  8
1
  6
CONTINUOUS
 62
     4
  5
4AC
 10
48549.891676
 20
13133.64853
 30
0.0
 11
48546.681896
 21
13133.08097
 31
0.0
  0
LINE
  8
1
  6
CONTINUOUS
 62
     4
  5
4AD
 10
48549.891676
 20
13136.70165
 30
0.0
 11
48546.681896
 21
13136.13402
 31
0.0
  0
LINE
  8
1
  6
CONTINUOUS
 62
     4
  5
4AE
 10
48546.286816
 20
13116.26592
 30
0.0
 11
48550.286756
 21
13116.97012
 31
0.0
  0
LINE
  8
1
  6
CONTINUOUS
 62
     4
  5
4AF
 10
48548.286856
 20
13106.13125
 30
0.0
 11
48544.036736
 21
13106.13125
 31
0.0
  0
LINE
  8
1
  6
CONTINUOUS
 62
     4
  5
4B0
 10
48546.286816
 20
13110.21939
 30
0.0
 11
48550.286756
 21
13110.92863
 31
0.0
  0
LINE
  8
1
  6
CONTINUOUS
 62
     4
  5
4B1
 10
48546.286816
 20
13113.23324
 30
0.0
 11
48550.286756
 21
13113.94248
 31
0.0
  0
LINE
  8
1
  6
CONTINUOUS
 62
     4
  5
4B2
 10
48549.891676
 20
13109.34096
 30
0.0
 11
48546.681896
 21
13108.7734
 31
0.0
  0
LINE
  8
1
  6
CONTINUOUS
 62
     4
  5
4B3
 10
48549.891676
 20
13112.35488
 30
0.0
 11
48546.681896
 21
13111.78732
 31
0.0
  0
LINE
  8
1
  6
CONTINUOUS
 62
     4
  5
4B4
 10
48549.891676
 20
13115.38847
 30
0.0
 11
48546.681896
 21
13114.82091
 31
0.0
  0
LINE
  8
1
  6
CONTINUOUS
 62
     4
  5
4B5
 10
48545.683836
 20
13106.13125
 30
0.0
 11
48546.886856
 21
13107.3342
 31
0.0
  0
LINE
  8
1
  6
CONTINUOUS
 62
     4
  5
4B6
 10
48545.683836
 20
13106.13125
 30
0.0
 11
48544.036736
 21
13106.13125
 31
0.0
  0
LINE
  8
1
  6
CONTINUOUS
 62
     4
  5
4B7
 10
48550.889736
 20
13106.13125
 30
0.0
 11
48549.686856
 21
13107.3342
 31
0.0
  0
LINE
  8
1
  6
CONTINUOUS
 62
     4
  5
4B8
 10
48550.889736
 20
13106.13125
 30
0.0
 11
48552.536836
 21
13106.13125
 31
0.0
  0
LINE
  8
1
  6
CONTINUOUS
 62
     4
  5
4B9
 10
48549.891676
 20
13107.8144
 30
0.0
 11
48546.681896
 21
13107.24691
 31
0.0
  0
LINE
  8
1
  6
CONTINUOUS
 62
     4
  5
4BA
 10
48547.680096
 20
13102.64021
 30
0.0
 11
48548.893476
 21
13102.64021
 31
0.0
  0
LINE
  8
1
  6
CONTINUOUS
 62
     4
  5
4BB
 10
48547.680096
 20
13102.13124
 30
0.0
 11
48547.680096
 21
13102.64021
 31
0.0
  0
LINE
  8
1
  6
CONTINUOUS
 62
     4
  5
4BC
 10
48548.893476
 20
13102.13124
 30
0.0
 11
48548.893476
 21
13102.64021
 31
0.0
  0
LINE
  8
1
  6
CONTINUOUS
 62
     4
  5
4BD
 10
48547.680096
 20
13102.13124
 30
0.0
 11
48548.893476
 21
13102.13124
 31
0.0
  0
LINE
  8
1
  6
CONTINUOUS
 62
     4
  5
4BE
 10
48546.286816
 20
13137.59954
 30
0.0
 11
48550.286756
 21
13138.30878
 31
0.0
  0
LINE
  8
1
  6
CONTINUOUS
 62
     4
  5
4BF
 10
48549.678036
 20
13141.25396
 30
0.0
 11
48546.793196
 21
13140.7424
 31
0.0
  0
LINE
  8
1
  6
CONTINUOUS
 62
     4
  5
4C0
 10
48549.891676
 20
13139.7547
 30
0.0
 11
48546.681896
 21
13139.18714
 31
0.0
  0
LINE
  8
1
  6
CONTINUOUS
 62
     4
  5
4C1
 10
48549.385296
 20
13142.71822
 30
0.0
 11
48547.107776
 21
13142.31558
 31
0.0
  0
LINE
  8
40
  6
CONTINUOUS
 62
     4
  5
4C2
 10
48562.950876
 20
13112.13123
 30
0.0
 11
48562.950876
 21
13101.61569
 31
0.0
  0
LINE
  8
40
  6
CONTINUOUS
 62
     4
  5
4C3
 10
48560.450896
 20
13099.49875
 30
0.0
 11
48560.450896
 21
13107.13127
 31
0.0
  0
LINE
  8
40
  6
CONTINUOUS
 62
     4
  5
4C4
 10
48500.245856
 20
13093.13127
 30
0.0
 11
48535.776876
 21
13093.13127
 31
0.0
  0
LINE
  8
40
  6
CONTINUOUS
 62
     4
  5
4C5
 10
48503.975876
 20
13092.13125
 30
0.0
 11
48531.975876
 21
13092.13125
 31
0.0
  0
LINE
  8
40
  6
CONTINUOUS
 62
     4
  5
4C6
 10
48532.560236
 20
13091.13123
 30
0.0
 11
48503.459836
 21
13091.13123
 31
0.0
  0
LINE
  8
40
  6
CONTINUOUS
 62
     4
  5
4C7
 10
48532.121896
 20
13090.13114
 30
0.0
 11
48503.856736
 21
13090.13114
 31
0.0
  0
LINE
  8
12
  6
CONTINUOUS
 62
     4
  5
4C8
 10
48541.362876
 20
13107.13127
 30
0.0
 11
48562.975936
 21
13107.13127
 31
0.0
  0
LINE
  8
12
  6
CONTINUOUS
 62
     4
  5
4C9
 10
48475.475936
 20
13099.52353
 30
0.0
 11
48475.475936
 21
13107.13127
 31
0.0
  0
LINE
  8
12
  6
CONTINUOUS
 62
     4
  5
4CA
 10
48496.325296
 20
13094.14305
 30
0.0
 11
48496.325296
 21
13094.11351
 31
0.0
  0
LINE
  8
12
  6
CONTINUOUS
 62
     4
  5
4CB
 10
48494.607356
 20
13094.58629
 30
0.0
 11
48494.607356
 21
13107.13127
 31
0.0
  0
LINE
  8
12
  6
CONTINUOUS
 62
     4
  5
4CC
 10
48496.319136
 20
13094.23853
 30
0.0
 11
48494.694436
 21
13107.23655
 31
0.0
  0
LINE
  8
12
  6
CONTINUOUS
 62
     4
  5
4CD
 10
48539.645076
 20
13094.03763
 30
0.0
 11
48539.645076
 21
13094.00816
 31
0.0
  0
LINE
  8
12
  6
CONTINUOUS
 62
     4
  5
4CE
 10
48541.362876
 20
13094.48094
 30
0.0
 11
48541.362876
 21
13107.02599
 31
0.0
  0
LINE
  8
12
  6
CONTINUOUS
 62
     4
  5
4CF
 10
48539.651236
 20
13094.13325
 30
0.0
 11
48541.275936
 21
13107.13127
 31
0.0
  0
LINE
  8
12
  6
CONTINUOUS
 62
     4
  5
4D0
 10
48494.707596
 20
13107.13127
 30
0.0
 11
48475.475936
 21
13107.13127
 31
0.0
  0
LINE
  8
12
  6
CONTINUOUS
 62
     4
  5
4D1
 10
48494.707596
 20
13106.13125
 30
0.0
 11
48475.475936
 21
13106.13125
 31
0.0
  0
LINE
  8
12
  6
CONTINUOUS
 62
     4
  5
4D2
 10
48541.362876
 20
13106.13125
 30
0.0
 11
48562.975936
 21
13106.13125
 31
0.0
  0
LINE
  8
12
  6
CONTINUOUS
 62
     4
  5
4D3
 10
48491.915016
 20
13106.13125
 30
0.0
 11
48483.415056
 21
13106.13125
 31
0.0
  0
LINE
  8
12
  6
CONTINUOUS
 62
     4
  5
4D4
 10
48483.415056
 20
13106.13125
 30
0.0
 11
48483.415056
 21
13103.13126
 31
0.0
  0
LINE
  8
12
  6
CONTINUOUS
 62
     4
  5
4D5
 10
48491.915016
 20
13106.13125
 30
0.0
 11
48491.915016
 21
13103.13126
 31
0.0
  0
LINE
  8
12
  6
CONTINUOUS
 62
     4
  5
4D6
 10
48491.915016
 20
13103.13126
 30
0.0
 11
48491.915016
 21
13106.13125
 31
0.0
  0
LINE
  8
12
  6
CONTINUOUS
 62
     4
  5
4D7
 10
48483.415056
 20
13103.13126
 30
0.0
 11
48483.415056
 21
13106.13125
 31
0.0
  0
LINE
  8
12
  6
CONTINUOUS
 62
     4
  5
4D8
 10
48483.415056
 20
13103.13126
 30
0.0
 11
48491.915016
 21
13103.13126
 31
0.0
  0
ARC
  8
12
  6
CONTINUOUS
 62
     4
  5
4D9
 10
48487.665036
 20
13111.66251
 30
0.0
 40
9.53134
 50
243.51896
 51
296.48104
  0
LINE
  8
12
  6
CONTINUOUS
 62
     4
  5
4DA
 10
48489.065036
 20
13106.13125
 30
0.0
 11
48489.065036
 21
13137.13124
 31
0.0
  0
LINE
  8
12
  6
CONTINUOUS
 62
     4
  5
4DB
 10
48486.265036
 20
13106.13125
 30
0.0
 11
48486.265036
 21
13137.13124
 31
0.0
  0
LINE
  8
12
  6
CONTINUOUS
 62
     4
  5
4DC
 10
48489.065036
 20
13137.13124
 30
0.0
 11
48486.265036
 21
13137.13124
 31
0.0
  0
LINE
  8
12
  6
CONTINUOUS
 62
     4
  5
4DD
 10
48487.665036
 20
13144.13124
 30
0.0
 11
48486.265036
 21
13137.13124
 31
0.0
  0
LINE
  8
12
  6
CONTINUOUS
 62
     4
  5
4DE
 10
48487.665036
 20
13144.13124
 30
0.0
 11
48489.065036
 21
13137.13124
 31
0.0
  0
LINE
  8
12
  6
CENTER
 62
     4
  5
4DF
 10
48487.665036
 20
13103.13126
 30
0.0
 11
48487.665036
 21
13144.13124
 31
0.0
  0
LINE
  8
12
  6
CENTER
 62
     4
  5
4E0
 10
48487.665036
 20
13144.13124
 30
0.0
 11
48487.665036
 21
13104.62422
 31
0.0
  0
LINE
  8
12
  6
CONTINUOUS
 62
     4
  5
4E1
 10
48552.536836
 20
13106.13125
 30
0.0
 11
48544.036736
 21
13106.13125
 31
0.0
  0
LINE
  8
12
  6
CONTINUOUS
 62
     4
  5
4E2
 10
48544.036736
 20
13106.13125
 30
0.0
 11
48544.036736
 21
13103.13126
 31
0.0
  0
LINE
  8
12
  6
CONTINUOUS
 62
     4
  5
4E3
 10
48552.536836
 20
13106.13125
 30
0.0
 11
48552.536836
 21
13103.13126
 31
0.0
  0
LINE
  8
12
  6
CONTINUOUS
 62
     4
  5
4E4
 10
48552.536836
 20
13103.13126
 30
0.0
 11
48552.536836
 21
13106.13125
 31
0.0
  0
LINE
  8
12
  6
CONTINUOUS
 62
     4
  5
4E5
 10
48544.036736
 20
13103.13126
 30
0.0
 11
48544.036736
 21
13106.13125
 31
0.0
  0
LINE
  8
12
  6
CONTINUOUS
 62
     4
  5
4E6
 10
48544.036736
 20
13103.13126
 30
0.0
 11
48552.536836
 21
13103.13126
 31
0.0
  0
ARC
  8
12
  6
CONTINUOUS
 62
     4
  5
4E7
 10
48548.286856
 20
13111.66251
 30
0.0
 40
9.53134
 50
243.51896
 51
296.48104
  0
LINE
  8
12
  6
CONTINUOUS
 62
     4
  5
4E8
 10
48549.686856
 20
13106.13125
 30
0.0
 11
48549.686856
 21
13137.13124
 31
0.0
  0
LINE
  8
12
  6
CONTINUOUS
 62
     4
  5
4E9
 10
48546.886856
 20
13106.13125
 30
0.0
 11
48546.886856
 21
13137.13124
 31
0.0
  0
LINE
  8
12
  6
CONTINUOUS
 62
     4
  5
4EA
 10
48549.686856
 20
13137.13124
 30
0.0
 11
48546.886856
 21
13137.13124
 31
0.0
  0
LINE
  8
12
  6
CONTINUOUS
 62
     4
  5
4EB
 10
48548.286856
 20
13144.13124
 30
0.0
 11
48546.886856
 21
13137.13124
 31
0.0
  0
LINE
  8
12
  6
CONTINUOUS
 62
     4
  5
4EC
 10
48548.286856
 20
13144.13124
 30
0.0
 11
48549.686856
 21
13137.13124
 31
0.0
  0
LINE
  8
12
  6
CENTER
 62
     4
  5
4ED
 10
48548.286856
 20
13103.13126
 30
0.0
 11
48548.286856
 21
13144.13124
 31
0.0
  0
LINE
  8
12
  6
CENTER
 62
     4
  5
4EE
 10
48548.286856
 20
13144.13124
 30
0.0
 11
48548.286856
 21
13104.62422
 31
0.0
  0
LINE
  8
12
  6
CONTINUOUS
 62
     4
  5
4EF
 10
48493.373536
 20
13106.37849
 30
0.0
 11
48481.873516
 21
13106.37849
 31
0.0
  0
LINE
  8
12
  6
CONTINUOUS
 62
     4
  5
4F0
 10
48493.373536
 20
13107.17838
 30
0.0
 11
48481.873516
 21
13107.17838
 31
0.0
  0
LINE
  8
12
  6
CONTINUOUS
 62
     4
  5
4F1
 10
48493.373536
 20
13106.37849
 30
0.0
 11
48493.373536
 21
13107.17838
 31
0.0
  0
LINE
  8
12
  6
CONTINUOUS
 62
     4
  5
4F2
 10
48490.373616
 20
13106.37849
 30
0.0
 11
48490.373616
 21
13107.17838
 31
0.0
  0
LINE
  8
12
  6
CONTINUOUS
 62
     4
  5
4F3
 10
48484.873576
 20
13106.37849
 30
0.0
 11
48484.873576
 21
13107.17838
 31
0.0
  0
LINE
  8
12
  6
CONTINUOUS
 62
     4
  5
4F4
 10
48481.873516
 20
13106.37849
 30
0.0
 11
48481.873516
 21
13107.17838
 31
0.0
  0
LINE
  8
12
  6
CONTINUOUS
 62
     4
  5
4F5
 10
48553.991716
 20
13106.37849
 30
0.0
 11
48542.491696
 21
13106.37849
 31
0.0
  0
LINE
  8
12
  6
CONTINUOUS
 62
     4
  5
4F6
 10
48553.991716
 20
13107.17838
 30
0.0
 11
48542.491696
 21
13107.17838
 31
0.0
  0
LINE
  8
12
  6
CONTINUOUS
 62
     4
  5
4F7
 10
48553.991716
 20
13106.37849
 30
0.0
 11
48553.991716
 21
13107.17838
 31
0.0
  0
LINE
  8
12
  6
CONTINUOUS
 62
     4
  5
4F8
 10
48550.991656
 20
13106.37849
 30
0.0
 11
48550.991656
 21
13107.17838
 31
0.0
  0
LINE
  8
12
  6
CONTINUOUS
 62
     4
  5
4F9
 10
48545.491616
 20
13106.37849
 30
0.0
 11
48545.491616
 21
13107.17838
 31
0.0
  0
LINE
  8
12
  6
CONTINUOUS
 62
     4
  5
4FA
 10
48542.491696
 20
13106.37849
 30
0.0
 11
48542.491696
 21
13107.17838
 31
0.0
  0
LINE
  8
8
  6
CONTINUOUS
 62
     4
  5
4FB
 10
48534.976356
 20
13092.92463
 30
0.0
 11
48561.471916
 21
13099.76216
 31
0.0
  0
LINE
  8
8
  6
CONTINUOUS
 62
     4
  5
4FC
 10
48501.164116
 20
13092.89418
 30
0.0
 11
48474.433076
 21
13099.79254
 31
0.0
  0
ARC
  8
8
  6
CONTINUOUS
 62
     4
  5
4FD
 10
48500.008136
 20
13089.09528
 30
0.0
 40
4.00008
 50
0.0
 51
75.529706
  0
LINE
  8
50
  6
CENTER
 62
     4
  5
4FE
 10
48487.623596
 20
13106.37849
 30
0.0
 11
48487.623596
 21
13108.50047
 31
0.0
  0
LINE
  8
50
  6
CENTER
 62
     4
  5
4FF
 10
48548.241636
 20
13106.37849
 30
0.0
 11
48548.241636
 21
13108.50047
 31
0.0
  0
ARC
  8
8
  6
CONTINUOUS
 62
     4
  5
500
 10
48535.970356
 20
13089.04439
 30
0.0
 40
4.00008
 50
104.470294
 51
180.0
  0
LINE
  8
40
  6
CONTINUOUS
 62
     4
  5
501
 10
48503.975876
 20
13062.131
 30
0.0
 11
48503.975876
 21
13084.715333
 31
0.0
  0
LINE
  8
8
  6
CONTINUOUS
 62
     4
  5
502
 10
48493.95914
 20
13062.131
 30
0.0
 11
48972.75914
 21
13062.131
 31
0.0
  0
LINE
  8
8
  6
CONTINUOUS
 62
     4
  5
503
 10
48972.75914
 20
13047.105895
 30
0.0
 11
48972.75914
 21
13062.131
 31
0.0
  0
ARC
  8
8
  6
CONTINUOUS
 62
     4
  5
504
 10
48962.742404
 20
13047.105895
 30
0.0
 40
10.016736
 50
270.0
 51
0.0
  0
LINE
  8
8
  6
CONTINUOUS
 62
     4
  5
505
 10
48503.975876
 20
13037.089159
 30
0.0
 11
48962.742404
 21
13037.089159
 31
0.0
  0
ARC
  8
8
  6
CONTINUOUS
 62
     4
  5
506
 10
48503.975876
 20
13047.105895
 30
0.0
 40
10.016736
 50
180.0
 51
270.0
  0
LINE
  8
8
  6
CONTINUOUS
 62
     4
  5
507
 10
48493.95914
 20
13047.105895
 30
0.0
 11
48493.95914
 21
13062.131
 31
0.0
  0
TEXT
  8
5
  6
CONTINUOUS
 62
     3
  5
508
 10
48541.363177
 20
12887.089159
 30
0.0
 40
60.0
  1
テスリックス
 41
0.837
  7

 72
     5
 11
48901.363177
 21
12887.089159
 31
0.0
  0
LINE
  8
5
  6
CONTINUOUS
 62
     3
  5
509
 10
48577.965717
 20
13037.089159
 30
0.0
 11
48491.363177
 21
12887.089159
 31
0.0
  0
LINE
  8
5
  6
CONTINUOUS
 62
     3
  5
50A
 10
48491.363177
 20
12887.089159
 30
0.0
 11
48901.363177
 21
12887.089159
 31
0.0
  0
TEXT
  8
5
  6
CONTINUOUS
 62
     3
  5
50B
 10
48871.677217
 20
10828.214907
 30
0.0
 40
90.0
  1
平面図
 41
0.837
  7

 72
     5
 11
49141.677217
 21
10828.214907
 31
0.0
  0
TEXT
  8
5
  6
CONTINUOUS
 62
     3
  5
50C
 10
48700.960231
 20
8094.471777
 30
0.0
 40
90.0
  1
テスリックス
 41
0.837
  7

 72
     5
 11
49240.960231
 21
8094.471777
 31
0.0
  0
TEXT
  8
5
  6
CONTINUOUS
 62
     3
  5
50D
 10
48700.960231
 20
8004.471777
 30
0.0
 40
90.0
  1
取付側展開図
 41
0.837
  7

 72
     5
 11
49240.960231
 21
8004.471777
 31
0.0
  0
LINE
  8
2
  6
CONTINUOUS
 62
     1
  5
50E
 10
48613.85884
 20
8915.735286
 30
0.0
 11
48620.35924
 21
8915.735286
 31
0.0
  0
LINE
  8
2
  6
CONTINUOUS
 62
     1
  5
50F
 10
48613.85884
 20
9006.935086
 30
0.0
 11
48614.85884
 21
9006.935086
 31
0.0
  0
LINE
  8
2
  6
CONTINUOUS
 62
     1
  5
510
 10
48742.85944
 20
8914.835486
 30
0.0
 11
48745.62314
 21
8914.835486
 31
0.0
  0
LINE
  8
2
  6
CONTINUOUS
 62
     1
  5
511
 10
48742.85944
 20
9007.834886
 30
0.0
 11
48742.85944
 21
8914.835486
 31
0.0
  0
LINE
  8
2
  6
CONTINUOUS
 62
     1
  5
512
 10
48742.85944
 20
9007.834886
 30
0.0
 11
48745.82434
 21
9007.834886
 31
0.0
  0
LINE
  8
2
  6
CONTINUOUS
 62
     1
  5
513
 10
48613.85884
 20
8914.835486
 30
0.0
 11
48611.09604
 21
8914.835486
 31
0.0
  0
LINE
  8
2
  6
CONTINUOUS
 62
     1
  5
514
 10
48613.85884
 20
9007.834886
 30
0.0
 11
48613.85884
 21
8914.835486
 31
0.0
  0
LINE
  8
2
  6
CONTINUOUS
 62
     1
  5
515
 10
48613.85884
 20
9007.834886
 30
0.0
 11
48610.89484
 21
9007.834886
 31
0.0
  0
LINE
  8
2
  6
CONTINUOUS
 62
     1
  5
516
 10
48613.85884
 20
8945.835386
 30
0.0
 11
48620.35924
 21
8945.835386
 31
0.0
  0
LINE
  8
2
  6
CONTINUOUS
 62
     1
  5
517
 10
48613.85884
 20
8961.710886
 30
0.0
 11
48620.35924
 21
8961.600686
 31
0.0
  0
LINE
  8
2
  6
CONTINUOUS
 62
     1
  5
518
 10
48742.85944
 20
8945.835386
 30
0.0
 11
48736.35914
 21
8945.835386
 31
0.0
  0
LINE
  8
2
  6
CONTINUOUS
 62
     1
  5
519
 10
48742.85944
 20
8961.710886
 30
0.0
 11
48736.35914
 21
8961.600686
 31
0.0
  0
LINE
  8
2
  6
CONTINUOUS
 62
     1
  5
51A
 10
48741.85944
 20
9009.163786
 30
0.0
 11
48741.85944
 21
8996.402886
 31
0.0
  0
LINE
  8
2
  6
CONTINUOUS
 62
     1
  5
51B
 10
48614.85884
 20
9009.163786
 30
0.0
 11
48614.85884
 21
8996.402886
 31
0.0
  0
LINE
  8
2
  6
CONTINUOUS
 62
     1
  5
51C
 10
48741.85944
 20
9006.435086
 30
0.0
 11
48741.85944
 21
8999.435186
 31
0.0
  0
LINE
  8
2
  6
CONTINUOUS
 62
     1
  5
51D
 10
48614.85884
 20
9006.435086
 30
0.0
 11
48614.85884
 21
8999.435186
 31
0.0
  0
LINE
  8
2
  6
CONTINUOUS
 62
     1
  5
51E
 10
48614.85884
 20
9009.163786
 30
0.0
 11
48741.85944
 21
9009.163786
 31
0.0
  0
LINE
  8
2
  6
CONTINUOUS
 62
     1
  5
51F
 10
48618.85884
 20
8992.402886
 30
0.0
 11
48737.85954
 21
8992.402886
 31
0.0
  0
LINE
  8
2
  6
CONTINUOUS
 62
     1
  5
520
 10
48620.35924
 20
8992.402886
 30
0.0
 11
48620.35924
 21
8893.600486
 31
0.0
  0
LINE
  8
2
  6
CONTINUOUS
 62
     1
  5
521
 10
48736.35914
 20
8992.402886
 30
0.0
 11
48736.35914
 21
8893.600486
 31
0.0
  0
LINE
  8
2
  6
CONTINUOUS
 62
     1
  5
522
 10
48620.35924
 20
8893.600486
 30
0.0
 11
48736.35914
 21
8893.600486
 31
0.0
  0
LINE
  8
2
  6
CONTINUOUS
 62
     1
  5
523
 10
48741.85944
 20
9006.935086
 30
0.0
 11
48742.85944
 21
9006.935086
 31
0.0
  0
LINE
  8
2
  6
CONTINUOUS
 62
     1
  5
524
 10
48736.35914
 20
8915.735286
 30
0.0
 11
48742.85944
 21
8915.735286
 31
0.0
  0
ARC
  8
2
  6
CONTINUOUS
 62
     1
  5
525
 10
47961.35634
 20
8963.835086
 30
0.0
 40
799.99998
 50
357.51699
 51
2.121567
  0
ARC
  8
2
  6
CONTINUOUS
 62
     1
  5
526
 10
48745.62314
 20
8929.835286
 30
0.0
 40
15.0
 50
270.0
 51
357.55299
  0
ARC
  8
2
  6
CONTINUOUS
 62
     1
  5
527
 10
48745.82434
 20
8992.835086
 30
0.0
 40
15.0
 50
2.35347
 51
90.0
  0
ARC
  8
2
  6
CONTINUOUS
 62
     1
  5
528
 10
49395.35894
 20
8963.835086
 30
0.0
 40
799.99998
 50
177.87799
 51
182.48298
  0
ARC
  8
2
  6
CONTINUOUS
 62
     1
  5
529
 10
48611.09604
 20
8929.835286
 30
0.0
 40
15.0
 50
182.44699
 51
270.0
  0
ARC
  8
2
  6
CONTINUOUS
 62
     1
  5
52A
 10
48610.89484
 20
8992.835086
 30
0.0
 40
15.0
 50
90.0
 51
177.64599
  0
ARC
  8
2
  6
CONTINUOUS
 62
     1
  5
52B
 10
48737.85954
 20
8996.402886
 30
0.0
 40
3.999999
 50
270.0
 51
360.0
  0
ARC
  8
2
  6
CONTINUOUS
 62
     1
  5
52C
 10
48618.85884
 20
8996.402886
 30
0.0
 40
3.999999
 50
180.0
 51
270.0
  0
LINE
  8
2
  6
CONTINUOUS
 62
     1
  5
52D
 10
49163.05114
 20
8658.516286
 30
0.0
 11
49162.68414
 21
8654.236386
 31
0.0
  0
LINE
  8
2
  6
CONTINUOUS
 62
     1
  5
52E
 10
49093.72614
 20
8800.352986
 30
0.0
 11
49143.33514
 21
8804.002186
 31
0.0
  0
LINE
  8
2
  6
CONTINUOUS
 62
     1
  5
52F
 10
48978.78814
 20
8789.731986
 30
0.0
 11
49062.73114
 21
8797.654886
 31
0.0
  0
LINE
  8
2
  6
CONTINUOUS
 62
     1
  5
530
 10
49067.03514
 20
8794.213186
 30
0.0
 11
49090.43614
 21
8796.122986
 31
0.0
  0
LINE
  8
2
  6
CONTINUOUS
 62
     1
  5
531
 10
48771.76114
 20
8682.164186
 30
0.0
 11
48746.03314
 21
8682.384686
 31
0.0
  0
LINE
  8
2
  6
CONTINUOUS
 62
     1
  5
532
 10
48746.03314
 20
8682.384686
 30
0.0
 11
48731.14214
 21
8682.714486
 31
0.0
  0
LINE
  8
2
  6
CONTINUOUS
 62
     1
  5
533
 10
48779.84814
 20
8295.843286
 30
0.0
 11
48780.01314
 21
8306.806286
 31
0.0
  0
LINE
  8
2
  6
CONTINUOUS
 62
     1
  5
534
 10
48779.69814
 20
8274.163786
 30
0.0
 11
48779.84814
 21
8295.843286
 31
0.0
  0
LINE
  8
2
  6
CONTINUOUS
 62
     1
  5
535
 10
49124.69714
 20
8645.163986
 30
0.0
 11
49022.20014
 21
8645.163986
 31
0.0
  0
LINE
  8
2
  6
CONTINUOUS
 62
     1
  5
536
 10
49142.69814
 20
8645.163986
 30
0.0
 11
49124.69714
 21
8645.163986
 31
0.0
  0
LINE
  8
2
  6
CONTINUOUS
 62
     1
  5
537
 10
49022.20014
 20
8645.163986
 30
0.0
 11
48964.48914
 21
8645.163986
 31
0.0
  0
LINE
  8
2
  6
CONTINUOUS
 62
     1
  5
538
 10
49149.73614
 20
8645.163986
 30
0.0
 11
49142.69814
 21
8645.163986
 31
0.0
  0
LINE
  8
2
  6
CONTINUOUS
 62
     1
  5
539
 10
49149.73614
 20
8645.163986
 30
0.0
 11
49152.72414
 21
8645.163986
 31
0.0
  0
LINE
  8
2
  6
CONTINUOUS
 62
     1
  5
53A
 10
49148.70014
 20
8644.163986
 30
0.0
 11
49149.73614
 21
8645.163986
 31
0.0
  0
LINE
  8
2
  6
CONTINUOUS
 62
     1
  5
53B
 10
49022.20014
 20
8644.163986
 30
0.0
 11
49124.69714
 21
8644.163986
 31
0.0
  0
LINE
  8
2
  6
CONTINUOUS
 62
     1
  5
53C
 10
49022.20014
 20
8644.163986
 30
0.0
 11
49022.20014
 21
8645.163986
 31
0.0
  0
LINE
  8
2
  6
CONTINUOUS
 62
     1
  5
53D
 10
49142.69814
 20
8644.163986
 30
0.0
 11
49148.70014
 21
8644.163986
 31
0.0
  0
LINE
  8
2
  6
CONTINUOUS
 62
     1
  5
53E
 10
49142.69814
 20
8644.163986
 30
0.0
 11
49142.69814
 21
8645.163986
 31
0.0
  0
LINE
  8
2
  6
CONTINUOUS
 62
     1
  5
53F
 10
49124.69714
 20
8644.163986
 30
0.0
 11
49124.69714
 21
8645.163986
 31
0.0
  0
LINE
  8
2
  6
CONTINUOUS
 62
     1
  5
540
 10
49164.68614
 20
8660.150586
 30
0.0
 11
49163.05114
 21
8658.516286
 31
0.0
  0
LINE
  8
2
  6
CONTINUOUS
 62
     1
  5
541
 10
48994.79814
 20
8766.877586
 30
0.0
 11
48995.93214
 21
8783.966586
 31
0.0
  0
LINE
  8
2
  6
CONTINUOUS
 62
     1
  5
542
 10
49090.43614
 20
8796.122986
 30
0.0
 11
49091.09814
 21
8798.250686
 31
0.0
  0
LINE
  8
2
  6
CONTINUOUS
 62
     1
  5
543
 10
49146.97514
 20
8802.168386
 30
0.0
 11
49161.09514
 21
8780.103986
 31
0.0
  0
LINE
  8
2
  6
CONTINUOUS
 62
     1
  5
544
 10
49161.72814
 20
8778.048086
 30
0.0
 11
49163.65014
 21
8701.467486
 31
0.0
  0
LINE
  8
2
  6
CONTINUOUS
 62
     1
  5
545
 10
49161.26714
 20
8773.364886
 30
0.0
 11
49146.97514
 21
8795.692586
 31
0.0
  0
LINE
  8
2
  6
CONTINUOUS
 62
     1
  5
546
 10
48997.28314
 20
8785.701486
 30
0.0
 11
48984.27214
 21
8782.900986
 31
0.0
  0
LINE
  8
2
  6
CONTINUOUS
 62
     1
  5
547
 10
48937.00114
 20
8649.163886
 30
0.0
 11
48775.30614
 21
8649.163886
 31
0.0
  0
LINE
  8
2
  6
CONTINUOUS
 62
     1
  5
548
 10
48953.32914
 20
8659.164586
 30
0.0
 11
48694.36214
 21
8659.164586
 31
0.0
  0
LINE
  8
2
  6
CONTINUOUS
 62
     1
  5
549
 10
48937.00114
 20
8659.164586
 30
0.0
 11
48937.00114
 21
8649.163886
 31
0.0
  0
LINE
  8
2
  6
CONTINUOUS
 62
     1
  5
54A
 10
48748.59114
 20
8649.163886
 30
0.0
 11
48698.58314
 21
8649.163886
 31
0.0
  0
LINE
  8
2
  6
CONTINUOUS
 62
     1
  5
54B
 10
48775.30614
 20
8659.164586
 30
0.0
 11
48775.30614
 21
8649.163886
 31
0.0
  0
LINE
  8
2
  6
CONTINUOUS
 62
     1
  5
54C
 10
48748.59114
 20
8654.163786
 30
0.0
 11
48748.59114
 21
8649.163886
 31
0.0
  0
LINE
  8
2
  6
CONTINUOUS
 62
     1
  5
54D
 10
48637.69814
 20
8659.164586
 30
0.0
 11
48694.36214
 21
8659.164586
 31
0.0
  0
LINE
  8
2
  6
CONTINUOUS
 62
     1
  5
54E
 10
48775.30614
 20
8649.163886
 30
0.0
 11
48775.31314
 21
8648.195386
 31
0.0
  0
LINE
  8
2
  6
CONTINUOUS
 62
     1
  5
54F
 10
48771.31314
 20
8644.163986
 30
0.0
 11
48752.60114
 21
8644.163986
 31
0.0
  0
LINE
  8
2
  6
CONTINUOUS
 62
     1
  5
550
 10
48748.60114
 20
8648.133286
 30
0.0
 11
48748.59114
 21
8649.163886
 31
0.0
  0
LINE
  8
2
  6
CONTINUOUS
 62
     1
  5
551
 10
48957.41014
 20
8644.163986
 30
0.0
 11
48941.00114
 21
8644.163986
 31
0.0
  0
LINE
  8
2
  6
CONTINUOUS
 62
     1
  5
552
 10
48750.05014
 20
8695.150886
 30
0.0
 11
48747.87314
 21
8685.038186
 31
0.0
  0
LINE
  8
2
  6
CONTINUOUS
 62
     1
  5
553
 10
48983.17314
 20
8782.663886
 30
0.0
 11
48984.27214
 21
8782.900986
 31
0.0
  0
LINE
  8
2
  6
CONTINUOUS
 62
     1
  5
554
 10
49164.42714
 20
8670.497686
 30
0.0
 11
49164.68614
 21
8660.150586
 31
0.0
  0
LINE
  8
2
  6
CONTINUOUS
 62
     1
  5
555
 10
49163.65014
 20
8701.467486
 30
0.0
 11
49164.42714
 21
8670.497686
 31
0.0
  0
LINE
  8
2
  6
CONTINUOUS
 62
     1
  5
556
 10
48729.72814
 20
8685.061786
 30
0.0
 11
48727.54814
 21
8694.519186
 31
0.0
  0
LINE
  8
2
  6
CONTINUOUS
 62
     1
  5
557
 10
48937.00114
 20
8649.163886
 30
0.0
 11
48937.00114
 21
8648.163886
 31
0.0
  0
LINE
  8
2
  6
CONTINUOUS
 62
     1
  5
558
 10
49387.74114
 20
8654.163786
 30
0.0
 11
49204.51314
 21
8654.163786
 31
0.0
  0
LINE
  8
2
  6
CONTINUOUS
 62
     1
  5
559
 10
48779.96714
 20
8307.021586
 30
0.0
 11
48779.96714
 21
8312.663586
 31
0.0
  0
LINE
  8
2
  6
CONTINUOUS
 62
     1
  5
55A
 10
49341.69814
 20
8650.163886
 30
0.0
 11
49341.69814
 21
8622.163386
 31
0.0
  0
LINE
  8
2
  6
CONTINUOUS
 62
     1
  5
55B
 10
49341.69814
 20
8622.163386
 30
0.0
 11
49341.69814
 21
8584.164886
 31
0.0
  0
LINE
  8
2
  6
CONTINUOUS
 62
     1
  5
55C
 10
49341.69814
 20
8653.163786
 30
0.0
 11
49341.69814
 21
8650.163886
 31
0.0
  0
LINE
  8
2
  6
CONTINUOUS
 62
     1
  5
55D
 10
48779.96714
 20
8312.663586
 30
0.0
 11
48779.05414
 21
8311.292686
 31
0.0
  0
LINE
  8
2
  6
CONTINUOUS
 62
     1
  5
55E
 10
48779.05414
 20
8297.034786
 30
0.0
 11
48779.84814
 21
8295.843286
 31
0.0
  0
LINE
  8
2
  6
CONTINUOUS
 62
     1
  5
55F
 10
48779.96714
 20
8307.013686
 30
0.0
 11
48779.96714
 21
8307.021586
 31
0.0
  0
LINE
  8
2
  6
CONTINUOUS
 62
     1
  5
560
 10
48779.96714
 20
8304.164186
 30
0.0
 11
48779.96714
 21
8307.013686
 31
0.0
  0
LINE
  8
2
  6
CONTINUOUS
 62
     1
  5
561
 10
49206.69714
 20
8650.163886
 30
0.0
 11
49233.69914
 21
8650.163886
 31
0.0
  0
LINE
  8
2
  6
CONTINUOUS
 62
     1
  5
562
 10
48651.69614
 20
8644.163986
 30
0.0
 11
48752.60114
 21
8644.163986
 31
0.0
  0
LINE
  8
2
  6
CONTINUOUS
 62
     1
  5
563
 10
49331.69914
 20
8653.163786
 30
0.0
 11
49331.69914
 21
8650.163886
 31
0.0
  0
LINE
  8
2
  6
CONTINUOUS
 62
     1
  5
564
 10
49243.70114
 20
8650.163886
 30
0.0
 11
49331.69914
 21
8650.163886
 31
0.0
  0
LINE
  8
2
  6
CONTINUOUS
 62
     1
  5
565
 10
49341.69814
 20
8650.163886
 30
0.0
 11
49331.69914
 21
8650.163886
 31
0.0
  0
LINE
  8
2
  6
CONTINUOUS
 62
     1
  5
566
 10
49340.70014
 20
8654.163786
 30
0.0
 11
49332.70014
 21
8654.163786
 31
0.0
  0
LINE
  8
2
  6
CONTINUOUS
 62
     1
  5
567
 10
49206.69714
 20
8650.163886
 30
0.0
 11
49206.69714
 21
8649.163886
 31
0.0
  0
LINE
  8
2
  6
CONTINUOUS
 62
     1
  5
568
 10
49233.69914
 20
8653.163786
 30
0.0
 11
49233.69914
 21
8650.163886
 31
0.0
  0
LINE
  8
2
  6
CONTINUOUS
 62
     1
  5
569
 10
49243.70114
 20
8653.163786
 30
0.0
 11
49243.70114
 21
8650.163886
 31
0.0
  0
LINE
  8
2
  6
CONTINUOUS
 62
     1
  5
56A
 10
49243.70114
 20
8650.163886
 30
0.0
 11
49233.69914
 21
8650.163886
 31
0.0
  0
LINE
  8
2
  6
CONTINUOUS
 62
     1
  5
56B
 10
49242.70014
 20
8654.163786
 30
0.0
 11
49234.70014
 21
8654.163786
 31
0.0
  0
LINE
  8
2
  6
CONTINUOUS
 62
     1
  5
56C
 10
49300.70114
 20
8345.163486
 30
0.0
 11
49303.70014
 21
8347.663886
 31
0.0
  0
LINE
  8
2
  6
CONTINUOUS
 62
     1
  5
56D
 10
49303.70014
 20
8347.663886
 30
0.0
 11
49328.69714
 21
8347.663886
 31
0.0
  0
LINE
  8
2
  6
CONTINUOUS
 62
     1
  5
56E
 10
49328.69714
 20
8347.663886
 30
0.0
 11
49331.69914
 21
8345.663986
 31
0.0
  0
LINE
  8
2
  6
CONTINUOUS
 62
     1
  5
56F
 10
49303.70014
 20
8440.664186
 30
0.0
 11
49328.69714
 21
8440.664186
 31
0.0
  0
LINE
  8
2
  6
CONTINUOUS
 62
     1
  5
570
 10
49300.70114
 20
8443.163686
 30
0.0
 11
49303.70014
 21
8440.664186
 31
0.0
  0
LINE
  8
2
  6
CONTINUOUS
 62
     1
  5
571
 10
49328.69714
 20
8440.664186
 30
0.0
 11
49331.69914
 21
8442.664186
 31
0.0
  0
LINE
  8
2
  6
CONTINUOUS
 62
     1
  5
572
 10
49331.69914
 20
8442.664186
 30
0.0
 11
49338.69814
 21
8442.664186
 31
0.0
  0
LINE
  8
2
  6
CONTINUOUS
 62
     1
  5
573
 10
49331.69914
 20
8345.663986
 30
0.0
 11
49338.69814
 21
8345.663986
 31
0.0
  0
LINE
  8
2
  6
CONTINUOUS
 62
     1
  5
574
 10
49338.69814
 20
8442.664186
 30
0.0
 11
49338.69814
 21
8345.663986
 31
0.0
  0
LINE
  8
2
  6
CONTINUOUS
 62
     1
  5
575
 10
49297.74014
 20
8345.163486
 30
0.0
 11
49300.70114
 21
8345.163486
 31
0.0
  0
LINE
  8
2
  6
CONTINUOUS
 62
     1
  5
576
 10
49297.74014
 20
8345.163486
 30
0.0
 11
49300.70114
 21
8274.163786
 31
0.0
  0
LINE
  8
2
  6
CONTINUOUS
 62
     1
  5
577
 10
49300.70114
 20
8443.163686
 30
0.0
 11
49298.19914
 21
8443.163686
 31
0.0
  0
LINE
  8
2
  6
CONTINUOUS
 62
     1
  5
578
 10
49340.74914
 20
8579.912186
 30
0.0
 11
49335.69914
 21
8569.163386
 31
0.0
  0
LINE
  8
2
  6
CONTINUOUS
 62
     1
  5
579
 10
49300.70114
 20
8492.163786
 30
0.0
 11
49298.19914
 21
8443.163686
 31
0.0
  0
LINE
  8
2
  6
CONTINUOUS
 62
     1
  5
57A
 10
49335.69914
 20
8569.163386
 30
0.0
 11
49300.70114
 21
8492.163786
 31
0.0
  0
LINE
  8
2
  6
CONTINUOUS
 62
     1
  5
57B
 10
48779.69814
 20
8274.163786
 30
0.0
 11
49300.70114
 21
8274.163786
 31
0.0
  0
LINE
  8
2
  6
CONTINUOUS
 62
     1
  5
57C
 10
49292.94214
 20
8299.163386
 30
0.0
 11
49187.69814
 21
8299.163386
 31
0.0
  0
LINE
  8
2
  6
CONTINUOUS
 62
     1
  5
57D
 10
49061.77914
 20
8477.163986
 30
0.0
 11
49138.69814
 21
8477.163986
 31
0.0
  0
LINE
  8
2
  6
CONTINUOUS
 62
     1
  5
57E
 10
49065.11414
 20
8579.164086
 30
0.0
 11
49077.66314
 21
8579.164086
 31
0.0
  0
LINE
  8
2
  6
CONTINUOUS
 62
     1
  5
57F
 10
49248.34814
 20
8619.164386
 30
0.0
 11
49338.69514
 21
8619.164386
 31
0.0
  0
LINE
  8
2
  6
CONTINUOUS
 62
     1
  5
580
 10
49221.80814
 20
8605.515386
 30
0.0
 11
49243.38614
 21
8617.846786
 31
0.0
  0
LINE
  8
2
  6
CONTINUOUS
 62
     1
  5
581
 10
49077.66314
 20
8579.164086
 30
0.0
 11
49122.57914
 21
8579.164086
 31
0.0
  0
LINE
  8
2
  6
CONTINUOUS
 62
     1
  5
582
 10
49183.69814
 20
8303.164186
 30
0.0
 11
49183.69814
 21
8432.163886
 31
0.0
  0
LINE
  8
2
  6
CONTINUOUS
 62
     1
  5
583
 10
49285.27114
 20
8368.163986
 30
0.0
 11
49195.69814
 21
8368.163986
 31
0.0
  0
LINE
  8
2
  6
CONTINUOUS
 62
     1
  5
584
 10
49286.52114
 20
8338.163686
 30
0.0
 11
49183.69814
 21
8338.163686
 31
0.0
  0
LINE
  8
2
  6
CONTINUOUS
 62
     1
  5
585
 10
49297.26114
 20
8356.679486
 30
0.0
 11
49297.74014
 21
8345.163486
 31
0.0
  0
LINE
  8
2
  6
CONTINUOUS
 62
     1
  5
586
 10
48957.41014
 20
8644.163986
 30
0.0
 11
49022.20014
 21
8644.163986
 31
0.0
  0
LINE
  8
2
  6
CONTINUOUS
 62
     1
  5
587
 10
48771.31314
 20
8644.163986
 30
0.0
 11
48941.00114
 21
8644.163986
 31
0.0
  0
LINE
  8
2
  6
CONTINUOUS
 62
     1
  5
588
 10
49124.69714
 20
8644.163986
 30
0.0
 11
49142.69814
 21
8644.163986
 31
0.0
  0
LINE
  8
2
  6
CONTINUOUS
 62
     1
  5
589
 10
49148.70014
 20
8644.163986
 30
0.0
 11
49201.70014
 21
8644.163986
 31
0.0
  0
ARC
  8
2
  6
CONTINUOUS
 62
     1
  5
58A
 10
49152.72414
 20
8655.163786
 30
0.0
 40
10.0
 50
270.0
 51
354.67895
  0
ARC
  8
2
  6
CONTINUOUS
 62
     1
  5
58B
 10
49093.96114
 20
8797.362686
 30
0.0
 40
2.999999
 50
94.492553
 51
162.76669
  0
ARC
  8
2
  6
CONTINUOUS
 62
     1
  5
58C
 10
48966.85114
 20
8756.724686
 30
0.0
 40
7.999999
 50
94.632736
 51
173.2142
  0
ARC
  8
2
  6
CONTINUOUS
 62
     1
  5
58D
 10
49157.72914
 20
8777.948286
 30
0.0
 40
3.999999
 50
1.4375
 51
32.619247
  0
ARC
  8
2
  6
CONTINUOUS
 62
     1
  5
58E
 10
49143.60814
 20
8800.011786
 30
0.0
 40
3.999999
 50
32.619247
 51
93.922561
  0
ARC
  8
2
  6
CONTINUOUS
 62
     1
  5
58F
 10
49143.60814
 20
8793.536886
 30
0.0
 40
3.999999
 50
32.619247
 51
93.922561
  0
ARC
  8
2
  6
CONTINUOUS
 62
     1
  5
590
 10
48743.59314
 20
8654.163786
 30
0.0
 40
5.0
 50
360.0
 51
90.0
  0
ARC
  8
2
  6
CONTINUOUS
 62
     1
  5
591
 10
48698.58314
 20
8651.163886
 30
0.0
 40
2.0
 50
185.45137
 51
270.0
  0
ARC
  8
2
  6
CONTINUOUS
 62
     1
  5
592
 10
48771.31314
 20
8648.163886
 30
0.0
 40
3.999999
 50
270.0
 51
0.442383
  0
ARC
  8
2
  6
CONTINUOUS
 62
     1
  5
593
 10
48752.60114
 20
8648.163886
 30
0.0
 40
3.999999
 50
180.44238
 51
270.0
  0
ARC
  8
2
  6
CONTINUOUS
 62
     1
  5
594
 10
48941.00114
 20
8648.163886
 30
0.0
 40
3.999999
 50
180.0
 51
270.0
  0
ARC
  8
2
  6
CONTINUOUS
 62
     1
  5
595
 10
49331.69914
 20
8584.164886
 30
0.0
 40
10.0
 50
334.83123
 51
360.0
  0
ARC
  8
2
  6
CONTINUOUS
 62
     1
  5
596
 10
48779.88714
 20
8310.737986
 30
0.0
 40
1.0
 50
146.30993
 51
164.10211
  0
ARC
  8
2
  6
CONTINUOUS
 62
     1
  5
597
 10
48779.88714
 20
8297.589486
 30
0.0
 40
1.0
 50
195.8979
 51
213.69007
  0
ARC
  8
2
  6
CONTINUOUS
 62
     1
  5
598
 10
48964.48914
 20
8655.163786
 30
0.0
 40
10.0
 50
247.79435
 51
270.0
  0
ARC
  8
2
  6
CONTINUOUS
 62
     1
  5
599
 10
48957.41014
 20
8648.163886
 30
0.0
 40
3.999999
 50
270.0
 51
325.62663
  0
ARC
  8
2
  6
CONTINUOUS
 62
     1
  5
59A
 10
48964.48914
 20
8655.163786
 30
0.0
 40
10.0
 50
193.39094
 51
247.79435
  0
ARC
  8
2
  6
CONTINUOUS
 62
     1
  5
59B
 10
49485.37314
 20
3809.240786
 30
0.0
 40
4999.9993
 50
93.922561
 51
95.60202
  0
ARC
  8
2
  6
CONTINUOUS
 62
     1
  5
59C
 10
49208.51014
 20
5774.500386
 30
0.0
 40
2999.9996
 50
91.043426
 51
94.632736
  0
ARC
  8
2
  6
CONTINUOUS
 62
     1
  5
59D
 10
48971.69814
 20
8669.164386
 30
0.0
 40
19.999999
 50
180.0
 51
191.02055
  0
ARC
  8
2
  6
CONTINUOUS
 62
     1
  5
59E
 10
49246.59514
 20
8722.323686
 30
0.0
 40
299.98851
 50
190.94987
 51
193.39094
  0
ARC
  8
2
  6
CONTINUOUS
 62
     1
  5
59F
 10
49154.02614
 20
8766.003586
 30
0.0
 40
7.999999
 50
1.4375
 51
91.043426
  0
ARC
  8
2
  6
CONTINUOUS
 62
     1
  5
5A0
 10
48997.43014
 20
8783.867686
 30
0.0
 40
1.499999
 50
95.60202
 51
176.19343
  0
ARC
  8
2
  6
CONTINUOUS
 62
     1
  5
5A1
 10
50150.50014
 20
8615.880086
 30
0.0
 40
1199.9999
 50
173.2142
 51
174.65792
  0
ARC
  8
2
  6
CONTINUOUS
 62
     1
  5
5A2
 10
49157.89614
 20
8771.208286
 30
0.0
 40
3.999999
 50
1.4375
 51
32.619247
  0
ARC
  8
2
  6
CONTINUOUS
 62
     1
  5
5A3
 10
48687.77314
 20
12080.307486
 30
0.0
 40
3399.9999
 50
272.53346
 51
274.47125
  0
ARC
  8
2
  6
CONTINUOUS
 62
     1
  5
5A4
 10
48637.69814
 20
8660.164586
 30
0.0
 40
1.0
 50
180.0
 51
270.0
  0
ARC
  8
2
  6
CONTINUOUS
 62
     1
  5
5A5
 10
48637.69814
 20
8660.164586
 30
0.0
 40
1.0
 50
170.45114
 51
180.0
  0
ARC
  8
2
  6
CONTINUOUS
 62
     1
  5
5A6
 10
48649.08614
 20
8678.164286
 30
0.0
 40
9.0
 50
83.347457
 51
169.02839
  0
ARC
  8
2
  6
CONTINUOUS
 62
     1
  5
5A7
 10
49425.62614
 20
8527.618986
 30
0.0
 40
799.99998
 50
169.02839
 51
170.45114
  0
ARC
  8
2
  6
CONTINUOUS
 62
     1
  5
5A8
 10
48671.70714
 20
8648.599586
 30
0.0
 40
24.999999
 50
5.45137
 51
24.998901
  0
ARC
  8
2
  6
CONTINUOUS
 62
     1
  5
5A9
 10
48771.76114
 20
10182.163586
 30
0.0
 40
1499.9998
 50
270.0
 51
272.53346
  0
ARC
  8
2
  6
CONTINUOUS
 62
     1
  5
5AA
 10
48713.54714
 20
9594.410186
 30
0.0
 40
899.99979
 50
270.89122
 51
272.32453
  0
ARC
  8
2
  6
CONTINUOUS
 62
     1
  5
5AB
 10
48547.30614
 20
9712.112586
 30
0.0
 40
999.99992
 50
275.88229
 51
285.05807
  0
ARC
  8
2
  6
CONTINUOUS
 62
     1
  5
5AC
 10
49423.77514
 20
8522.990886
 30
0.0
 40
799.99998
 50
166.3078
 51
167.34109
  0
ARC
  8
2
  6
CONTINUOUS
 62
     1
  5
5AD
 10
48655.25514
 20
8710.225886
 30
0.0
 40
9.0
 50
108.66116
 51
166.3078
  0
ARC
  8
2
  6
CONTINUOUS
 62
     1
  5
5AE
 10
49132.33314
 20
7297.611376
 30
0.0
 40
1499.9998
 50
95.875183
 51
108.66116
  0
ARC
  8
2
  6
CONTINUOUS
 62
     1
  5
5AF
 10
48644.19714
 20
8698.089586
 30
0.0
 40
1.0
 50
167.34109
 51
265.57579
  0
ARC
  8
2
  6
CONTINUOUS
 62
     1
  5
5B0
 10
49196.80014
 20
7297.954766
 30
0.0
 40
1499.9998
 50
98.187896
 51
105.05807
  0
ARC
  8
2
  6
CONTINUOUS
 62
     1
  5
5B1
 10
48713.54714
 20
9594.410186
 30
0.0
 40
899.99979
 50
265.57579
 51
270.89122
  0
ARC
  8
2
  6
CONTINUOUS
 62
     1
  5
5B2
 10
48743.56214
 20
8686.060086
 30
0.0
 40
4.430167
 50
303.94119
 51
346.66806
  0
ARC
  8
2
  6
CONTINUOUS
 62
     1
  5
5B3
 10
49063.07014
 20
8793.669886
 30
0.0
 40
3.999999
 50
7.807068
 51
94.909027
  0
ARC
  8
2
  6
CONTINUOUS
 62
     1
  5
5B4
 10
48771.76114
 20
10182.163586
 30
0.0
 40
1499.9998
 50
265.34898
 51
268.44837
  0
ARC
  8
2
  6
CONTINUOUS
 62
     1
  5
5B5
 10
48713.54714
 20
9594.410186
 30
0.0
 40
899.99979
 50
272.32453
 51
285.60913
  0
ARC
  8
2
  6
CONTINUOUS
 62
     1
  5
5B6
 10
48734.04714
 20
8686.059186
 30
0.0
 40
4.430192
 50
193.0035
 51
229.02622
  0
ARC
  8
2
  6
CONTINUOUS
 62
     1
  5
5B7
 10
50150.50014
 20
8615.880086
 30
0.0
 40
1199.9999
 50
176.42749
 51
177.44071
  0
ARC
  8
2
  6
CONTINUOUS
 62
     1
  5
5B8
 10
50150.50014
 20
8615.880086
 30
0.0
 40
1199.9999
 50
174.65792
 51
176.42749
  0
ARC
  8
2
  6
CONTINUOUS
 62
     1
  5
5B9
 10
49204.51314
 20
8661.164586
 30
0.0
 40
7.000002
 50
190.01217
 51
270.00003
  0
ARC
  8
2
  6
CONTINUOUS
 62
     1
  5
5BA
 10
49387.74114
 20
8661.164586
 30
0.0
 40
7.000007
 50
269.99992
 51
351.00857
  0
ARC
  8
2
  6
CONTINUOUS
 62
     1
  5
5BB
 10
48604.47114
 20
8785.001586
 30
0.0
 40
799.99998
 50
351.01568
 51
359.18914
  0
ARC
  8
2
  6
CONTINUOUS
 62
     1
  5
5BC
 10
49493.05114
 20
8712.092886
 30
0.0
 40
300.00015
 50
180.65869
 51
190.00994
  0
ARC
  8
2
  6
CONTINUOUS
 62
     1
  5
5BD
 10
48780.48514
 20
8307.018086
 30
0.0
 40
0.518105
 50
179.55072
 51
204.13566
  0
ARC
  8
2
  6
CONTINUOUS
 62
     1
  5
5BE
 10
48802.96614
 20
8304.164186
 30
0.0
 40
24.999999
 50
164.10211
 51
195.8979
  0
ARC
  8
2
  6
CONTINUOUS
 62
     1
  5
5BF
 10
48651.69614
 20
8636.164086
 30
0.0
 40
7.999971
 50
90.000183
 51
190.00036
  0
ARC
  8
2
  6
CONTINUOUS
 62
     1
  5
5C0
 10
48737.69714
 20
8452.164386
 30
0.0
 40
49.999742
 50
354.93548
 51
63.460601
  0
ARC
  8
2
  6
CONTINUOUS
 62
     1
  5
5C1
 10
48871.74214
 20
8720.552086
 30
0.0
 40
249.99946
 50
216.67749
 51
243.46052
  0
ARC
  8
2
  6
CONTINUOUS
 62
     1
  5
5C2
 10
48791.54014
 20
8660.821586
 30
0.0
 40
150.00029
 50
189.99984
 51
216.67765
  0
ARC
  8
2
  6
CONTINUOUS
 62
     1
  5
5C3
 10
49332.70014
 20
8653.163786
 30
0.0
 40
1.0
 50
90.0
 51
180.0
  0
ARC
  8
2
  6
CONTINUOUS
 62
     1
  5
5C4
 10
49340.70014
 20
8653.163786
 30
0.0
 40
1.0
 50
360.0
 51
90.0
  0
ARC
  8
2
  6
CONTINUOUS
 62
     1
  5
5C5
 10
50779.70414
 20
8271.218086
 30
0.0
 40
2000.0092
 50
174.93614
 51
178.98043
  0
ARC
  8
2
  6
CONTINUOUS
 62
     1
  5
5C6
 10
49201.70014
 20
8649.164786
 30
0.0
 40
5.000128
 50
270.00146
 51
359.99855
  0
ARC
  8
2
  6
CONTINUOUS
 62
     1
  5
5C7
 10
49234.70014
 20
8653.163786
 30
0.0
 40
1.0
 50
90.0
 51
180.0
  0
ARC
  8
2
  6
CONTINUOUS
 62
     1
  5
5C8
 10
49242.70014
 20
8653.163786
 30
0.0
 40
1.0
 50
360.0
 51
90.0
  0
ARC
  8
2
  6
CONTINUOUS
 62
     1
  5
5C9
 10
49061.77914
 20
8489.163786
 30
0.0
 40
12.000091
 50
156.45375
 51
270.00028
  0
ARC
  8
2
  6
CONTINUOUS
 62
     1
  5
5CA
 10
49338.69514
 20
8622.166086
 30
0.0
 40
3.002011
 50
269.94293
 51
359.94293
  0
ARC
  8
2
  6
CONTINUOUS
 62
     1
  5
5CB
 10
48508.73114
 20
8730.163486
 30
0.0
 40
591.27457
 50
336.45396
 51
345.2039
  0
ARC
  8
2
  6
CONTINUOUS
 62
     1
  5
5CC
 10
49122.57914
 20
8779.164386
 30
0.0
 40
200.00028
 50
270.00013
 51
299.74505
  0
ARC
  8
2
  6
CONTINUOUS
 62
     1
  5
5CD
 10
49248.34814
 20
8609.163686
 30
0.0
 40
10.000138
 50
89.997039
 51
119.74504
  0
ARC
  8
2
  6
CONTINUOUS
 62
     1
  5
5CE
 10
49292.94214
 20
8292.164386
 30
0.0
 40
6.999546
 50
2.387192
 51
89.996139
  0
ARC
  8
2
  6
CONTINUOUS
 62
     1
  5
5CF
 10
49187.69814
 20
8303.164186
 30
0.0
 40
3.999999
 50
180.0
 51
270.0
  0
ARC
  8
2
  6
CONTINUOUS
 62
     1
  5
5D0
 10
49138.69814
 20
8432.163886
 30
0.0
 40
44.999994
 50
360.0
 51
90.0
  0
ARC
  8
2
  6
CONTINUOUS
 62
     1
  5
5D1
 10
49286.52114
 20
8326.163886
 30
0.0
 40
11.999709
 50
2.386703
 51
89.998565
  0
ARC
  8
2
  6
CONTINUOUS
 62
     1
  5
5D2
 10
49285.27114
 20
8356.164186
 30
0.0
 40
11.999709
 50
2.386703
 51
89.998565
  0
ARC
  8
2
  6
CONTINUOUS
 62
     1
  5
5D3
 10
49195.69814
 20
8380.163886
 30
0.0
 40
11.999996
 50
180.0
 51
270.0
  0
LINE
  8
2
  6
CONTINUOUS
 62
     1
  5
5D4
 10
49193.53214
 20
9089.163786
 30
0.0
 11
49191.69814
 21
9089.163786
 31
0.0
  0
LINE
  8
2
  6
CONTINUOUS
 62
     1
  5
5D5
 10
49403.87014
 20
9089.163786
 30
0.0
 11
49193.53214
 21
9089.163786
 31
0.0
  0
LINE
  8
2
  6
CONTINUOUS
 62
     1
  5
5D6
 10
49408.51714
 20
9085.163786
 30
0.0
 11
49188.92314
 21
9085.163786
 31
0.0
  0
LINE
  8
2
  6
CONTINUOUS
 62
     1
  5
5D7
 10
49403.87014
 20
9089.163786
 30
0.0
 11
49362.62814
 21
9089.163786
 31
0.0
  0
LINE
  8
2
  6
CONTINUOUS
 62
     1
  5
5D8
 10
49193.53214
 20
9089.163786
 30
0.0
 11
49209.22714
 21
9089.163786
 31
0.0
  0
LINE
  8
2
  6
CONTINUOUS
 62
     1
  5
5D9
 10
49189.33314
 20
9085.769286
 30
0.0
 11
49192.11114
 21
9088.571486
 31
0.0
  0
LINE
  8
2
  6
CONTINUOUS
 62
     1
  5
5DA
 10
49194.69714
 20
9089.163786
 30
0.0
 11
49222.17214
 21
9089.163786
 31
0.0
  0
LINE
  8
2
  6
CONTINUOUS
 62
     1
  5
5DB
 10
49324.78114
 20
9089.163786
 30
0.0
 11
49402.69714
 21
9089.163786
 31
0.0
  0
LINE
  8
2
  6
CONTINUOUS
 62
     1
  5
5DC
 10
49395.75414
 20
9130.466686
 30
0.0
 11
49202.28114
 21
9130.466686
 31
0.0
  0
LINE
  8
2
  6
CONTINUOUS
 62
     1
  5
5DD
 10
49188.69914
 20
9092.163686
 30
0.0
 11
49188.69914
 21
9122.741486
 31
0.0
  0
ARC
  8
2
  6
CONTINUOUS
 62
     1
  5
5DE
 10
49298.69914
 20
8439.163786
 30
0.0
 40
699.99985
 50
90.0
 51
98.404754
  0
ARC
  8
2
  6
CONTINUOUS
 62
     1
  5
5DF
 10
49298.69914
 20
8439.163786
 30
0.0
 40
699.99985
 50
81.59526
 51
90.0
  0
ARC
  8
2
  6
CONTINUOUS
 62
     1
  5
5E0
 10
49197.70014
 20
9122.742386
 30
0.0
 40
9.000289
 50
98.406326
 51
180.00215
  0
ARC
  8
2
  6
CONTINUOUS
 62
     1
  5
5E1
 10
49193.53214
 20
9087.163786
 30
0.0
 40
2.000035
 50
89.997589
 51
135.24673
  0
ARC
  8
2
  6
CONTINUOUS
 62
     1
  5
5E2
 10
49190.75314
 20
9084.361586
 30
0.0
 40
2.000016
 50
135.24601
 51
180.65779
  0
ARC
  8
2
  6
CONTINUOUS
 62
     1
  5
5E3
 10
49191.69814
 20
9092.163686
 30
0.0
 40
2.999999
 50
180.0
 51
270.0
  0
ARC
  8
2
  6
CONTINUOUS
 62
     1
  5
5E4
 10
49399.69814
 20
9122.742386
 30
0.0
 40
9.000363
 50
359.99732
 51
81.58995
  0
LINE
  8
2
  6
CONTINUOUS
 62
     1
  5
5E5
 10
49188.75514
 20
9084.338786
 30
0.0
 11
49193.07414
 21
8708.644086
 31
0.0
  0
LINE
  8
2
  6
CONTINUOUS
 62
     1
  5
5E6
 10
49404.38814
 20
8773.679786
 30
0.0
 11
49408.69914
 21
9078.163986
 31
0.0
  0
LINE
  8
2
  6
CONTINUOUS
 62
     1
  5
5E7
 10
49408.69914
 20
9084.335286
 30
0.0
 11
49408.69914
 21
9078.163986
 31
0.0
  0
LINE
  8
2
  6
CONTINUOUS
 62
     1
  5
5E8
 10
49408.11114
 20
9085.749986
 30
0.0
 11
49405.28414
 21
9088.577586
 31
0.0
  0
LINE
  8
2
  6
CONTINUOUS
 62
     1
  5
5E9
 10
49405.70014
 20
9089.163786
 30
0.0
 11
49403.87014
 21
9089.163786
 31
0.0
  0
LINE
  8
2
  6
CONTINUOUS
 62
     1
  5
5EA
 10
49408.69914
 20
9092.163686
 30
0.0
 11
49408.69914
 21
9122.741486
 31
0.0
  0
ARC
  8
2
  6
CONTINUOUS
 62
     1
  5
5EB
 10
49403.87014
 20
9087.163786
 30
0.0
 40
2.000273
 50
45.0027
 51
90.018905
  0
ARC
  8
2
  6
CONTINUOUS
 62
     1
  5
5EC
 10
49406.69714
 20
9084.335286
 30
0.0
 40
1.99992
 50
0.005554
 51
45.009613
  0
ARC
  8
2
  6
CONTINUOUS
 62
     1
  5
5ED
 10
49405.70014
 20
9092.163686
 30
0.0
 40
2.999999
 50
270.0
 51
360.0
  0
LINE
  8
2
  6
CONTINUOUS
 62
     1
  5
5EE
 10
49193.35914
 20
9324.164786
 30
0.0
 11
49593.35914
 21
9324.164786
 31
0.0
  0
LINE
  8
2
  6
CONTINUOUS
 62
     1
  5
5EF
 10
49143.35914
 20
9274.165586
 30
0.0
 11
49643.35914
 21
9274.165586
 31
0.0
  0
LINE
  8
2
  6
CONTINUOUS
 62
     1
  5
5F0
 10
49143.35914
 20
9173.763486
 30
0.0
 11
49643.35914
 21
9173.763486
 31
0.0
  0
LINE
  8
2
  6
CONTINUOUS
 62
     1
  5
5F1
 10
49193.35914
 20
10499.164686
 30
0.0
 11
49593.35914
 21
10499.164686
 31
0.0
  0
LINE
  8
2
  6
CONTINUOUS
 62
     1
  5
5F2
 10
49193.35914
 20
10499.164686
 30
0.0
 11
49193.35914
 21
9324.164786
 31
0.0
  0
LINE
  8
2
  6
CONTINUOUS
 62
     1
  5
5F3
 10
49593.35914
 20
10499.164686
 30
0.0
 11
49593.35914
 21
9324.164786
 31
0.0
  0
LINE
  8
2
  6
CONTINUOUS
 62
     1
  5
5F4
 10
49143.35914
 20
10549.163886
 30
0.0
 11
49643.35914
 21
10549.163886
 31
0.0
  0
LINE
  8
2
  6
CONTINUOUS
 62
     1
  5
5F5
 10
49643.35914
 20
10549.163886
 30
0.0
 11
49643.35914
 21
9009.163786
 31
0.0
  0
LINE
  8
2
  6
CONTINUOUS
 62
     1
  5
5F6
 10
49143.35914
 20
8804.004028
 30
0.0
 11
49143.35914
 21
10549.163886
 31
0.0
  0
LINE
  8
2
  6
CONTINUOUS
 62
     1
  5
5F7
 10
49118.35914
 20
10574.163886
 30
0.0
 11
49118.35914
 21
8802.16497
 31
0.0
  0
LINE
  8
5
  6
CONTINUOUS
 62
     5
  5
5F8
 10
49078.659778
 20
13107.206314
 30
0.0
 11
49078.659778
 21
13167.205957
 31
0.0
  0
LINE
  8
1
  6
CONTINUOUS
 62
     5
  5
5F9
 10
48348.35914
 20
13107.206314
 30
0.0
 11
49078.659778
 21
13107.206314
 31
0.0
  0
ENDSEC
  0
EOF
