  0
SECTION
  2
HEADER
  9
$ACADVER
  1
AC1009
  9
$INSBASE
 10
0.0
 20
0.0
 30
0.0
  9
$EXTMIN
 10
1787.211292
 20
660.601309
 30
0.0
  9
$EXTMAX
 10
4683.751292
 20
8442.166988
 30
0.0
  9
$LIMMIN
 10
0.0
 20
0.0
  9
$LIMMAX
 10
6300.0
 20
8910.0
  9
$ORTHOMODE
 70
     0
  9
$REGENMODE
 70
     1
  9
$FILLMODE
 70
     1
  9
$QTEXTMODE
 70
     0
  9
$MIRRTEXT
 70
     1
  9
$DRAGMODE
 70
     2
  9
$LTSCALE
 40
30.0
  9
$OSMODE
 70
     0
  9
$ATTMODE
 70
     1
  9
$TEXTSIZE
 40
0.2
  9
$TRACEWID
 40
0.05
  9
$TEXTSTYLE
  7
STANDARD
  9
$CLAYER
  8
0
  9
$CELTYPE
  6
CONTINUOUS
  9
$CECOLOR
 62
   256
  9
$DIMSCALE
 40
1.0
  9
$DIMASZ
 40
0.18
  9
$DIMEXO
 40
0.0625
  9
$DIMDLI
 40
0.38
  9
$DIMRND
 40
0.0
  9
$DIMDLE
 40
0.0
  9
$DIMEXE
 40
0.18
  9
$DIMTP
 40
0.0
  9
$DIMTM
 40
0.0
  9
$DIMTXT
 40
0.18
  9
$DIMCEN
 40
0.09
  9
$DIMTSZ
 40
0.0
  9
$DIMTOL
 70
     0
  9
$DIMLIM
 70
     0
  9
$DIMTIH
 70
     1
  9
$DIMTOH
 70
     1
  9
$DIMSE1
 70
     0
  9
$DIMSE2
 70
     0
  9
$DIMTAD
 70
     0
  9
$DIMZIN
 70
     0
  9
$DIMBLK
  1

  9
$DIMASO
 70
     1
  9
$DIMSHO
 70
     1
  9
$DIMPOST
  1

  9
$DIMAPOST
  1

  9
$DIMALT
 70
     0
  9
$DIMALTD
 70
     2
  9
$DIMALTF
 40
25.4
  9
$DIMLFAC
 40
1.0
  9
$DIMTOFL
 70
     0
  9
$DIMTVP
 40
0.0
  9
$DIMTIX
 70
     0
  9
$DIMSOXD
 70
     0
  9
$DIMSAH
 70
     0
  9
$DIMBLK1
  1

  9
$DIMBLK2
  1

  9
$DIMSTYLE
  2
STANDARD
  9
$DIMCLRD
 70
     0
  9
$DIMCLRE
 70
     0
  9
$DIMCLRT
 70
     0
  9
$DIMTFAC
 40
1.0
  9
$DIMGAP
 40
0.09
  9
$LUNITS
 70
     2
  9
$LUPREC
 70
     4
  9
$AXISMODE
 70
     0
  9
$AXISUNIT
 10
0.0
 20
0.0
  9
$SKETCHINC
 40
0.1
  9
$FILLETRAD
 40
0.0
  9
$AUNITS
 70
     0
  9
$AUPREC
 70
     0
  9
$MENU
  1
acad
  9
$ELEVATION
 40
0.0
  9
$PELEVATION
 40
0.0
  9
$THICKNESS
 40
0.0
  9
$LIMCHECK
 70
     0
  9
$BLIPMODE
 70
     1
  9
$CHAMFERA
 40
0.0
  9
$CHAMFERB
 40
0.0
  9
$SKPOLY
 70
     0
  9
$TDCREATE
 40
0.000000000
  9
$TDUPDATE
 40
0.000000000
  9
$TDINDWG
 40
0.0000000000
  9
$TDUSRTIMER
 40
0.0000000000
  9
$USRTIMER
 70
     1
  9
$ANGBASE
 50
0.0
  9
$ANGDIR
 70
     0
  9
$PDMODE
 70
     0
  9
$PDSIZE
 40
0.0
  9
$PLINEWID
 40
0.0
  9
$COORDS
 70
     0
  9
$SPLFRAME
 70
     0
  9
$SPLINETYPE
 70
     6
  9
$SPLINESEGS
 70
     8
  9
$ATTDIA
 70
     0
  9
$ATTREQ
 70
     1
  9
$HANDLING
 70
     1
  9
$HANDSEED
  5
47F
  9
$SURFTAB1
 70
     6
  9
$SURFTAB2
 70
     6
  9
$SURFTYPE
 70
     6
  9
$SURFU
 70
     6
  9
$SURFV
 70
     6
  9
$UCSNAME
  2

  9
$UCSORG
 10
0.0
 20
0.0
 30
0.0
  9
$UCSXDIR
 10
1.0
 20
0.0
 30
0.0
  9
$UCSYDIR
 10
0.0
 20
1.0
 30
0.0
  9
$PUCSNAME
  2

  9
$PUCSORG
 10
0.0
 20
0.0
 30
0.0
  9
$PUCSXDIR
 10
1.0
 20
0.0
 30
0.0
  9
$PUCSYDIR
 10
0.0
 20
1.0
 30
0.0
  9
$USERI1
 70
     0
  9
$USERI2
 70
     0
  9
$USERI3
 70
     0
  9
$USERI4
 70
     0
  9
$USERI5
 70
     0
  9
$USERR1
 40
0.0
  9
$USERR2
 40
0.0
  9
$USERR3
 40
0.0
  9
$USERR4
 40
0.0
  9
$USERR5
 40
0.0
  9
$WORLDVIEW
 70
     1
  9
$SHADEDGE
 70
     3
  9
$SHADEDIF
 70
    70
  9
$TILEMODE
 70
     1
  9
$MAXACTVP
 70
    16
  9
$PINSBASE
 10
0.0
 20
0.0
 30
0.0
  9
$PLIMCHECK
 70
     0
  9
$PEXTMIN
 10
1.000000E+20
 20
1.000000E+20
 30
1.000000E+20
  9
$PEXTMAX
 10
-1.000000E+20
 20
-1.000000E+20
 30
-1.000000E+20
  9
$PLIMMIN
 10
0.0
 20
0.0
  9
$PLIMMAX
 10
12.0
 20
9.0
  9
$UNITMODE
 70
     0
  9
$VISRETAIN
 70
     0
  9
$PLINEGEN
 70
     1
  9
$PSLTSCALE
 70
     0
  9
$TREEDEPTH
 70
  3020
  9
$DWGCODEPAGE
  3
dos932
  0
ENDSEC
  0
SECTION
  2
TABLES
  0
TABLE
  2
VPORT
 70
     1
  0
VPORT
  2
*ACTIVE
 70
     0
 10
0.0
 20
0.0
 11
1.0
 21
1.0
 12
3150.0
 22
4455.0
 13
0.0
 23
0.0
 14
1000.0
 24
1000.0
 15
1000.0
 25
1000.0
 16
0.0
 26
0.0
 36
1.0
 17
0.0
 27
0.0
 37
0.0
 40
8910.0
 41
0.707071
 42
50.0
 43
0.0
 44
0.0
 50
0.0
 51
0.0
 71
     0
 72
   100
 73
     1
 74
     1
 75
     0
 76
     0
 77
     0
 78
     0
  0
ENDTAB
  0
TABLE
  2
LTYPE
 70
     5
  0
LTYPE
  2
CONTINUOUS
 70
    64
  3
Solid line
 72
    65
 73
     0
 40
0.0
  0
LTYPE
  2
HIDDEN
 70
    64
  3
__ __ __ __ __ __ __ __ __ __ __ __ __ __ __ __
 72
    65
 73
     5
 40
8.0
 49
1.0
 49
-2.0
 49
2.0
 49
-2.0
 49
1.0
  0
LTYPE
  2
DOT
 70
    64
  3
. . . . . . . . . . . . . . . . . . . . . . . .
 72
    65
 73
     3
 40
1.6
 49
0.4
 49
-0.8
 49
0.4
  0
LTYPE
  2
CENTER
 70
    64
  3
____ _ ____ _ ____ _ ____ _ ____ _ ____ _ ____ 
 72
    65
 73
     5
 40
12.0
 49
5.0
 49
-0.8
 49
0.4
 49
-0.8
 49
5.0
  0
LTYPE
  2
DIVIDE
 70
    64
  3
____ . . ____ . . ____ . . ____ . . ____ . . __
 72
    65
 73
     7
 40
13.2
 49
5.0
 49
-0.8
 49
0.4
 49
-0.8
 49
0.4
 49
-0.8
 49
5.0
  0
ENDTAB
  0
TABLE
  2
LAYER
 70
    13
  0
LAYER
  2
0
 70
     0
 62
     7
  6
CONTINUOUS
  0
LAYER
  2
1
 70
     0
 62
     1
  6
CONTINUOUS
  0
LAYER
  2
2
 70
     0
 62
     1
  6
CONTINUOUS
  0
LAYER
  2
3
 70
     0
 62
     1
  6
CONTINUOUS
  0
LAYER
  2
4
 70
     0
 62
     1
  6
CONTINUOUS
  0
LAYER
  2
5
 70
     0
 62
     1
  6
CONTINUOUS
  0
LAYER
  2
7
 70
     0
 62
     1
  6
CONTINUOUS
  0
LAYER
  2
8
 70
     0
 62
     1
  6
CONTINUOUS
  0
LAYER
  2
12
 70
     0
 62
     1
  6
CONTINUOUS
  0
LAYER
  2
40
 70
     0
 62
     1
  6
CONTINUOUS
  0
LAYER
  2
50
 70
     0
 62
     1
  6
CONTINUOUS
  0
LAYER
  2
80
 70
     0
 62
     1
  6
CONTINUOUS
  0
LAYER
  2
100
 70
     0
 62
     1
  6
CONTINUOUS
  0
ENDTAB
  0
TABLE
  2
STYLE
 70
     3
  0
STYLE
  2
STANDARD
 70
     0
 40
0.0
 41
1.0
 50
0.0
 71
     0
 42
0.0
  3
txt
  4

  0
STYLE
  2

 70
     0
 40
1000.0
 41
1.0
 50
0.0
 71
     0
 42
1000.0
  3
txt
  4
extfont
  0
STYLE
  2

 70
     0
 40
1000.0
 41
1.0
 50
0.0
 71
     0
 42
1000.0
  3
txt
  4
extfont
  0
ENDTAB
  0
TABLE
  2
VIEW
 70
     0
  0
ENDTAB
  0
TABLE
  2
UCS
 70
     0
  0
ENDTAB
  0
TABLE
  2
APPID
 70
     1
  0
APPID
  2
ACAD
 70
     0
  0
ENDTAB
  0
TABLE
  2
DIMSTYLE
 70
     1
  0
DIMSTYLE
  2
STANDARD
 70
     0
  3

  4

  5

  6

  7

 40
1.0
 41
0.18
 42
0.0625
 43
0.38
 44
0.18
 45
0.0
 46
0.0
 47
0.0
 48
0.0
 71
     0
 72
     0
 73
     1
 74
     1
 75
     0
 76
     0
 77
     0
 78
     0
140
0.18
141
0.09
142
0.0
143
25.4
144
1.0
145
0.0
146
1.0
147
0.09
170
     0
171
     2
172
     0
173
     0
174
     0
175
     0
176
     0
177
     0
178
     0
  0
ENDTAB
  0
ENDSEC
  0
SECTION
  2
BLOCKS
  0
ENDSEC
  0
SECTION
  2
ENTITIES
  0
LINE
  8
1
  6
CONTINUOUS
 62
     4
  5
102
 10
4346.251292
 20
8442.166988
 30
0.0
 11
4346.251292
 21
4842.166988
 31
0.0
  0
LINE
  8
100
  6
CENTER
 62
     2
  5
103
 10
4296.251292
 20
8442.166988
 30
0.0
 11
4296.251292
 21
4842.166988
 31
0.0
  0
LINE
  8
1
  6
CONTINUOUS
 62
     4
  5
104
 10
4246.251292
 20
8342.166988
 30
0.0
 11
4246.251292
 21
7442.166988
 31
0.0
  0
LINE
  8
1
  6
CONTINUOUS
 62
     5
  5
105
 10
4246.251292
 20
1048.165974
 30
0.0
 11
2386.251292
 21
1048.165974
 31
0.0
  0
LINE
  8
1
  6
CONTINUOUS
 62
     4
  5
106
 10
2386.251292
 20
1048.165974
 30
0.0
 11
2386.251292
 21
3348.165974
 31
0.0
  0
LINE
  8
1
  6
CONTINUOUS
 62
     5
  5
107
 10
4246.251292
 20
3348.165974
 30
0.0
 11
2386.251292
 21
3348.165974
 31
0.0
  0
LINE
  8
1
  6
CONTINUOUS
 62
     4
  5
108
 10
4246.251292
 20
3348.165974
 30
0.0
 11
4246.251292
 21
1048.165974
 31
0.0
  0
LINE
  8
5
  6
CONTINUOUS
 62
     3
  5
109
 10
4676.251292
 20
8392.166988
 30
0.0
 11
4376.251292
 21
8392.166988
 31
0.0
  0
LINE
  8
5
  6
CONTINUOUS
 62
     3
  5
10A
 10
4676.251292
 20
4892.166988
 30
0.0
 11
4376.251292
 21
4892.166988
 31
0.0
  0
CIRCLE
  8
5
  6
CONTINUOUS
 62
     3
  5
10B
 10
4676.251292
 20
4892.166988
 30
0.0
 40
7.5
  0
CIRCLE
  8
5
  6
CONTINUOUS
 62
     3
  5
10C
 10
4676.251292
 20
8392.166988
 30
0.0
 40
7.5
  0
TEXT
  8
5
  6
CONTINUOUS
 62
     3
  5
10D
 10
4676.251292
 20
6507.166988
 30
0.0
 40
90.0
  1
3,500
 50
90.0
 41
0.6
  7

 72
     5
 11
4676.251292
 21
6777.166988
 31
0.0
  0
LINE
  8
5
  6
CONTINUOUS
 62
     3
  5
10E
 10
4676.251292
 20
4892.166988
 30
0.0
 11
4676.251292
 21
8392.166988
 31
0.0
  0
CIRCLE
  8
5
  6
CONTINUOUS
 62
     3
  5
10F
 10
4296.251292
 20
4512.166988
 30
0.0
 40
7.5
  0
CIRCLE
  8
5
  6
CONTINUOUS
 62
     3
  5
110
 10
4296.251292
 20
4662.166988
 30
0.0
 40
7.5
  0
LINE
  8
1
  6
CONTINUOUS
 62
     4
  5
111
 10
4246.251292
 20
7342.166988
 30
0.0
 11
4246.251292
 21
4946.945188
 31
0.0
  0
LINE
  8
2
  6
CONTINUOUS
 62
     5
  5
112
 10
4246.251292
 20
4946.945188
 30
0.0
 11
4246.251292
 21
4971.388808
 31
0.0
  0
LINE
  8
2
  6
CONTINUOUS
 62
     5
  5
113
 10
4246.251292
 20
4946.945188
 30
0.0
 11
4246.251292
 21
4814.888828
 31
0.0
  0
LINE
  8
1
  6
CONTINUOUS
 62
     4
  5
114
 10
4346.251292
 20
4842.166988
 30
0.0
 11
4174.251292
 21
4842.166988
 31
0.0
  0
LINE
  8
2
  6
CONTINUOUS
 62
     5
  5
115
 10
4196.251282
 20
4814.888828
 30
0.0
 11
4246.251292
 21
4814.888828
 31
0.0
  0
LINE
  8
2
  6
CONTINUOUS
 62
     5
  5
116
 10
4196.251282
 20
4814.888828
 30
0.0
 11
4196.251282
 21
4946.945188
 31
0.0
  0
LINE
  8
2
  6
CONTINUOUS
 62
     5
  5
117
 10
4196.251282
 20
4946.945188
 30
0.0
 11
4246.251292
 21
4946.945188
 31
0.0
  0
CIRCLE
  8
5
  6
CONTINUOUS
 62
     3
  5
118
 10
4196.251282
 20
4662.166988
 30
0.0
 40
7.5
  0
LINE
  8
5
  6
CONTINUOUS
 62
     3
  5
119
 10
4196.251282
 20
4662.166988
 30
0.0
 11
4196.251282
 21
4812.166988
 31
0.0
  0
LINE
  8
5
  6
CONTINUOUS
 62
     3
  5
11A
 10
4196.251282
 20
4662.166988
 30
0.0
 11
4296.251292
 21
4662.166988
 31
0.0
  0
TEXT
  8
5
  6
CONTINUOUS
 62
     3
  5
11B
 10
4167.251287
 20
4662.166988
 30
0.0
 40
90.0
  1
100
 41
0.666667
  7

 72
     5
 11
4347.251287
 21
4662.166988
 31
0.0
  0
LINE
  8
4
  6
HIDDEN
 62
     6
  5
11C
 10
3395.317932
 20
7378.167008
 30
0.0
 11
3395.317932
 21
7342.670008
 31
0.0
  0
LINE
  8
12
  6
CONTINUOUS
 62
     6
  5
11D
 10
3395.317932
 20
7378.167008
 30
0.0
 11
3395.317932
 21
7342.166988
 31
0.0
  0
LINE
  8
1
  6
CONTINUOUS
 62
     4
  5
11E
 10
4196.251282
 20
7442.166988
 30
0.0
 11
4246.251292
 21
7442.166988
 31
0.0
  0
LINE
  8
2
  6
CONTINUOUS
 62
     5
  5
11F
 10
4196.251282
 20
7342.166988
 30
0.0
 11
4196.251282
 21
7442.166988
 31
0.0
  0
LINE
  8
1
  6
CONTINUOUS
 62
     4
  5
120
 10
4246.251292
 20
7342.166988
 30
0.0
 11
4196.251282
 21
7342.166988
 31
0.0
  0
LINE
  8
4
  6
HIDDEN
 62
     6
  5
121
 10
4196.251282
 20
7378.167008
 30
0.0
 11
3399.258512
 21
7378.167008
 31
0.0
  0
LINE
  8
4
  6
HIDDEN
 62
     6
  5
122
 10
4196.251282
 20
7342.166988
 30
0.0
 11
3399.258512
 21
7342.166988
 31
0.0
  0
LINE
  8
5
  6
CONTINUOUS
 62
     3
  5
123
 10
4296.251292
 20
4512.166988
 30
0.0
 11
4296.251292
 21
4812.166988
 31
0.0
  0
LINE
  8
4
  6
CONTINUOUS
 62
     6
  5
124
 10
3395.317932
 20
7342.166988
 30
0.0
 11
3271.164192
 21
7342.166988
 31
0.0
  0
LINE
  8
2
  6
CONTINUOUS
 62
     5
  5
125
 10
3300.278102
 20
7379.888868
 30
0.0
 11
3275.277952
 21
7379.888868
 31
0.0
  0
LINE
  8
4
  6
HIDDEN
 62
     6
  5
126
 10
3271.164192
 20
7378.167008
 30
0.0
 11
3271.164192
 21
7342.166988
 31
0.0
  0
LINE
  8
2
  6
CONTINUOUS
 62
     5
  5
127
 10
3300.278102
 20
7384.888828
 30
0.0
 11
3300.278102
 21
7446.945188
 31
0.0
  0
TEXT
  8
5
  6
CONTINUOUS
 62
     3
  5
128
 10
2031.211292
 20
7112.166988
 30
0.0
 40
90.0
  1
100
 50
90.0
 41
0.666667
  7

 72
     5
 11
2031.211292
 21
7292.166988
 31
0.0
  0
LINE
  8
1
  6
CONTINUOUS
 62
     4
  5
129
 10
4246.251292
 20
8342.166988
 30
0.0
 11
2387.211292
 21
8342.166988
 31
0.0
  0
LINE
  8
3
  6
CONTINUOUS
 62
     2
  5
12A
 10
2387.211292
 20
8102.166988
 30
0.0
 11
2387.211292
 21
8292.166988
 31
0.0
  0
LINE
  8
3
  6
CONTINUOUS
 62
     2
  5
12B
 10
2387.211292
 20
7492.166988
 30
0.0
 11
2387.211292
 21
7682.166988
 31
0.0
  0
LINE
  8
3
  6
CONTINUOUS
 62
     1
  5
12C
 10
2322.211292
 20
8292.166988
 30
0.0
 11
2322.211292
 21
7842.166988
 31
0.0
  0
LINE
  8
3
  6
CONTINUOUS
 62
     1
  5
12D
 10
2272.211292
 20
7942.166988
 30
0.0
 11
2272.211292
 21
7492.166988
 31
0.0
  0
LINE
  8
3
  6
CONTINUOUS
 62
     1
  5
12E
 10
2432.211292
 20
7892.166988
 30
0.0
 11
2162.211292
 21
7892.166988
 31
0.0
  0
LINE
  8
3
  6
CONTINUOUS
 62
     1
  5
12F
 10
2387.211292
 20
8292.166988
 30
0.0
 11
2387.211292
 21
7492.166988
 31
0.0
  0
LINE
  8
3
  6
CONTINUOUS
 62
     1
  5
130
 10
2207.211292
 20
8292.166988
 30
0.0
 11
2207.211292
 21
7492.166988
 31
0.0
  0
LINE
  8
1
  6
CONTINUOUS
 62
     4
  5
131
 10
2387.211292
 20
7492.166988
 30
0.0
 11
2207.211292
 21
7492.166988
 31
0.0
  0
LINE
  8
1
  6
CONTINUOUS
 62
     4
  5
132
 10
2207.211292
 20
7292.166988
 30
0.0
 11
2207.211292
 21
7492.166988
 31
0.0
  0
LINE
  8
1
  6
CONTINUOUS
 62
     4
  5
133
 10
2387.211292
 20
7292.166988
 30
0.0
 11
2207.211292
 21
7292.166988
 31
0.0
  0
LINE
  8
1
  6
CONTINUOUS
 62
     4
  5
134
 10
2387.211292
 20
8292.166988
 30
0.0
 11
2207.211292
 21
8292.166988
 31
0.0
  0
LINE
  8
1
  6
CONTINUOUS
 62
     4
  5
135
 10
2207.211292
 20
8292.166988
 30
0.0
 11
2207.211292
 21
8442.166988
 31
0.0
  0
LINE
  8
1
  6
CONTINUOUS
 62
     4
  5
136
 10
2207.211292
 20
8442.166988
 30
0.0
 11
4346.251292
 21
8442.166988
 31
0.0
  0
LINE
  8
1
  6
CONTINUOUS
 62
     4
  5
137
 10
2387.211292
 20
7492.166988
 30
0.0
 11
2387.211292
 21
7292.166988
 31
0.0
  0
LINE
  8
4
  6
CONTINUOUS
 62
     6
  5
138
 10
2499.211252
 20
7378.167008
 30
0.0
 11
2499.211252
 21
7342.166988
 31
0.0
  0
LINE
  8
1
  6
CONTINUOUS
 62
     4
  5
139
 10
2387.211292
 20
8292.166988
 30
0.0
 11
2387.211292
 21
8342.166988
 31
0.0
  0
LINE
  8
100
  6
CENTER
 62
     2
  5
13A
 10
2207.211292
 20
8392.166988
 30
0.0
 11
4346.251292
 21
8392.166988
 31
0.0
  0
LINE
  8
100
  6
CENTER
 62
     2
  5
13B
 10
2207.211292
 20
7392.166988
 30
0.0
 11
4346.251292
 21
7392.166988
 31
0.0
  0
LINE
  8
5
  6
CONTINUOUS
 62
     3
  5
13C
 10
1877.211292
 20
8392.166988
 30
0.0
 11
2177.211292
 21
8392.166988
 31
0.0
  0
LINE
  8
5
  6
CONTINUOUS
 62
     3
  5
13D
 10
1877.211292
 20
7392.166988
 30
0.0
 11
2177.211292
 21
7392.166988
 31
0.0
  0
LINE
  8
5
  6
CONTINUOUS
 62
     3
  5
13E
 10
2027.211292
 20
8292.166988
 30
0.0
 11
2177.211292
 21
8292.166988
 31
0.0
  0
LINE
  8
5
  6
CONTINUOUS
 62
     3
  5
13F
 10
2027.211292
 20
7492.166988
 30
0.0
 11
2177.211292
 21
7492.166988
 31
0.0
  0
CIRCLE
  8
5
  6
CONTINUOUS
 62
     3
  5
140
 10
1877.211292
 20
8392.166988
 30
0.0
 40
7.5
  0
CIRCLE
  8
5
  6
CONTINUOUS
 62
     3
  5
141
 10
1877.211292
 20
7392.166988
 30
0.0
 40
7.5
  0
CIRCLE
  8
5
  6
CONTINUOUS
 62
     3
  5
142
 10
2027.211292
 20
7392.166988
 30
0.0
 40
7.5
  0
CIRCLE
  8
5
  6
CONTINUOUS
 62
     3
  5
143
 10
2027.211292
 20
7492.166988
 30
0.0
 40
7.5
  0
CIRCLE
  8
5
  6
CONTINUOUS
 62
     3
  5
144
 10
2027.211292
 20
8292.166988
 30
0.0
 40
7.5
  0
CIRCLE
  8
5
  6
CONTINUOUS
 62
     3
  5
145
 10
2027.211292
 20
8392.166988
 30
0.0
 40
7.5
  0
TEXT
  8
5
  6
CONTINUOUS
 62
     3
  5
146
 10
1877.211292
 20
7757.166988
 30
0.0
 40
90.0
  1
1,000
 50
90.0
 41
0.6
  7

 72
     5
 11
1877.211292
 21
8027.166988
 31
0.0
  0
LINE
  8
5
  6
CONTINUOUS
 62
     3
  5
147
 10
1877.211292
 20
8392.166988
 30
0.0
 11
1877.211292
 21
7392.166988
 31
0.0
  0
TEXT
  8
5
  6
CONTINUOUS
 62
     3
  5
148
 10
2027.211292
 20
7352.166988
 30
0.0
 40
90.0
  1
100
 50
90.0
 41
0.666667
  7

 72
     5
 11
2027.211292
 21
7532.166988
 31
0.0
  0
LINE
  8
5
  6
CONTINUOUS
 62
     3
  5
149
 10
2027.211292
 20
7392.166988
 30
0.0
 11
2027.211292
 21
7492.166988
 31
0.0
  0
TEXT
  8
5
  6
CONTINUOUS
 62
     3
  5
14A
 10
2027.211292
 20
7802.166988
 30
0.0
 40
90.0
  1
800
 50
90.0
 41
0.666667
  7

 72
     5
 11
2027.211292
 21
7982.166988
 31
0.0
  0
LINE
  8
5
  6
CONTINUOUS
 62
     3
  5
14B
 10
2027.211292
 20
7492.166988
 30
0.0
 11
2027.211292
 21
8292.166988
 31
0.0
  0
TEXT
  8
5
  6
CONTINUOUS
 62
     3
  5
14C
 10
2027.211292
 20
8252.166988
 30
0.0
 40
90.0
  1
100
 50
90.0
 41
0.666667
  7

 72
     5
 11
2027.211292
 21
8432.166988
 31
0.0
  0
LINE
  8
5
  6
CONTINUOUS
 62
     3
  5
14D
 10
2027.211292
 20
8292.166988
 30
0.0
 11
2027.211292
 21
8392.166988
 31
0.0
  0
LINE
  8
5
  6
CONTINUOUS
 62
     3
  5
14E
 10
1877.211292
 20
7392.166988
 30
0.0
 11
2177.211292
 21
7392.166988
 31
0.0
  0
LINE
  8
5
  6
CONTINUOUS
 62
     3
  5
14F
 10
2027.211292
 20
7292.166988
 30
0.0
 11
2177.211292
 21
7292.166988
 31
0.0
  0
CIRCLE
  8
5
  6
CONTINUOUS
 62
     3
  5
150
 10
1877.211292
 20
7392.166988
 30
0.0
 40
7.5
  0
CIRCLE
  8
5
  6
CONTINUOUS
 62
     3
  5
151
 10
2027.211292
 20
7292.166988
 30
0.0
 40
7.5
  0
CIRCLE
  8
5
  6
CONTINUOUS
 62
     3
  5
152
 10
2027.211292
 20
7392.166988
 30
0.0
 40
7.5
  0
LINE
  8
5
  6
CONTINUOUS
 62
     3
  5
153
 10
2027.211292
 20
7292.166988
 30
0.0
 11
2027.211292
 21
7392.166988
 31
0.0
  0
LINE
  8
4
  6
CONTINUOUS
 62
     6
  5
154
 10
3395.317932
 20
7378.167008
 30
0.0
 11
2499.211252
 21
7378.167008
 31
0.0
  0
LINE
  8
2
  6
CONTINUOUS
 62
     5
  5
155
 10
3300.278102
 20
7446.945188
 30
0.0
 11
2387.211292
 21
7446.945188
 31
0.0
  0
LINE
  8
3
  6
CONTINUOUS
 62
     5
  5
156
 10
3300.278102
 20
7384.888828
 30
0.0
 11
2387.211292
 21
7384.888828
 31
0.0
  0
LINE
  8
4
  6
CONTINUOUS
 62
     6
  5
157
 10
3395.317932
 20
7342.166988
 30
0.0
 11
2499.211252
 21
7342.166988
 31
0.0
  0
LINE
  8
1
  6
CONTINUOUS
 62
     4
  5
158
 10
2387.211292
 20
4942.166988
 30
0.0
 11
2387.211292
 21
6342.166988
 31
0.0
  0
CIRCLE
  8
1
  6
CONTINUOUS
 62
     6
  5
159
 10
2687.211292
 20
5642.166988
 30
0.0
 40
250.0
  0
LINE
  8
1
  6
CONTINUOUS
 62
     6
  5
15A
 10
2387.211292
 20
5642.166988
 30
0.0
 11
2437.211292
 21
5642.166988
 31
0.0
  0
LINE
  8
1
  6
CONTINUOUS
 62
     4
  5
15B
 10
2387.211292
 20
6342.166988
 30
0.0
 11
3007.211292
 21
6342.166988
 31
0.0
  0
LINE
  8
1
  6
CONTINUOUS
 62
     4
  5
15C
 10
2387.211292
 20
6442.166988
 30
0.0
 11
3007.211292
 21
6442.166988
 31
0.0
  0
LINE
  8
1
  6
CONTINUOUS
 62
     4
  5
15D
 10
3007.211292
 20
6342.166988
 30
0.0
 11
3007.211292
 21
6442.166988
 31
0.0
  0
LINE
  8
1
  6
CONTINUOUS
 62
     6
  5
15E
 10
3007.211292
 20
6342.166988
 30
0.0
 11
3007.211292
 21
4942.166988
 31
0.0
  0
LINE
  8
1
  6
CONTINUOUS
 62
     4
  5
15F
 10
2387.211292
 20
6442.166988
 30
0.0
 11
2387.211292
 21
6492.166988
 31
0.0
  0
LINE
  8
3
  6
CONTINUOUS
 62
     1
  5
160
 10
2272.211292
 20
6942.166988
 30
0.0
 11
2272.211292
 21
6492.166988
 31
0.0
  0
LINE
  8
3
  6
CONTINUOUS
 62
     1
  5
161
 10
2432.211292
 20
6892.166988
 30
0.0
 11
2162.211292
 21
6892.166988
 31
0.0
  0
LINE
  8
1
  6
CONTINUOUS
 62
     4
  5
162
 10
2387.211292
 20
6492.166988
 30
0.0
 11
2207.211292
 21
6492.166988
 31
0.0
  0
LINE
  8
1
  6
CONTINUOUS
 62
     4
  5
163
 10
2207.211292
 20
4842.166988
 30
0.0
 11
2207.211292
 21
6492.166988
 31
0.0
  0
LINE
  8
100
  6
CENTER
 62
     2
  5
164
 10
2207.211292
 20
4892.166988
 30
0.0
 11
4346.251292
 21
4892.166988
 31
0.0
  0
LINE
  8
1
  6
CONTINUOUS
 62
     4
  5
165
 10
2207.211292
 20
4842.166988
 30
0.0
 11
2468.711272
 21
4842.166988
 31
0.0
  0
LINE
  8
2
  6
CONTINUOUS
 62
     5
  5
166
 10
2468.711272
 20
4837.388788
 30
0.0
 11
2468.711272
 21
4897.388868
 31
0.0
  0
LINE
  8
2
  6
CONTINUOUS
 62
     5
  5
167
 10
2493.711142
 20
4837.388788
 30
0.0
 11
2493.711142
 21
4897.388868
 31
0.0
  0
LINE
  8
2
  6
CONTINUOUS
 62
     5
  5
168
 10
2468.711272
 20
4897.388868
 30
0.0
 11
2493.711142
 21
4897.388868
 31
0.0
  0
LINE
  8
2
  6
CONTINUOUS
 62
     5
  5
169
 10
2468.711272
 20
4837.388788
 30
0.0
 11
2493.711142
 21
4837.388788
 31
0.0
  0
LINE
  8
4
  6
CONTINUOUS
 62
     6
  5
16A
 10
2499.211252
 20
4878.167008
 30
0.0
 11
2499.211252
 21
4837.388788
 31
0.0
  0
LINE
  8
5
  6
CONTINUOUS
 62
     3
  5
16B
 10
1877.211292
 20
4892.166988
 30
0.0
 11
2177.211292
 21
4892.166988
 31
0.0
  0
LINE
  8
5
  6
CONTINUOUS
 62
     3
  5
16C
 10
2027.211292
 20
6492.166988
 30
0.0
 11
2177.211292
 21
6492.166988
 31
0.0
  0
CIRCLE
  8
5
  6
CONTINUOUS
 62
     3
  5
16D
 10
1877.211292
 20
4892.166988
 30
0.0
 40
7.5
  0
CIRCLE
  8
5
  6
CONTINUOUS
 62
     3
  5
16E
 10
2027.211292
 20
4892.166988
 30
0.0
 40
7.5
  0
CIRCLE
  8
5
  6
CONTINUOUS
 62
     3
  5
16F
 10
2027.211292
 20
6492.166988
 30
0.0
 40
7.5
  0
TEXT
  8
5
  6
CONTINUOUS
 62
     3
  5
170
 10
1877.211292
 20
6007.166988
 30
0.0
 40
90.0
  1
2,500
 50
90.0
 41
0.6
  7

 72
     5
 11
1877.211292
 21
6277.166988
 31
0.0
  0
TEXT
  8
5
  6
CONTINUOUS
 62
     3
  5
171
 10
2027.211292
 20
5557.166988
 30
0.0
 40
90.0
  1
1,600
 50
90.0
 41
0.6
  7

 72
     5
 11
2027.211292
 21
5827.166988
 31
0.0
  0
LINE
  8
5
  6
CONTINUOUS
 62
     3
  5
172
 10
2027.211292
 20
4892.166988
 30
0.0
 11
2027.211292
 21
6492.166988
 31
0.0
  0
TEXT
  8
5
  6
CONTINUOUS
 62
     3
  5
173
 10
2027.211292
 20
6802.166988
 30
0.0
 40
90.0
  1
800
 50
90.0
 41
0.666667
  7

 72
     5
 11
2027.211292
 21
6982.166988
 31
0.0
  0
LINE
  8
4
  6
CONTINUOUS
 62
     6
  5
174
 10
4196.251282
 20
4837.388788
 30
0.0
 11
2499.211252
 21
4837.388788
 31
0.0
  0
LINE
  8
3
  6
CONTINUOUS
 62
     1
  5
175
 10
2322.211292
 20
7292.166988
 30
0.0
 11
2322.211292
 21
6842.166988
 31
0.0
  0
LINE
  8
3
  6
CONTINUOUS
 62
     1
  5
176
 10
2387.211292
 20
7292.166988
 30
0.0
 11
2387.211292
 21
6492.166988
 31
0.0
  0
LINE
  8
3
  6
CONTINUOUS
 62
     1
  5
177
 10
2207.211292
 20
7292.166988
 30
0.0
 11
2207.211292
 21
6492.166988
 31
0.0
  0
LINE
  8
100
  6
CENTER
 62
     2
  5
178
 10
2306.252908
 20
8442.166988
 30
0.0
 11
2306.252908
 21
4842.166988
 31
0.0
  0
LINE
  8
5
  6
CONTINUOUS
 62
     3
  5
179
 10
1877.211292
 20
7392.166988
 30
0.0
 11
1877.211292
 21
4892.166988
 31
0.0
  0
LINE
  8
5
  6
CONTINUOUS
 62
     3
  5
17A
 10
2027.211292
 20
6492.166988
 30
0.0
 11
2027.211292
 21
7292.166988
 31
0.0
  0
CIRCLE
  8
5
  6
CONTINUOUS
 62
     3
  5
17B
 10
2306.252908
 20
4512.166988
 30
0.0
 40
7.5
  0
CIRCLE
  8
5
  6
CONTINUOUS
 62
     3
  5
17C
 10
2306.252908
 20
4662.166988
 30
0.0
 40
7.5
  0
LINE
  8
5
  6
CONTINUOUS
 62
     3
  5
17D
 10
2306.252908
 20
4512.166988
 30
0.0
 11
2306.252908
 21
4812.166988
 31
0.0
  0
LINE
  8
5
  6
CONTINUOUS
 62
     3
  5
17E
 10
2306.252908
 20
4512.166988
 30
0.0
 11
4296.251292
 21
4512.166988
 31
0.0
  0
TEXT
  8
5
  6
CONTINUOUS
 62
     3
  5
17F
 10
3165.7721
 20
4512.166988
 30
0.0
 40
90.0
  1
1,990
 41
0.6
  7

 72
     5
 11
3435.7721
 21
4512.166988
 31
0.0
  0
LINE
  8
12
  6
CONTINUOUS
 62
     6
  5
180
 10
3391.287932
 20
4878.167008
 30
0.0
 11
3391.287932
 21
4842.166988
 31
0.0
  0
LINE
  8
4
  6
HIDDEN
 62
     6
  5
181
 10
3391.287932
 20
4878.167008
 30
0.0
 11
3391.287932
 21
4842.670008
 31
0.0
  0
LINE
  8
4
  6
HIDDEN
 62
     6
  5
182
 10
4196.251282
 20
4878.167008
 30
0.0
 11
3395.228512
 21
4878.167008
 31
0.0
  0
LINE
  8
4
  6
HIDDEN
 62
     6
  5
183
 10
4196.251282
 20
4842.166988
 30
0.0
 11
3395.228512
 21
4842.166988
 31
0.0
  0
LINE
  8
2
  6
CONTINUOUS
 62
     5
  5
184
 10
3296.248102
 20
4879.888868
 30
0.0
 11
3271.247952
 21
4879.888868
 31
0.0
  0
LINE
  8
4
  6
HIDDEN
 62
     6
  5
185
 10
3267.134192
 20
4878.167008
 30
0.0
 11
3267.134192
 21
4842.166988
 31
0.0
  0
LINE
  8
2
  6
CONTINUOUS
 62
     5
  5
186
 10
3296.248102
 20
4946.945188
 30
0.0
 11
3271.247952
 21
4946.945188
 31
0.0
  0
LINE
  8
2
  6
CONTINUOUS
 62
     5
  5
187
 10
3296.248102
 20
4879.888868
 30
0.0
 11
3296.248102
 21
4946.945188
 31
0.0
  0
LINE
  8
2
  6
CONTINUOUS
 62
     5
  5
188
 10
3271.247952
 20
4879.888868
 30
0.0
 11
3271.247952
 21
4946.945188
 31
0.0
  0
CIRCLE
  8
5
  6
CONTINUOUS
 62
     3
  5
189
 10
3296.248102
 20
4662.166988
 30
0.0
 40
7.5
  0
LINE
  8
4
  6
CONTINUOUS
 62
     6
  5
18A
 10
3391.287932
 20
4842.166988
 30
0.0
 11
3267.134192
 21
4842.166988
 31
0.0
  0
LINE
  8
4
  6
CONTINUOUS
 62
     6
  5
18B
 10
3391.287932
 20
4878.167008
 30
0.0
 11
2499.211252
 21
4878.167008
 31
0.0
  0
LINE
  8
1
  6
CONTINUOUS
 62
     4
  5
18C
 10
2387.211292
 20
4942.166988
 30
0.0
 11
3271.247952
 21
4942.166988
 31
0.0
  0
LINE
  8
3
  6
CONTINUOUS
 62
     5
  5
18D
 10
3271.247952
 20
4884.888828
 30
0.0
 11
2493.711142
 21
4884.888828
 31
0.0
  0
LINE
  8
5
  6
CONTINUOUS
 62
     3
  5
18E
 10
3296.248102
 20
4662.166988
 30
0.0
 11
4196.251282
 21
4662.166988
 31
0.0
  0
TEXT
  8
5
  6
CONTINUOUS
 62
     3
  5
18F
 10
3677.784692
 20
4662.166988
 30
0.0
 40
90.0
  1
900
 41
0.666667
  7

 72
     5
 11
3857.784692
 21
4662.166988
 31
0.0
  0
LINE
  8
5
  6
CONTINUOUS
 62
     3
  5
190
 10
3296.248102
 20
4662.166988
 30
0.0
 11
3296.248102
 21
4812.166988
 31
0.0
  0
LINE
  8
5
  6
CONTINUOUS
 62
     3
  5
191
 10
2306.252908
 20
4662.166988
 30
0.0
 11
3296.248102
 21
4662.166988
 31
0.0
  0
TEXT
  8
5
  6
CONTINUOUS
 62
     3
  5
192
 10
2722.265505
 20
4662.166988
 30
0.0
 40
90.0
  1
990
 41
0.666667
  7

 72
     5
 11
2902.265505
 21
4662.166988
 31
0.0
  0
LINE
  8
7
  6
CONTINUOUS
 62
     3
  5
193
 10
3516.994555
 20
8332.634599
 30
0.0
 11
3516.994555
 21
8302.584389
 31
0.0
  0
LINE
  8
40
  6
CONTINUOUS
 62
     4
  5
194
 10
3518.455455
 20
8332.584639
 30
0.0
 11
3487.632915
 21
8332.584639
 31
0.0
  0
LINE
  8
40
  6
CONTINUOUS
 62
     4
  5
195
 10
3481.389475
 20
8334.584609
 30
0.0
 11
3524.670475
 21
8334.584609
 31
0.0
  0
LINE
  8
40
  6
CONTINUOUS
 62
     4
  5
196
 10
3457.994635
 20
8352.584619
 30
0.0
 11
3457.994635
 21
8342.097709
 31
0.0
  0
LINE
  8
40
  6
CONTINUOUS
 62
     4
  5
197
 10
3547.994615
 20
8352.584619
 30
0.0
 11
3547.994615
 21
8342.069079
 31
0.0
  0
LINE
  8
40
  6
CONTINUOUS
 62
     4
  5
198
 10
3547.248555
 20
8340.584659
 30
0.0
 11
3458.784095
 21
8340.584659
 31
0.0
  0
ARC
  8
40
  6
CONTINUOUS
 62
     4
  5
199
 10
3459.994535
 20
8342.200399
 30
0.0
 40
2.00004
 50
180.0
 51
255.529705
  0
ARC
  8
40
  6
CONTINUOUS
 62
     4
  5
19A
 10
3545.992895
 20
8342.157349
 30
0.0
 40
2.00004
 50
284.069648
 51
360.0
  0
LINE
  8
1
  6
CONTINUOUS
 62
     4
  5
19B
 10
3470.683675
 20
8359.770679
 30
0.0
 11
3474.683755
 21
8360.465709
 31
0.0
  0
LINE
  8
1
  6
CONTINUOUS
 62
     4
  5
19C
 10
3470.683675
 20
8362.806999
 30
0.0
 11
3474.683755
 21
8363.516239
 31
0.0
  0
LINE
  8
1
  6
CONTINUOUS
 62
     4
  5
19D
 10
3470.683675
 20
8365.860119
 30
0.0
 11
3474.683755
 21
8366.569359
 31
0.0
  0
LINE
  8
1
  6
CONTINUOUS
 62
     4
  5
19E
 10
3470.683675
 20
8368.913239
 30
0.0
 11
3474.683755
 21
8369.622409
 31
0.0
  0
LINE
  8
1
  6
CONTINUOUS
 62
     4
  5
19F
 10
3470.683675
 20
8371.963699
 30
0.0
 11
3474.683755
 21
8372.658659
 31
0.0
  0
LINE
  8
1
  6
CONTINUOUS
 62
     4
  5
1A0
 10
3470.683675
 20
8374.999809
 30
0.0
 11
3474.683755
 21
8375.709049
 31
0.0
  0
LINE
  8
1
  6
CONTINUOUS
 62
     4
  5
1A1
 10
3474.288535
 20
8358.875519
 30
0.0
 11
3471.078895
 21
8358.307889
 31
0.0
  0
LINE
  8
1
  6
CONTINUOUS
 62
     4
  5
1A2
 10
3474.288535
 20
8361.908969
 30
0.0
 11
3471.078895
 21
8361.341409
 31
0.0
  0
LINE
  8
1
  6
CONTINUOUS
 62
     4
  5
1A3
 10
3474.288535
 20
8364.962089
 30
0.0
 11
3471.078895
 21
8364.394529
 31
0.0
  0
LINE
  8
1
  6
CONTINUOUS
 62
     4
  5
1A4
 10
3474.288535
 20
8368.015209
 30
0.0
 11
3471.078895
 21
8367.447719
 31
0.0
  0
LINE
  8
1
  6
CONTINUOUS
 62
     4
  5
1A5
 10
3474.288535
 20
8371.068399
 30
0.0
 11
3471.078895
 21
8370.500839
 31
0.0
  0
LINE
  8
1
  6
CONTINUOUS
 62
     4
  5
1A6
 10
3474.288535
 20
8374.101919
 30
0.0
 11
3471.078895
 21
8373.534359
 31
0.0
  0
LINE
  8
1
  6
CONTINUOUS
 62
     4
  5
1A7
 10
3474.288535
 20
8377.155039
 30
0.0
 11
3471.078895
 21
8376.587409
 31
0.0
  0
LINE
  8
1
  6
CONTINUOUS
 62
     4
  5
1A8
 10
3470.683675
 20
8356.719309
 30
0.0
 11
3474.683755
 21
8357.423509
 31
0.0
  0
LINE
  8
1
  6
CONTINUOUS
 62
     4
  5
1A9
 10
3472.683715
 20
8346.584639
 30
0.0
 11
3468.433735
 21
8346.584639
 31
0.0
  0
LINE
  8
1
  6
CONTINUOUS
 62
     4
  5
1AA
 10
3470.683675
 20
8350.672779
 30
0.0
 11
3474.683755
 21
8351.382019
 31
0.0
  0
LINE
  8
1
  6
CONTINUOUS
 62
     4
  5
1AB
 10
3470.683675
 20
8353.686629
 30
0.0
 11
3474.683755
 21
8354.395869
 31
0.0
  0
LINE
  8
1
  6
CONTINUOUS
 62
     4
  5
1AC
 10
3474.288535
 20
8349.794349
 30
0.0
 11
3471.078895
 21
8349.226789
 31
0.0
  0
LINE
  8
1
  6
CONTINUOUS
 62
     4
  5
1AD
 10
3474.288535
 20
8352.808269
 30
0.0
 11
3471.078895
 21
8352.240709
 31
0.0
  0
LINE
  8
1
  6
CONTINUOUS
 62
     4
  5
1AE
 10
3474.288535
 20
8355.841859
 30
0.0
 11
3471.078895
 21
8355.274299
 31
0.0
  0
LINE
  8
1
  6
CONTINUOUS
 62
     4
  5
1AF
 10
3470.080695
 20
8346.584639
 30
0.0
 11
3471.283715
 21
8347.787589
 31
0.0
  0
LINE
  8
1
  6
CONTINUOUS
 62
     4
  5
1B0
 10
3470.080695
 20
8346.584639
 30
0.0
 11
3468.433735
 21
8346.584639
 31
0.0
  0
LINE
  8
1
  6
CONTINUOUS
 62
     4
  5
1B1
 10
3475.286735
 20
8346.584639
 30
0.0
 11
3474.083715
 21
8347.787589
 31
0.0
  0
LINE
  8
1
  6
CONTINUOUS
 62
     4
  5
1B2
 10
3475.286735
 20
8346.584639
 30
0.0
 11
3476.933695
 21
8346.584639
 31
0.0
  0
LINE
  8
1
  6
CONTINUOUS
 62
     4
  5
1B3
 10
3474.288535
 20
8348.267789
 30
0.0
 11
3471.078895
 21
8347.700299
 31
0.0
  0
LINE
  8
1
  6
CONTINUOUS
 62
     4
  5
1B4
 10
3472.076955
 20
8343.093599
 30
0.0
 11
3473.290475
 21
8343.093599
 31
0.0
  0
LINE
  8
1
  6
CONTINUOUS
 62
     4
  5
1B5
 10
3472.076955
 20
8342.584629
 30
0.0
 11
3472.076955
 21
8343.093599
 31
0.0
  0
LINE
  8
1
  6
CONTINUOUS
 62
     4
  5
1B6
 10
3473.290475
 20
8342.584629
 30
0.0
 11
3473.290475
 21
8343.093599
 31
0.0
  0
LINE
  8
1
  6
CONTINUOUS
 62
     4
  5
1B7
 10
3472.076955
 20
8342.584629
 30
0.0
 11
3473.290475
 21
8342.584629
 31
0.0
  0
LINE
  8
1
  6
CONTINUOUS
 62
     4
  5
1B8
 10
3470.683675
 20
8378.052929
 30
0.0
 11
3474.683755
 21
8378.762169
 31
0.0
  0
LINE
  8
1
  6
CONTINUOUS
 62
     4
  5
1B9
 10
3474.075035
 20
8381.707349
 30
0.0
 11
3471.190055
 21
8381.195789
 31
0.0
  0
LINE
  8
1
  6
CONTINUOUS
 62
     4
  5
1BA
 10
3474.288535
 20
8380.208089
 30
0.0
 11
3471.078895
 21
8379.640529
 31
0.0
  0
LINE
  8
1
  6
CONTINUOUS
 62
     4
  5
1BB
 10
3473.782155
 20
8383.171609
 30
0.0
 11
3471.504775
 21
8382.768969
 31
0.0
  0
LINE
  8
1
  6
CONTINUOUS
 62
     4
  5
1BC
 10
3531.305495
 20
8359.770679
 30
0.0
 11
3535.305435
 21
8360.465709
 31
0.0
  0
LINE
  8
1
  6
CONTINUOUS
 62
     4
  5
1BD
 10
3531.305495
 20
8362.806999
 30
0.0
 11
3535.305435
 21
8363.516239
 31
0.0
  0
LINE
  8
1
  6
CONTINUOUS
 62
     4
  5
1BE
 10
3531.305495
 20
8365.860119
 30
0.0
 11
3535.305435
 21
8366.569359
 31
0.0
  0
LINE
  8
1
  6
CONTINUOUS
 62
     4
  5
1BF
 10
3531.305495
 20
8368.913239
 30
0.0
 11
3535.305435
 21
8369.622409
 31
0.0
  0
LINE
  8
1
  6
CONTINUOUS
 62
     4
  5
1C0
 10
3531.305495
 20
8371.963699
 30
0.0
 11
3535.305435
 21
8372.658659
 31
0.0
  0
LINE
  8
1
  6
CONTINUOUS
 62
     4
  5
1C1
 10
3531.305495
 20
8374.999809
 30
0.0
 11
3535.305435
 21
8375.709049
 31
0.0
  0
LINE
  8
1
  6
CONTINUOUS
 62
     4
  5
1C2
 10
3534.910355
 20
8358.875519
 30
0.0
 11
3531.700575
 21
8358.307889
 31
0.0
  0
LINE
  8
1
  6
CONTINUOUS
 62
     4
  5
1C3
 10
3534.910355
 20
8361.908969
 30
0.0
 11
3531.700575
 21
8361.341409
 31
0.0
  0
LINE
  8
1
  6
CONTINUOUS
 62
     4
  5
1C4
 10
3534.910355
 20
8364.962089
 30
0.0
 11
3531.700575
 21
8364.394529
 31
0.0
  0
LINE
  8
1
  6
CONTINUOUS
 62
     4
  5
1C5
 10
3534.910355
 20
8368.015209
 30
0.0
 11
3531.700575
 21
8367.447719
 31
0.0
  0
LINE
  8
1
  6
CONTINUOUS
 62
     4
  5
1C6
 10
3534.910355
 20
8371.068399
 30
0.0
 11
3531.700575
 21
8370.500839
 31
0.0
  0
LINE
  8
1
  6
CONTINUOUS
 62
     4
  5
1C7
 10
3534.910355
 20
8374.101919
 30
0.0
 11
3531.700575
 21
8373.534359
 31
0.0
  0
LINE
  8
1
  6
CONTINUOUS
 62
     4
  5
1C8
 10
3534.910355
 20
8377.155039
 30
0.0
 11
3531.700575
 21
8376.587409
 31
0.0
  0
LINE
  8
1
  6
CONTINUOUS
 62
     4
  5
1C9
 10
3531.305495
 20
8356.719309
 30
0.0
 11
3535.305435
 21
8357.423509
 31
0.0
  0
LINE
  8
1
  6
CONTINUOUS
 62
     4
  5
1CA
 10
3533.305535
 20
8346.584639
 30
0.0
 11
3529.055415
 21
8346.584639
 31
0.0
  0
LINE
  8
1
  6
CONTINUOUS
 62
     4
  5
1CB
 10
3531.305495
 20
8350.672779
 30
0.0
 11
3535.305435
 21
8351.382019
 31
0.0
  0
LINE
  8
1
  6
CONTINUOUS
 62
     4
  5
1CC
 10
3531.305495
 20
8353.686629
 30
0.0
 11
3535.305435
 21
8354.395869
 31
0.0
  0
LINE
  8
1
  6
CONTINUOUS
 62
     4
  5
1CD
 10
3534.910355
 20
8349.794349
 30
0.0
 11
3531.700575
 21
8349.226789
 31
0.0
  0
LINE
  8
1
  6
CONTINUOUS
 62
     4
  5
1CE
 10
3534.910355
 20
8352.808269
 30
0.0
 11
3531.700575
 21
8352.240709
 31
0.0
  0
LINE
  8
1
  6
CONTINUOUS
 62
     4
  5
1CF
 10
3534.910355
 20
8355.841859
 30
0.0
 11
3531.700575
 21
8355.274299
 31
0.0
  0
LINE
  8
1
  6
CONTINUOUS
 62
     4
  5
1D0
 10
3530.702515
 20
8346.584639
 30
0.0
 11
3531.905535
 21
8347.787589
 31
0.0
  0
LINE
  8
1
  6
CONTINUOUS
 62
     4
  5
1D1
 10
3530.702515
 20
8346.584639
 30
0.0
 11
3529.055415
 21
8346.584639
 31
0.0
  0
LINE
  8
1
  6
CONTINUOUS
 62
     4
  5
1D2
 10
3535.908415
 20
8346.584639
 30
0.0
 11
3534.705535
 21
8347.787589
 31
0.0
  0
LINE
  8
1
  6
CONTINUOUS
 62
     4
  5
1D3
 10
3535.908415
 20
8346.584639
 30
0.0
 11
3537.555515
 21
8346.584639
 31
0.0
  0
LINE
  8
1
  6
CONTINUOUS
 62
     4
  5
1D4
 10
3534.910355
 20
8348.267789
 30
0.0
 11
3531.700575
 21
8347.700299
 31
0.0
  0
LINE
  8
1
  6
CONTINUOUS
 62
     4
  5
1D5
 10
3532.698775
 20
8343.093599
 30
0.0
 11
3533.912155
 21
8343.093599
 31
0.0
  0
LINE
  8
1
  6
CONTINUOUS
 62
     4
  5
1D6
 10
3532.698775
 20
8342.584629
 30
0.0
 11
3532.698775
 21
8343.093599
 31
0.0
  0
LINE
  8
1
  6
CONTINUOUS
 62
     4
  5
1D7
 10
3533.912155
 20
8342.584629
 30
0.0
 11
3533.912155
 21
8343.093599
 31
0.0
  0
LINE
  8
1
  6
CONTINUOUS
 62
     4
  5
1D8
 10
3532.698775
 20
8342.584629
 30
0.0
 11
3533.912155
 21
8342.584629
 31
0.0
  0
LINE
  8
1
  6
CONTINUOUS
 62
     4
  5
1D9
 10
3531.305495
 20
8378.052929
 30
0.0
 11
3535.305435
 21
8378.762169
 31
0.0
  0
LINE
  8
1
  6
CONTINUOUS
 62
     4
  5
1DA
 10
3534.696715
 20
8381.707349
 30
0.0
 11
3531.811875
 21
8381.195789
 31
0.0
  0
LINE
  8
1
  6
CONTINUOUS
 62
     4
  5
1DB
 10
3534.910355
 20
8380.208089
 30
0.0
 11
3531.700575
 21
8379.640529
 31
0.0
  0
LINE
  8
1
  6
CONTINUOUS
 62
     4
  5
1DC
 10
3534.403975
 20
8383.171609
 30
0.0
 11
3532.126455
 21
8382.768969
 31
0.0
  0
LINE
  8
40
  6
CONTINUOUS
 62
     4
  5
1DD
 10
3547.969555
 20
8352.584619
 30
0.0
 11
3547.969555
 21
8342.069079
 31
0.0
  0
LINE
  8
40
  6
CONTINUOUS
 62
     4
  5
1DE
 10
3545.469575
 20
8339.952139
 30
0.0
 11
3545.469575
 21
8347.584659
 31
0.0
  0
LINE
  8
40
  6
CONTINUOUS
 62
     4
  5
1DF
 10
3485.264535
 20
8333.584659
 30
0.0
 11
3520.795555
 21
8333.584659
 31
0.0
  0
LINE
  8
40
  6
CONTINUOUS
 62
     4
  5
1E0
 10
3488.994555
 20
8332.584639
 30
0.0
 11
3516.994555
 21
8332.584639
 31
0.0
  0
LINE
  8
40
  6
CONTINUOUS
 62
     4
  5
1E1
 10
3517.578915
 20
8331.584619
 30
0.0
 11
3488.478515
 21
8331.584619
 31
0.0
  0
LINE
  8
40
  6
CONTINUOUS
 62
     4
  5
1E2
 10
3517.140575
 20
8330.584529
 30
0.0
 11
3488.875415
 21
8330.584529
 31
0.0
  0
LINE
  8
12
  6
CONTINUOUS
 62
     4
  5
1E3
 10
3526.381555
 20
8347.584659
 30
0.0
 11
3547.994615
 21
8347.584659
 31
0.0
  0
LINE
  8
12
  6
CONTINUOUS
 62
     4
  5
1E4
 10
3460.494615
 20
8339.976919
 30
0.0
 11
3460.494615
 21
8347.584659
 31
0.0
  0
LINE
  8
12
  6
CONTINUOUS
 62
     4
  5
1E5
 10
3481.343975
 20
8334.596439
 30
0.0
 11
3481.343975
 21
8334.566899
 31
0.0
  0
LINE
  8
12
  6
CONTINUOUS
 62
     4
  5
1E6
 10
3479.626035
 20
8335.039679
 30
0.0
 11
3479.626035
 21
8347.584659
 31
0.0
  0
LINE
  8
12
  6
CONTINUOUS
 62
     4
  5
1E7
 10
3481.337815
 20
8334.691919
 30
0.0
 11
3479.713115
 21
8347.689939
 31
0.0
  0
LINE
  8
12
  6
CONTINUOUS
 62
     4
  5
1E8
 10
3524.663755
 20
8334.491019
 30
0.0
 11
3524.663755
 21
8334.461549
 31
0.0
  0
LINE
  8
12
  6
CONTINUOUS
 62
     4
  5
1E9
 10
3526.381555
 20
8334.934329
 30
0.0
 11
3526.381555
 21
8347.479379
 31
0.0
  0
LINE
  8
12
  6
CONTINUOUS
 62
     4
  5
1EA
 10
3524.669915
 20
8334.586639
 30
0.0
 11
3526.294615
 21
8347.584659
 31
0.0
  0
LINE
  8
12
  6
CONTINUOUS
 62
     4
  5
1EB
 10
3479.726275
 20
8347.584659
 30
0.0
 11
3460.494615
 21
8347.584659
 31
0.0
  0
LINE
  8
12
  6
CONTINUOUS
 62
     4
  5
1EC
 10
3479.726275
 20
8346.584639
 30
0.0
 11
3460.494615
 21
8346.584639
 31
0.0
  0
LINE
  8
12
  6
CONTINUOUS
 62
     4
  5
1ED
 10
3526.381555
 20
8346.584639
 30
0.0
 11
3547.994615
 21
8346.584639
 31
0.0
  0
LINE
  8
12
  6
CONTINUOUS
 62
     4
  5
1EE
 10
3476.933695
 20
8346.584639
 30
0.0
 11
3468.433735
 21
8346.584639
 31
0.0
  0
LINE
  8
12
  6
CONTINUOUS
 62
     4
  5
1EF
 10
3468.433735
 20
8346.584639
 30
0.0
 11
3468.433735
 21
8343.584649
 31
0.0
  0
LINE
  8
12
  6
CONTINUOUS
 62
     4
  5
1F0
 10
3476.933695
 20
8346.584639
 30
0.0
 11
3476.933695
 21
8343.584649
 31
0.0
  0
LINE
  8
12
  6
CONTINUOUS
 62
     4
  5
1F1
 10
3476.933695
 20
8343.584649
 30
0.0
 11
3476.933695
 21
8346.584639
 31
0.0
  0
LINE
  8
12
  6
CONTINUOUS
 62
     4
  5
1F2
 10
3468.433735
 20
8343.584649
 30
0.0
 11
3468.433735
 21
8346.584639
 31
0.0
  0
LINE
  8
12
  6
CONTINUOUS
 62
     4
  5
1F3
 10
3468.433735
 20
8343.584649
 30
0.0
 11
3476.933695
 21
8343.584649
 31
0.0
  0
ARC
  8
12
  6
CONTINUOUS
 62
     4
  5
1F4
 10
3472.683715
 20
8352.115899
 30
0.0
 40
9.53134
 50
243.51896
 51
296.48104
  0
LINE
  8
12
  6
CONTINUOUS
 62
     4
  5
1F5
 10
3474.083715
 20
8346.584639
 30
0.0
 11
3474.083715
 21
8377.584629
 31
0.0
  0
LINE
  8
12
  6
CONTINUOUS
 62
     4
  5
1F6
 10
3471.283715
 20
8346.584639
 30
0.0
 11
3471.283715
 21
8377.584629
 31
0.0
  0
LINE
  8
12
  6
CONTINUOUS
 62
     4
  5
1F7
 10
3474.083715
 20
8377.584629
 30
0.0
 11
3471.283715
 21
8377.584629
 31
0.0
  0
LINE
  8
12
  6
CONTINUOUS
 62
     4
  5
1F8
 10
3472.683715
 20
8384.584629
 30
0.0
 11
3471.283715
 21
8377.584629
 31
0.0
  0
LINE
  8
12
  6
CONTINUOUS
 62
     4
  5
1F9
 10
3472.683715
 20
8384.584629
 30
0.0
 11
3474.083715
 21
8377.584629
 31
0.0
  0
LINE
  8
12
  6
CENTER
 62
     4
  5
1FA
 10
3472.683715
 20
8343.584649
 30
0.0
 11
3472.683715
 21
8384.584629
 31
0.0
  0
LINE
  8
12
  6
CENTER
 62
     4
  5
1FB
 10
3472.683715
 20
8384.584629
 30
0.0
 11
3472.683715
 21
8345.077609
 31
0.0
  0
LINE
  8
12
  6
CONTINUOUS
 62
     4
  5
1FC
 10
3537.555515
 20
8346.584639
 30
0.0
 11
3529.055415
 21
8346.584639
 31
0.0
  0
LINE
  8
12
  6
CONTINUOUS
 62
     4
  5
1FD
 10
3529.055415
 20
8346.584639
 30
0.0
 11
3529.055415
 21
8343.584649
 31
0.0
  0
LINE
  8
12
  6
CONTINUOUS
 62
     4
  5
1FE
 10
3537.555515
 20
8346.584639
 30
0.0
 11
3537.555515
 21
8343.584649
 31
0.0
  0
LINE
  8
12
  6
CONTINUOUS
 62
     4
  5
1FF
 10
3537.555515
 20
8343.584649
 30
0.0
 11
3537.555515
 21
8346.584639
 31
0.0
  0
LINE
  8
12
  6
CONTINUOUS
 62
     4
  5
200
 10
3529.055415
 20
8343.584649
 30
0.0
 11
3529.055415
 21
8346.584639
 31
0.0
  0
LINE
  8
12
  6
CONTINUOUS
 62
     4
  5
201
 10
3529.055415
 20
8343.584649
 30
0.0
 11
3537.555515
 21
8343.584649
 31
0.0
  0
ARC
  8
12
  6
CONTINUOUS
 62
     4
  5
202
 10
3533.305535
 20
8352.115899
 30
0.0
 40
9.53134
 50
243.51896
 51
296.48104
  0
LINE
  8
12
  6
CONTINUOUS
 62
     4
  5
203
 10
3534.705535
 20
8346.584639
 30
0.0
 11
3534.705535
 21
8377.584629
 31
0.0
  0
LINE
  8
12
  6
CONTINUOUS
 62
     4
  5
204
 10
3531.905535
 20
8346.584639
 30
0.0
 11
3531.905535
 21
8377.584629
 31
0.0
  0
LINE
  8
12
  6
CONTINUOUS
 62
     4
  5
205
 10
3534.705535
 20
8377.584629
 30
0.0
 11
3531.905535
 21
8377.584629
 31
0.0
  0
LINE
  8
12
  6
CONTINUOUS
 62
     4
  5
206
 10
3533.305535
 20
8384.584629
 30
0.0
 11
3531.905535
 21
8377.584629
 31
0.0
  0
LINE
  8
12
  6
CONTINUOUS
 62
     4
  5
207
 10
3533.305535
 20
8384.584629
 30
0.0
 11
3534.705535
 21
8377.584629
 31
0.0
  0
LINE
  8
12
  6
CENTER
 62
     4
  5
208
 10
3533.305535
 20
8343.584649
 30
0.0
 11
3533.305535
 21
8384.584629
 31
0.0
  0
LINE
  8
12
  6
CENTER
 62
     4
  5
209
 10
3533.305535
 20
8384.584629
 30
0.0
 11
3533.305535
 21
8345.077609
 31
0.0
  0
LINE
  8
12
  6
CONTINUOUS
 62
     4
  5
20A
 10
3478.392215
 20
8346.831879
 30
0.0
 11
3466.892195
 21
8346.831879
 31
0.0
  0
LINE
  8
12
  6
CONTINUOUS
 62
     4
  5
20B
 10
3478.392215
 20
8347.631769
 30
0.0
 11
3466.892195
 21
8347.631769
 31
0.0
  0
LINE
  8
12
  6
CONTINUOUS
 62
     4
  5
20C
 10
3478.392215
 20
8346.831879
 30
0.0
 11
3478.392215
 21
8347.631769
 31
0.0
  0
LINE
  8
12
  6
CONTINUOUS
 62
     4
  5
20D
 10
3475.392295
 20
8346.831879
 30
0.0
 11
3475.392295
 21
8347.631769
 31
0.0
  0
LINE
  8
12
  6
CONTINUOUS
 62
     4
  5
20E
 10
3469.892255
 20
8346.831879
 30
0.0
 11
3469.892255
 21
8347.631769
 31
0.0
  0
LINE
  8
12
  6
CONTINUOUS
 62
     4
  5
20F
 10
3466.892195
 20
8346.831879
 30
0.0
 11
3466.892195
 21
8347.631769
 31
0.0
  0
LINE
  8
12
  6
CONTINUOUS
 62
     4
  5
210
 10
3539.010395
 20
8346.831879
 30
0.0
 11
3527.510375
 21
8346.831879
 31
0.0
  0
LINE
  8
12
  6
CONTINUOUS
 62
     4
  5
211
 10
3539.010395
 20
8347.631769
 30
0.0
 11
3527.510375
 21
8347.631769
 31
0.0
  0
LINE
  8
12
  6
CONTINUOUS
 62
     4
  5
212
 10
3539.010395
 20
8346.831879
 30
0.0
 11
3539.010395
 21
8347.631769
 31
0.0
  0
LINE
  8
12
  6
CONTINUOUS
 62
     4
  5
213
 10
3536.010335
 20
8346.831879
 30
0.0
 11
3536.010335
 21
8347.631769
 31
0.0
  0
LINE
  8
12
  6
CONTINUOUS
 62
     4
  5
214
 10
3530.510295
 20
8346.831879
 30
0.0
 11
3530.510295
 21
8347.631769
 31
0.0
  0
LINE
  8
12
  6
CONTINUOUS
 62
     4
  5
215
 10
3527.510375
 20
8346.831879
 30
0.0
 11
3527.510375
 21
8347.631769
 31
0.0
  0
LINE
  8
8
  6
CONTINUOUS
 62
     4
  5
216
 10
3519.995035
 20
8333.378019
 30
0.0
 11
3546.490595
 21
8340.215549
 31
0.0
  0
LINE
  8
8
  6
CONTINUOUS
 62
     4
  5
217
 10
3486.182795
 20
8333.347569
 30
0.0
 11
3459.451755
 21
8340.245929
 31
0.0
  0
ARC
  8
8
  6
CONTINUOUS
 62
     4
  5
218
 10
3485.026815
 20
8329.548669
 30
0.0
 40
4.00008
 50
360.0
 51
75.529706
  0
LINE
  8
50
  6
CENTER
 62
     4
  5
219
 10
3472.642275
 20
8346.831879
 30
0.0
 11
3472.642275
 21
8348.953859
 31
0.0
  0
LINE
  8
50
  6
CENTER
 62
     4
  5
21A
 10
3533.260315
 20
8346.831879
 30
0.0
 11
3533.260315
 21
8348.953859
 31
0.0
  0
ARC
  8
8
  6
CONTINUOUS
 62
     4
  5
21B
 10
3520.989035
 20
8329.497779
 30
0.0
 40
4.00008
 50
104.470294
 51
180.0
  0
LINE
  8
40
  6
CONTINUOUS
 62
     4
  5
21C
 10
3056.767128
 20
8332.584639
 30
0.0
 11
3087.589668
 21
8332.584639
 31
0.0
  0
LINE
  8
40
  6
CONTINUOUS
 62
     4
  5
21D
 10
3093.833108
 20
8334.584609
 30
0.0
 11
3050.552108
 21
8334.584609
 31
0.0
  0
LINE
  8
40
  6
CONTINUOUS
 62
     4
  5
21E
 10
3117.227948
 20
8352.584619
 30
0.0
 11
3117.227948
 21
8342.097709
 31
0.0
  0
LINE
  8
40
  6
CONTINUOUS
 62
     4
  5
21F
 10
3027.227968
 20
8352.584619
 30
0.0
 11
3027.227968
 21
8342.069079
 31
0.0
  0
LINE
  8
40
  6
CONTINUOUS
 62
     4
  5
220
 10
3027.974028
 20
8340.584659
 30
0.0
 11
3116.438488
 21
8340.584659
 31
0.0
  0
ARC
  8
40
  6
CONTINUOUS
 62
     4
  5
221
 10
3115.228048
 20
8342.200399
 30
0.0
 40
2.00004
 50
284.470295
 51
360.0
  0
ARC
  8
40
  6
CONTINUOUS
 62
     4
  5
222
 10
3029.229688
 20
8342.157349
 30
0.0
 40
2.00004
 50
180.0
 51
255.930352
  0
LINE
  8
1
  6
CONTINUOUS
 62
     4
  5
223
 10
3104.538908
 20
8359.770679
 30
0.0
 11
3100.538828
 21
8360.465709
 31
0.0
  0
LINE
  8
1
  6
CONTINUOUS
 62
     4
  5
224
 10
3104.538908
 20
8362.806999
 30
0.0
 11
3100.538828
 21
8363.516239
 31
0.0
  0
LINE
  8
1
  6
CONTINUOUS
 62
     4
  5
225
 10
3104.538908
 20
8365.860119
 30
0.0
 11
3100.538828
 21
8366.569359
 31
0.0
  0
LINE
  8
1
  6
CONTINUOUS
 62
     4
  5
226
 10
3104.538908
 20
8368.913239
 30
0.0
 11
3100.538828
 21
8369.622409
 31
0.0
  0
LINE
  8
1
  6
CONTINUOUS
 62
     4
  5
227
 10
3104.538908
 20
8371.963699
 30
0.0
 11
3100.538828
 21
8372.658659
 31
0.0
  0
LINE
  8
1
  6
CONTINUOUS
 62
     4
  5
228
 10
3104.538908
 20
8374.999809
 30
0.0
 11
3100.538828
 21
8375.709049
 31
0.0
  0
LINE
  8
1
  6
CONTINUOUS
 62
     4
  5
229
 10
3100.934048
 20
8358.875519
 30
0.0
 11
3104.143688
 21
8358.307889
 31
0.0
  0
LINE
  8
1
  6
CONTINUOUS
 62
     4
  5
22A
 10
3100.934048
 20
8361.908969
 30
0.0
 11
3104.143688
 21
8361.341409
 31
0.0
  0
LINE
  8
1
  6
CONTINUOUS
 62
     4
  5
22B
 10
3100.934048
 20
8364.962089
 30
0.0
 11
3104.143688
 21
8364.394529
 31
0.0
  0
LINE
  8
1
  6
CONTINUOUS
 62
     4
  5
22C
 10
3100.934048
 20
8368.015209
 30
0.0
 11
3104.143688
 21
8367.447719
 31
0.0
  0
LINE
  8
1
  6
CONTINUOUS
 62
     4
  5
22D
 10
3100.934048
 20
8371.068399
 30
0.0
 11
3104.143688
 21
8370.500839
 31
0.0
  0
LINE
  8
1
  6
CONTINUOUS
 62
     4
  5
22E
 10
3100.934048
 20
8374.101919
 30
0.0
 11
3104.143688
 21
8373.534359
 31
0.0
  0
LINE
  8
1
  6
CONTINUOUS
 62
     4
  5
22F
 10
3100.934048
 20
8377.155039
 30
0.0
 11
3104.143688
 21
8376.587409
 31
0.0
  0
LINE
  8
1
  6
CONTINUOUS
 62
     4
  5
230
 10
3104.538908
 20
8356.719309
 30
0.0
 11
3100.538828
 21
8357.423509
 31
0.0
  0
LINE
  8
1
  6
CONTINUOUS
 62
     4
  5
231
 10
3102.538868
 20
8346.584639
 30
0.0
 11
3106.788848
 21
8346.584639
 31
0.0
  0
LINE
  8
1
  6
CONTINUOUS
 62
     4
  5
232
 10
3104.538908
 20
8350.672779
 30
0.0
 11
3100.538828
 21
8351.382019
 31
0.0
  0
LINE
  8
1
  6
CONTINUOUS
 62
     4
  5
233
 10
3104.538908
 20
8353.686629
 30
0.0
 11
3100.538828
 21
8354.395869
 31
0.0
  0
LINE
  8
1
  6
CONTINUOUS
 62
     4
  5
234
 10
3100.934048
 20
8349.794349
 30
0.0
 11
3104.143688
 21
8349.226789
 31
0.0
  0
LINE
  8
1
  6
CONTINUOUS
 62
     4
  5
235
 10
3100.934048
 20
8352.808269
 30
0.0
 11
3104.143688
 21
8352.240709
 31
0.0
  0
LINE
  8
1
  6
CONTINUOUS
 62
     4
  5
236
 10
3100.934048
 20
8355.841859
 30
0.0
 11
3104.143688
 21
8355.274299
 31
0.0
  0
LINE
  8
1
  6
CONTINUOUS
 62
     4
  5
237
 10
3105.141888
 20
8346.584639
 30
0.0
 11
3103.938868
 21
8347.787589
 31
0.0
  0
LINE
  8
1
  6
CONTINUOUS
 62
     4
  5
238
 10
3105.141888
 20
8346.584639
 30
0.0
 11
3106.788848
 21
8346.584639
 31
0.0
  0
LINE
  8
1
  6
CONTINUOUS
 62
     4
  5
239
 10
3099.935848
 20
8346.584639
 30
0.0
 11
3101.138868
 21
8347.787589
 31
0.0
  0
LINE
  8
1
  6
CONTINUOUS
 62
     4
  5
23A
 10
3099.935848
 20
8346.584639
 30
0.0
 11
3098.288888
 21
8346.584639
 31
0.0
  0
LINE
  8
1
  6
CONTINUOUS
 62
     4
  5
23B
 10
3100.934048
 20
8348.267789
 30
0.0
 11
3104.143688
 21
8347.700299
 31
0.0
  0
LINE
  8
1
  6
CONTINUOUS
 62
     4
  5
23C
 10
3103.145628
 20
8343.093599
 30
0.0
 11
3101.932108
 21
8343.093599
 31
0.0
  0
LINE
  8
1
  6
CONTINUOUS
 62
     4
  5
23D
 10
3103.145628
 20
8342.584629
 30
0.0
 11
3103.145628
 21
8343.093599
 31
0.0
  0
LINE
  8
1
  6
CONTINUOUS
 62
     4
  5
23E
 10
3101.932108
 20
8342.584629
 30
0.0
 11
3101.932108
 21
8343.093599
 31
0.0
  0
LINE
  8
1
  6
CONTINUOUS
 62
     4
  5
23F
 10
3103.145628
 20
8342.584629
 30
0.0
 11
3101.932108
 21
8342.584629
 31
0.0
  0
LINE
  8
1
  6
CONTINUOUS
 62
     4
  5
240
 10
3104.538908
 20
8378.052929
 30
0.0
 11
3100.538828
 21
8378.762169
 31
0.0
  0
LINE
  8
1
  6
CONTINUOUS
 62
     4
  5
241
 10
3101.147548
 20
8381.707349
 30
0.0
 11
3104.032528
 21
8381.195789
 31
0.0
  0
LINE
  8
1
  6
CONTINUOUS
 62
     4
  5
242
 10
3100.934048
 20
8380.208089
 30
0.0
 11
3104.143688
 21
8379.640529
 31
0.0
  0
LINE
  8
1
  6
CONTINUOUS
 62
     4
  5
243
 10
3101.440428
 20
8383.171609
 30
0.0
 11
3103.717808
 21
8382.768969
 31
0.0
  0
LINE
  8
1
  6
CONTINUOUS
 62
     4
  5
244
 10
3043.917088
 20
8359.770679
 30
0.0
 11
3039.917148
 21
8360.465709
 31
0.0
  0
LINE
  8
1
  6
CONTINUOUS
 62
     4
  5
245
 10
3043.917088
 20
8362.806999
 30
0.0
 11
3039.917148
 21
8363.516239
 31
0.0
  0
LINE
  8
1
  6
CONTINUOUS
 62
     4
  5
246
 10
3043.917088
 20
8365.860119
 30
0.0
 11
3039.917148
 21
8366.569359
 31
0.0
  0
LINE
  8
1
  6
CONTINUOUS
 62
     4
  5
247
 10
3043.917088
 20
8368.913239
 30
0.0
 11
3039.917148
 21
8369.622409
 31
0.0
  0
LINE
  8
1
  6
CONTINUOUS
 62
     4
  5
248
 10
3043.917088
 20
8371.963699
 30
0.0
 11
3039.917148
 21
8372.658659
 31
0.0
  0
LINE
  8
1
  6
CONTINUOUS
 62
     4
  5
249
 10
3043.917088
 20
8374.999809
 30
0.0
 11
3039.917148
 21
8375.709049
 31
0.0
  0
LINE
  8
1
  6
CONTINUOUS
 62
     4
  5
24A
 10
3040.312228
 20
8358.875519
 30
0.0
 11
3043.522008
 21
8358.307889
 31
0.0
  0
LINE
  8
1
  6
CONTINUOUS
 62
     4
  5
24B
 10
3040.312228
 20
8361.908969
 30
0.0
 11
3043.522008
 21
8361.341409
 31
0.0
  0
LINE
  8
1
  6
CONTINUOUS
 62
     4
  5
24C
 10
3040.312228
 20
8364.962089
 30
0.0
 11
3043.522008
 21
8364.394529
 31
0.0
  0
LINE
  8
1
  6
CONTINUOUS
 62
     4
  5
24D
 10
3040.312228
 20
8368.015209
 30
0.0
 11
3043.522008
 21
8367.447719
 31
0.0
  0
LINE
  8
1
  6
CONTINUOUS
 62
     4
  5
24E
 10
3040.312228
 20
8371.068399
 30
0.0
 11
3043.522008
 21
8370.500839
 31
0.0
  0
LINE
  8
1
  6
CONTINUOUS
 62
     4
  5
24F
 10
3040.312228
 20
8374.101919
 30
0.0
 11
3043.522008
 21
8373.534359
 31
0.0
  0
LINE
  8
1
  6
CONTINUOUS
 62
     4
  5
250
 10
3040.312228
 20
8377.155039
 30
0.0
 11
3043.522008
 21
8376.587409
 31
0.0
  0
LINE
  8
1
  6
CONTINUOUS
 62
     4
  5
251
 10
3043.917088
 20
8356.719309
 30
0.0
 11
3039.917148
 21
8357.423509
 31
0.0
  0
LINE
  8
1
  6
CONTINUOUS
 62
     4
  5
252
 10
3041.917048
 20
8346.584639
 30
0.0
 11
3046.167168
 21
8346.584639
 31
0.0
  0
LINE
  8
1
  6
CONTINUOUS
 62
     4
  5
253
 10
3043.917088
 20
8350.672779
 30
0.0
 11
3039.917148
 21
8351.382019
 31
0.0
  0
LINE
  8
1
  6
CONTINUOUS
 62
     4
  5
254
 10
3043.917088
 20
8353.686629
 30
0.0
 11
3039.917148
 21
8354.395869
 31
0.0
  0
LINE
  8
1
  6
CONTINUOUS
 62
     4
  5
255
 10
3040.312228
 20
8349.794349
 30
0.0
 11
3043.522008
 21
8349.226789
 31
0.0
  0
LINE
  8
1
  6
CONTINUOUS
 62
     4
  5
256
 10
3040.312228
 20
8352.808269
 30
0.0
 11
3043.522008
 21
8352.240709
 31
0.0
  0
LINE
  8
1
  6
CONTINUOUS
 62
     4
  5
257
 10
3040.312228
 20
8355.841859
 30
0.0
 11
3043.522008
 21
8355.274299
 31
0.0
  0
LINE
  8
1
  6
CONTINUOUS
 62
     4
  5
258
 10
3044.520068
 20
8346.584639
 30
0.0
 11
3043.317048
 21
8347.787589
 31
0.0
  0
LINE
  8
1
  6
CONTINUOUS
 62
     4
  5
259
 10
3044.520068
 20
8346.584639
 30
0.0
 11
3046.167168
 21
8346.584639
 31
0.0
  0
LINE
  8
1
  6
CONTINUOUS
 62
     4
  5
25A
 10
3039.314168
 20
8346.584639
 30
0.0
 11
3040.517048
 21
8347.787589
 31
0.0
  0
LINE
  8
1
  6
CONTINUOUS
 62
     4
  5
25B
 10
3039.314168
 20
8346.584639
 30
0.0
 11
3037.667068
 21
8346.584639
 31
0.0
  0
LINE
  8
1
  6
CONTINUOUS
 62
     4
  5
25C
 10
3040.312228
 20
8348.267789
 30
0.0
 11
3043.522008
 21
8347.700299
 31
0.0
  0
LINE
  8
1
  6
CONTINUOUS
 62
     4
  5
25D
 10
3042.523808
 20
8343.093599
 30
0.0
 11
3041.310428
 21
8343.093599
 31
0.0
  0
LINE
  8
1
  6
CONTINUOUS
 62
     4
  5
25E
 10
3042.523808
 20
8342.584629
 30
0.0
 11
3042.523808
 21
8343.093599
 31
0.0
  0
LINE
  8
1
  6
CONTINUOUS
 62
     4
  5
25F
 10
3041.310428
 20
8342.584629
 30
0.0
 11
3041.310428
 21
8343.093599
 31
0.0
  0
LINE
  8
1
  6
CONTINUOUS
 62
     4
  5
260
 10
3042.523808
 20
8342.584629
 30
0.0
 11
3041.310428
 21
8342.584629
 31
0.0
  0
LINE
  8
1
  6
CONTINUOUS
 62
     4
  5
261
 10
3043.917088
 20
8378.052929
 30
0.0
 11
3039.917148
 21
8378.762169
 31
0.0
  0
LINE
  8
1
  6
CONTINUOUS
 62
     4
  5
262
 10
3040.525868
 20
8381.707349
 30
0.0
 11
3043.410708
 21
8381.195789
 31
0.0
  0
LINE
  8
1
  6
CONTINUOUS
 62
     4
  5
263
 10
3040.312228
 20
8380.208089
 30
0.0
 11
3043.522008
 21
8379.640529
 31
0.0
  0
LINE
  8
1
  6
CONTINUOUS
 62
     4
  5
264
 10
3040.818608
 20
8383.171609
 30
0.0
 11
3043.096128
 21
8382.768969
 31
0.0
  0
LINE
  8
40
  6
CONTINUOUS
 62
     4
  5
265
 10
3027.253028
 20
8352.584619
 30
0.0
 11
3027.253028
 21
8342.069079
 31
0.0
  0
LINE
  8
40
  6
CONTINUOUS
 62
     4
  5
266
 10
3029.753008
 20
8339.952139
 30
0.0
 11
3029.753008
 21
8347.584659
 31
0.0
  0
LINE
  8
40
  6
CONTINUOUS
 62
     4
  5
267
 10
3089.958048
 20
8333.584659
 30
0.0
 11
3054.427028
 21
8333.584659
 31
0.0
  0
LINE
  8
40
  6
CONTINUOUS
 62
     4
  5
268
 10
3086.228028
 20
8332.584639
 30
0.0
 11
3058.228028
 21
8332.584639
 31
0.0
  0
LINE
  8
40
  6
CONTINUOUS
 62
     4
  5
269
 10
3057.643668
 20
8331.584619
 30
0.0
 11
3086.744068
 21
8331.584619
 31
0.0
  0
LINE
  8
40
  6
CONTINUOUS
 62
     4
  5
26A
 10
3058.082008
 20
8330.584529
 30
0.0
 11
3086.347168
 21
8330.584529
 31
0.0
  0
LINE
  8
12
  6
CONTINUOUS
 62
     4
  5
26B
 10
3048.841028
 20
8347.584659
 30
0.0
 11
3027.227968
 21
8347.584659
 31
0.0
  0
LINE
  8
12
  6
CONTINUOUS
 62
     4
  5
26C
 10
3114.727968
 20
8339.976919
 30
0.0
 11
3114.727968
 21
8347.584659
 31
0.0
  0
LINE
  8
12
  6
CONTINUOUS
 62
     4
  5
26D
 10
3093.878608
 20
8334.596439
 30
0.0
 11
3093.878608
 21
8334.566899
 31
0.0
  0
LINE
  8
12
  6
CONTINUOUS
 62
     4
  5
26E
 10
3095.596548
 20
8335.039679
 30
0.0
 11
3095.596548
 21
8347.584659
 31
0.0
  0
LINE
  8
12
  6
CONTINUOUS
 62
     4
  5
26F
 10
3093.884768
 20
8334.691919
 30
0.0
 11
3095.509468
 21
8347.689939
 31
0.0
  0
LINE
  8
12
  6
CONTINUOUS
 62
     4
  5
270
 10
3050.558828
 20
8334.491019
 30
0.0
 11
3050.558828
 21
8334.461549
 31
0.0
  0
LINE
  8
12
  6
CONTINUOUS
 62
     4
  5
271
 10
3048.841028
 20
8334.934329
 30
0.0
 11
3048.841028
 21
8347.479379
 31
0.0
  0
LINE
  8
12
  6
CONTINUOUS
 62
     4
  5
272
 10
3050.552668
 20
8334.586639
 30
0.0
 11
3048.927968
 21
8347.584659
 31
0.0
  0
LINE
  8
12
  6
CONTINUOUS
 62
     4
  5
273
 10
3095.496308
 20
8347.584659
 30
0.0
 11
3114.727968
 21
8347.584659
 31
0.0
  0
LINE
  8
12
  6
CONTINUOUS
 62
     4
  5
274
 10
3095.496308
 20
8346.584639
 30
0.0
 11
3114.727968
 21
8346.584639
 31
0.0
  0
LINE
  8
12
  6
CONTINUOUS
 62
     4
  5
275
 10
3048.841028
 20
8346.584639
 30
0.0
 11
3027.227968
 21
8346.584639
 31
0.0
  0
LINE
  8
12
  6
CONTINUOUS
 62
     4
  5
276
 10
3098.288888
 20
8346.584639
 30
0.0
 11
3106.788848
 21
8346.584639
 31
0.0
  0
LINE
  8
12
  6
CONTINUOUS
 62
     4
  5
277
 10
3106.788848
 20
8346.584639
 30
0.0
 11
3106.788848
 21
8343.584649
 31
0.0
  0
LINE
  8
12
  6
CONTINUOUS
 62
     4
  5
278
 10
3098.288888
 20
8346.584639
 30
0.0
 11
3098.288888
 21
8343.584649
 31
0.0
  0
LINE
  8
12
  6
CONTINUOUS
 62
     4
  5
279
 10
3098.288888
 20
8343.584649
 30
0.0
 11
3098.288888
 21
8346.584639
 31
0.0
  0
LINE
  8
12
  6
CONTINUOUS
 62
     4
  5
27A
 10
3106.788848
 20
8343.584649
 30
0.0
 11
3106.788848
 21
8346.584639
 31
0.0
  0
LINE
  8
12
  6
CONTINUOUS
 62
     4
  5
27B
 10
3106.788848
 20
8343.584649
 30
0.0
 11
3098.288888
 21
8343.584649
 31
0.0
  0
ARC
  8
12
  6
CONTINUOUS
 62
     4
  5
27C
 10
3102.538868
 20
8352.115899
 30
0.0
 40
9.53134
 50
243.51896
 51
296.48104
  0
LINE
  8
12
  6
CONTINUOUS
 62
     4
  5
27D
 10
3101.138868
 20
8346.584639
 30
0.0
 11
3101.138868
 21
8377.584629
 31
0.0
  0
LINE
  8
12
  6
CONTINUOUS
 62
     4
  5
27E
 10
3103.938868
 20
8346.584639
 30
0.0
 11
3103.938868
 21
8377.584629
 31
0.0
  0
LINE
  8
12
  6
CONTINUOUS
 62
     4
  5
27F
 10
3101.138868
 20
8377.584629
 30
0.0
 11
3103.938868
 21
8377.584629
 31
0.0
  0
LINE
  8
12
  6
CONTINUOUS
 62
     4
  5
280
 10
3102.538868
 20
8384.584629
 30
0.0
 11
3103.938868
 21
8377.584629
 31
0.0
  0
LINE
  8
12
  6
CONTINUOUS
 62
     4
  5
281
 10
3102.538868
 20
8384.584629
 30
0.0
 11
3101.138868
 21
8377.584629
 31
0.0
  0
LINE
  8
12
  6
CENTER
 62
     4
  5
282
 10
3102.538868
 20
8343.584649
 30
0.0
 11
3102.538868
 21
8384.584629
 31
0.0
  0
LINE
  8
12
  6
CENTER
 62
     4
  5
283
 10
3102.538868
 20
8384.584629
 30
0.0
 11
3102.538868
 21
8345.077609
 31
0.0
  0
LINE
  8
12
  6
CONTINUOUS
 62
     4
  5
284
 10
3037.667068
 20
8346.584639
 30
0.0
 11
3046.167168
 21
8346.584639
 31
0.0
  0
LINE
  8
12
  6
CONTINUOUS
 62
     4
  5
285
 10
3046.167168
 20
8346.584639
 30
0.0
 11
3046.167168
 21
8343.584649
 31
0.0
  0
LINE
  8
12
  6
CONTINUOUS
 62
     4
  5
286
 10
3037.667068
 20
8346.584639
 30
0.0
 11
3037.667068
 21
8343.584649
 31
0.0
  0
LINE
  8
12
  6
CONTINUOUS
 62
     4
  5
287
 10
3037.667068
 20
8343.584649
 30
0.0
 11
3037.667068
 21
8346.584639
 31
0.0
  0
LINE
  8
12
  6
CONTINUOUS
 62
     4
  5
288
 10
3046.167168
 20
8343.584649
 30
0.0
 11
3046.167168
 21
8346.584639
 31
0.0
  0
LINE
  8
12
  6
CONTINUOUS
 62
     4
  5
289
 10
3046.167168
 20
8343.584649
 30
0.0
 11
3037.667068
 21
8343.584649
 31
0.0
  0
ARC
  8
12
  6
CONTINUOUS
 62
     4
  5
28A
 10
3041.917048
 20
8352.115899
 30
0.0
 40
9.53134
 50
243.51896
 51
296.48104
  0
LINE
  8
12
  6
CONTINUOUS
 62
     4
  5
28B
 10
3040.517048
 20
8346.584639
 30
0.0
 11
3040.517048
 21
8377.584629
 31
0.0
  0
LINE
  8
12
  6
CONTINUOUS
 62
     4
  5
28C
 10
3043.317048
 20
8346.584639
 30
0.0
 11
3043.317048
 21
8377.584629
 31
0.0
  0
LINE
  8
12
  6
CONTINUOUS
 62
     4
  5
28D
 10
3040.517048
 20
8377.584629
 30
0.0
 11
3043.317048
 21
8377.584629
 31
0.0
  0
LINE
  8
12
  6
CONTINUOUS
 62
     4
  5
28E
 10
3041.917048
 20
8384.584629
 30
0.0
 11
3043.317048
 21
8377.584629
 31
0.0
  0
LINE
  8
12
  6
CONTINUOUS
 62
     4
  5
28F
 10
3041.917048
 20
8384.584629
 30
0.0
 11
3040.517048
 21
8377.584629
 31
0.0
  0
LINE
  8
12
  6
CENTER
 62
     4
  5
290
 10
3041.917048
 20
8343.584649
 30
0.0
 11
3041.917048
 21
8384.584629
 31
0.0
  0
LINE
  8
12
  6
CENTER
 62
     4
  5
291
 10
3041.917048
 20
8384.584629
 30
0.0
 11
3041.917048
 21
8345.077609
 31
0.0
  0
LINE
  8
12
  6
CONTINUOUS
 62
     4
  5
292
 10
3096.830368
 20
8346.831879
 30
0.0
 11
3108.330388
 21
8346.831879
 31
0.0
  0
LINE
  8
12
  6
CONTINUOUS
 62
     4
  5
293
 10
3096.830368
 20
8347.631769
 30
0.0
 11
3108.330388
 21
8347.631769
 31
0.0
  0
LINE
  8
12
  6
CONTINUOUS
 62
     4
  5
294
 10
3096.830368
 20
8346.831879
 30
0.0
 11
3096.830368
 21
8347.631769
 31
0.0
  0
LINE
  8
12
  6
CONTINUOUS
 62
     4
  5
295
 10
3099.830288
 20
8346.831879
 30
0.0
 11
3099.830288
 21
8347.631769
 31
0.0
  0
LINE
  8
12
  6
CONTINUOUS
 62
     4
  5
296
 10
3105.330328
 20
8346.831879
 30
0.0
 11
3105.330328
 21
8347.631769
 31
0.0
  0
LINE
  8
12
  6
CONTINUOUS
 62
     4
  5
297
 10
3108.330388
 20
8346.831879
 30
0.0
 11
3108.330388
 21
8347.631769
 31
0.0
  0
LINE
  8
12
  6
CONTINUOUS
 62
     4
  5
298
 10
3036.212188
 20
8346.831879
 30
0.0
 11
3047.712208
 21
8346.831879
 31
0.0
  0
LINE
  8
12
  6
CONTINUOUS
 62
     4
  5
299
 10
3036.212188
 20
8347.631769
 30
0.0
 11
3047.712208
 21
8347.631769
 31
0.0
  0
LINE
  8
12
  6
CONTINUOUS
 62
     4
  5
29A
 10
3036.212188
 20
8346.831879
 30
0.0
 11
3036.212188
 21
8347.631769
 31
0.0
  0
LINE
  8
12
  6
CONTINUOUS
 62
     4
  5
29B
 10
3039.212248
 20
8346.831879
 30
0.0
 11
3039.212248
 21
8347.631769
 31
0.0
  0
LINE
  8
12
  6
CONTINUOUS
 62
     4
  5
29C
 10
3044.712288
 20
8346.831879
 30
0.0
 11
3044.712288
 21
8347.631769
 31
0.0
  0
LINE
  8
12
  6
CONTINUOUS
 62
     4
  5
29D
 10
3047.712208
 20
8346.831879
 30
0.0
 11
3047.712208
 21
8347.631769
 31
0.0
  0
LINE
  8
8
  6
CONTINUOUS
 62
     4
  5
29E
 10
3055.227548
 20
8333.378019
 30
0.0
 11
3028.731988
 21
8340.215549
 31
0.0
  0
LINE
  8
8
  6
CONTINUOUS
 62
     4
  5
29F
 10
3089.039788
 20
8333.347569
 30
0.0
 11
3115.770828
 21
8340.245929
 31
0.0
  0
ARC
  8
8
  6
CONTINUOUS
 62
     4
  5
2A0
 10
3090.195768
 20
8329.548669
 30
0.0
 40
4.00008
 50
104.470294
 51
180.0
  0
LINE
  8
50
  6
CENTER
 62
     4
  5
2A1
 10
3102.580308
 20
8346.831879
 30
0.0
 11
3102.580308
 21
8348.953859
 31
0.0
  0
LINE
  8
50
  6
CENTER
 62
     4
  5
2A2
 10
3041.962268
 20
8346.831879
 30
0.0
 11
3041.962268
 21
8348.953859
 31
0.0
  0
ARC
  8
8
  6
CONTINUOUS
 62
     4
  5
2A3
 10
3054.233548
 20
8329.497779
 30
0.0
 40
4.00008
 50
360.0
 51
75.529706
  0
LINE
  8
40
  6
DOT
 62
     3
  5
2A4
 10
3495.494615
 20
8296.584409
 30
0.0
 11
3510.494635
 21
8296.584409
 31
0.0
  0
LINE
  8
40
  6
DOT
 62
     3
  5
2A5
 10
3495.494615
 20
8296.584409
 30
0.0
 11
3495.494615
 21
8302.584529
 31
0.0
  0
LINE
  8
40
  6
DOT
 62
     3
  5
2A6
 10
3510.494635
 20
8296.584409
 30
0.0
 11
3510.494635
 21
8302.584529
 31
0.0
  0
LINE
  8
40
  6
CONTINUOUS
 62
     4
  5
2A7
 10
3516.994555
 20
8302.584389
 30
0.0
 11
3516.994555
 21
8325.168722
 31
0.0
  0
LINE
  8
40
  6
CONTINUOUS
 62
     4
  5
2A8
 10
3488.994555
 20
8302.584389
 30
0.0
 11
3488.994555
 21
8325.168722
 31
0.0
  0
LINE
  8
40
  6
CONTINUOUS
 62
     4
  5
2A9
 10
3516.994555
 20
8302.584529
 30
0.0
 11
3488.994555
 21
8302.584529
 31
0.0
  0
LINE
  8
40
  6
CONTINUOUS
 62
     4
  5
2AA
 10
3086.228028
 20
8302.584389
 30
0.0
 11
3086.228028
 21
8325.168722
 31
0.0
  0
LINE
  8
7
  6
CONTINUOUS
 62
     4
  5
2AB
 10
3058.228028
 20
8332.634599
 30
0.0
 11
3058.228028
 21
8302.584389
 31
0.0
  0
LINE
  8
40
  6
CONTINUOUS
 62
     4
  5
2AC
 10
3058.228028
 20
8302.584389
 30
0.0
 11
3058.228028
 21
8325.168722
 31
0.0
  0
LINE
  8
40
  6
CONTINUOUS
 62
     4
  5
2AD
 10
3058.228028
 20
8302.584529
 30
0.0
 11
3086.228028
 21
8302.584529
 31
0.0
  0
LINE
  8
7
  6
CONTINUOUS
 62
     4
  5
2AE
 10
3527.011292
 20
8287.559285
 30
0.0
 11
3527.011292
 21
8302.584389
 31
0.0
  0
LINE
  8
7
  6
CONTINUOUS
 62
     4
  5
2AF
 10
3048.211292
 20
8302.584389
 30
0.0
 11
3527.011292
 21
8302.584389
 31
0.0
  0
ARC
  8
7
  6
CONTINUOUS
 62
     4
  5
2B0
 10
3516.994555
 20
8287.559285
 30
0.0
 40
10.016736
 50
270.0
 51
360.0
  0
LINE
  8
40
  6
DOT
 62
     3
  5
2B1
 10
3079.727968
 20
8296.584409
 30
0.0
 11
3064.727948
 21
8296.584409
 31
0.0
  0
LINE
  8
40
  6
DOT
 62
     3
  5
2B2
 10
3079.727968
 20
8296.584409
 30
0.0
 11
3079.727968
 21
8302.584529
 31
0.0
  0
LINE
  8
40
  6
DOT
 62
     3
  5
2B3
 10
3064.727948
 20
8296.584409
 30
0.0
 11
3064.727948
 21
8302.584529
 31
0.0
  0
LINE
  8
7
  6
CONTINUOUS
 62
     4
  5
2B4
 10
3058.228028
 20
8277.542548
 30
0.0
 11
3516.994555
 21
8277.542548
 31
0.0
  0
ARC
  8
7
  6
CONTINUOUS
 62
     4
  5
2B5
 10
3058.228028
 20
8287.559285
 30
0.0
 40
10.016736
 50
180.0
 51
270.0
  0
LINE
  8
7
  6
CONTINUOUS
 62
     4
  5
2B6
 10
3048.211292
 20
8287.559285
 30
0.0
 11
3048.211292
 21
8302.584389
 31
0.0
  0
LINE
  8
3
  6
CONTINUOUS
 62
     3
  5
2B7
 10
2959.959731
 20
1048.012829
 30
0.0
 11
2959.559731
 21
1072.812829
 31
0.0
  0
LINE
  8
5
  6
CONTINUOUS
 62
     3
  5
2B8
 10
3736.251292
 20
1048.165974
 30
0.0
 11
3541.651292
 21
1048.165974
 31
0.0
  0
CIRCLE
  8
5
  6
CONTINUOUS
 62
     3
  5
2B9
 10
3736.251292
 20
1048.165974
 30
0.0
 40
7.5
  0
CIRCLE
  8
5
  6
CONTINUOUS
 62
     3
  5
2BA
 10
3636.251292
 20
1048.165974
 30
0.0
 40
7.5
  0
LINE
  8
5
  6
CONTINUOUS
 62
     3
  5
2BB
 10
2386.251292
 20
2343.165981
 30
0.0
 11
2386.251292
 21
2143.165981
 31
0.0
  0
CIRCLE
  8
5
  6
CONTINUOUS
 62
     3
  5
2BC
 10
2386.251292
 20
2343.165981
 30
0.0
 40
7.5
  0
CIRCLE
  8
5
  6
CONTINUOUS
 62
     3
  5
2BD
 10
2386.251292
 20
2243.165981
 30
0.0
 40
7.5
  0
CIRCLE
  8
5
  6
CONTINUOUS
 62
     3
  5
2BE
 10
3506.251292
 20
2343.165981
 30
0.0
 40
7.5
  0
CIRCLE
  8
5
  6
CONTINUOUS
 62
     3
  5
2BF
 10
3056.251292
 20
2243.165981
 30
0.0
 40
7.5
  0
CIRCLE
  8
5
  6
CONTINUOUS
 62
     3
  5
2C0
 10
3506.251292
 20
2243.165981
 30
0.0
 40
7.5
  0
LINE
  8
5
  6
CONTINUOUS
 62
     3
  5
2C1
 10
2386.251292
 20
2243.165981
 30
0.0
 11
3056.251292
 21
2243.165981
 31
0.0
  0
LINE
  8
5
  6
CONTINUOUS
 62
     3
  5
2C2
 10
3056.251292
 20
2243.165981
 30
0.0
 11
3056.251292
 21
2143.165981
 31
0.0
  0
LINE
  8
5
  6
CONTINUOUS
 62
     3
  5
2C3
 10
3056.251292
 20
2243.165981
 30
0.0
 11
3506.251292
 21
2243.165981
 31
0.0
  0
LINE
  8
5
  6
CONTINUOUS
 62
     3
  5
2C4
 10
3506.251292
 20
2343.165981
 30
0.0
 11
3506.251292
 21
2143.165981
 31
0.0
  0
LINE
  8
5
  6
CONTINUOUS
 62
     3
  5
2C5
 10
3506.251292
 20
2343.165981
 30
0.0
 11
2386.251292
 21
2343.165981
 31
0.0
  0
LINE
  8
5
  6
CENTER
 62
     3
  5
2C6
 10
3056.251292
 20
1513.165981
 30
0.0
 11
3056.251292
 21
2113.165981
 31
0.0
  0
LINE
  8
5
  6
CENTER
 62
     3
  5
2C7
 10
3506.251292
 20
1513.165981
 30
0.0
 11
3056.251292
 21
1513.165981
 31
0.0
  0
LINE
  8
5
  6
CENTER
 62
     3
  5
2C8
 10
3506.251292
 20
1513.165981
 30
0.0
 11
3506.251292
 21
2113.165981
 31
0.0
  0
LINE
  8
5
  6
CENTER
 62
     3
  5
2C9
 10
3506.251292
 20
2113.165981
 30
0.0
 11
3056.251292
 21
2113.165981
 31
0.0
  0
LINE
  8
5
  6
CENTER
 62
     3
  5
2CA
 10
3506.251292
 20
1963.165981
 30
0.0
 11
3056.251292
 21
1963.165981
 31
0.0
  0
LINE
  8
5
  6
CENTER
 62
     3
  5
2CB
 10
3506.251292
 20
1813.165981
 30
0.0
 11
3056.251292
 21
1813.165981
 31
0.0
  0
LINE
  8
5
  6
CENTER
 62
     3
  5
2CC
 10
3506.251292
 20
1663.165981
 30
0.0
 11
3056.251292
 21
1663.165981
 31
0.0
  0
LINE
  8
5
  6
CENTER
 62
     3
  5
2CD
 10
3206.251292
 20
1513.165981
 30
0.0
 11
3206.251292
 21
2113.165981
 31
0.0
  0
LINE
  8
5
  6
CENTER
 62
     3
  5
2CE
 10
3356.251292
 20
1513.165981
 30
0.0
 11
3356.251292
 21
2113.165981
 31
0.0
  0
CIRCLE
  8
5
  6
CONTINUOUS
 62
     3
  5
2CF
 10
3736.251292
 20
2113.165981
 30
0.0
 40
7.5
  0
CIRCLE
  8
5
  6
CONTINUOUS
 62
     3
  5
2D0
 10
3636.251292
 20
1513.165981
 30
0.0
 40
7.5
  0
CIRCLE
  8
5
  6
CONTINUOUS
 62
     3
  5
2D1
 10
3636.251292
 20
2113.165981
 30
0.0
 40
7.5
  0
LINE
  8
5
  6
CONTINUOUS
 62
     3
  5
2D2
 10
3636.251292
 20
1513.165981
 30
0.0
 11
3636.251292
 21
2113.165981
 31
0.0
  0
LINE
  8
80
  6
CONTINUOUS
 62
     4
  5
2D3
 10
3475.651298
 20
2127.565982
 30
0.0
 11
3086.851293
 21
2127.565982
 31
0.0
  0
LINE
  8
80
  6
CONTINUOUS
 62
     4
  5
2D4
 10
3388.651297
 20
2098.765981
 30
0.0
 11
3473.851298
 21
2098.765981
 31
0.0
  0
LINE
  8
80
  6
CONTINUOUS
 62
     4
  5
2D5
 10
3173.851294
 20
2098.765981
 30
0.0
 11
3088.651293
 21
2098.765981
 31
0.0
  0
LINE
  8
80
  6
CONTINUOUS
 62
     4
  5
2D6
 10
3323.851296
 20
2098.765981
 30
0.0
 11
3238.651295
 21
2098.765981
 31
0.0
  0
ARC
  8
80
  6
CONTINUOUS
 62
     4
  5
2D7
 10
3238.651295
 20
2080.765981
 30
0.0
 40
18.0
 50
90.0
 51
180.0
  0
ARC
  8
80
  6
CONTINUOUS
 62
     4
  5
2D8
 10
3323.851296
 20
2080.765981
 30
0.0
 40
18.0
 50
0.0
 51
90.0
  0
ARC
  8
80
  6
CONTINUOUS
 62
     4
  5
2D9
 10
3388.651297
 20
2080.765981
 30
0.0
 40
18.0
 50
90.0
 51
180.0
  0
ARC
  8
80
  6
CONTINUOUS
 62
     4
  5
2DA
 10
3173.851294
 20
2080.765981
 30
0.0
 40
18.0
 50
0.0
 51
90.0
  0
ARC
  8
80
  6
CONTINUOUS
 62
     4
  5
2DB
 10
3475.651298
 20
2082.565981
 30
0.0
 40
45.000001
 50
0.0
 51
90.0
  0
ARC
  8
80
  6
CONTINUOUS
 62
     4
  5
2DC
 10
3473.851298
 20
2080.765981
 30
0.0
 40
18.0
 50
0.0
 51
90.0
  0
ARC
  8
80
  6
CONTINUOUS
 62
     4
  5
2DD
 10
3086.851293
 20
2082.565981
 30
0.0
 40
45.000001
 50
90.0
 51
180.0
  0
ARC
  8
80
  6
CONTINUOUS
 62
     4
  5
2DE
 10
3088.651293
 20
2080.765981
 30
0.0
 40
18.0
 50
90.0
 51
180.0
  0
LINE
  8
80
  6
CONTINUOUS
 62
     4
  5
2DF
 10
3323.851296
 20
1948.765979
 30
0.0
 11
3238.651295
 21
1948.765979
 31
0.0
  0
LINE
  8
80
  6
CONTINUOUS
 62
     4
  5
2E0
 10
3323.851296
 20
1977.565979
 30
0.0
 11
3238.651295
 21
1977.565979
 31
0.0
  0
LINE
  8
80
  6
CONTINUOUS
 62
     4
  5
2E1
 10
3173.851294
 20
1948.765979
 30
0.0
 11
3088.651293
 21
1948.765979
 31
0.0
  0
LINE
  8
80
  6
CONTINUOUS
 62
     4
  5
2E2
 10
3173.851294
 20
1977.565979
 30
0.0
 11
3088.651293
 21
1977.565979
 31
0.0
  0
ARC
  8
80
  6
CONTINUOUS
 62
     4
  5
2E3
 10
3480.751298
 20
1932.865979
 30
0.0
 40
7.7
 50
330.0
 51
150.0
  0
ARC
  8
80
  6
CONTINUOUS
 62
     4
  5
2E4
 10
3480.751298
 20
1932.865979
 30
0.0
 40
6.8
 50
330.0
 51
150.0
  0
LINE
  8
80
  6
CONTINUOUS
 62
     4
  5
2E5
 10
3470.651298
 20
1930.565979
 30
0.0
 11
3474.151298
 21
1936.665979
 31
0.0
  0
LINE
  8
80
  6
CONTINUOUS
 62
     4
  5
2E6
 10
3474.951298
 20
1936.165979
 30
0.0
 11
3471.751298
 21
1930.765979
 31
0.0
  0
ARC
  8
80
  6
CONTINUOUS
 62
     4
  5
2E7
 10
3498.251299
 20
1963.165979
 30
0.0
 40
41.800001
 50
230.98
 51
249.37
  0
LINE
  8
80
  6
CONTINUOUS
 62
     4
  5
2E8
 10
3486.651298
 20
1929.465979
 30
0.0
 11
3483.551298
 21
1924.065978
 31
0.0
  0
LINE
  8
80
  6
CONTINUOUS
 62
     4
  5
2E9
 10
3483.951298
 20
1922.965978
 30
0.0
 11
3487.451298
 21
1928.965979
 31
0.0
  0
ARC
  8
80
  6
CONTINUOUS
 62
     4
  5
2EA
 10
3533.251299
 20
1963.165979
 30
0.0
 40
7.7
 50
90.0
 51
270.0
  0
ARC
  8
80
  6
CONTINUOUS
 62
     4
  5
2EB
 10
3533.251299
 20
1963.165979
 30
0.0
 40
6.8
 50
90.0
 51
270.0
  0
LINE
  8
80
  6
CONTINUOUS
 62
     4
  5
2EC
 10
3540.251299
 20
1955.565979
 30
0.0
 11
3533.251299
 21
1955.565979
 31
0.0
  0
LINE
  8
80
  6
CONTINUOUS
 62
     4
  5
2ED
 10
3533.251299
 20
1956.465979
 30
0.0
 11
3539.551299
 21
1956.465979
 31
0.0
  0
ARC
  8
80
  6
CONTINUOUS
 62
     4
  5
2EE
 10
3498.251299
 20
1963.165979
 30
0.0
 40
41.800001
 50
350.98
 51
9.37
  0
LINE
  8
80
  6
CONTINUOUS
 62
     4
  5
2EF
 10
3533.251299
 20
1969.965979
 30
0.0
 11
3539.451299
 21
1969.965979
 31
0.0
  0
LINE
  8
80
  6
CONTINUOUS
 62
     4
  5
2F0
 10
3540.251299
 20
1970.865979
 30
0.0
 11
3533.251299
 21
1970.865979
 31
0.0
  0
ARC
  8
80
  6
CONTINUOUS
 62
     4
  5
2F1
 10
3480.751298
 20
1993.46598
 30
0.0
 40
7.7
 50
210.0
 51
30.0
  0
ARC
  8
80
  6
CONTINUOUS
 62
     4
  5
2F2
 10
3480.751298
 20
1993.46598
 30
0.0
 40
6.8
 50
210.0
 51
30.0
  0
LINE
  8
80
  6
CONTINUOUS
 62
     4
  5
2F3
 10
3483.851298
 20
2003.36598
 30
0.0
 11
3487.351298
 21
1997.26598
 31
0.0
  0
LINE
  8
80
  6
CONTINUOUS
 62
     4
  5
2F4
 10
3486.551298
 20
1996.86598
 30
0.0
 11
3483.451298
 21
2002.26598
 31
0.0
  0
ARC
  8
80
  6
CONTINUOUS
 62
     4
  5
2F5
 10
3498.251299
 20
1963.165979
 30
0.0
 40
41.800001
 50
110.98
 51
129.37
  0
LINE
  8
80
  6
CONTINUOUS
 62
     4
  5
2F6
 10
3474.851298
 20
1990.065979
 30
0.0
 11
3471.751298
 21
1995.46598
 31
0.0
  0
LINE
  8
80
  6
CONTINUOUS
 62
     4
  5
2F7
 10
3470.551298
 20
1995.66598
 30
0.0
 11
3474.051298
 21
1989.665979
 31
0.0
  0
ARC
  8
80
  6
CONTINUOUS
 62
     4
  5
2F8
 10
3081.751292
 20
1993.46598
 30
0.0
 40
7.7
 50
150.0
 51
330.0
  0
ARC
  8
80
  6
CONTINUOUS
 62
     4
  5
2F9
 10
3081.751292
 20
1993.46598
 30
0.0
 40
6.8
 50
150.0
 51
330.0
  0
LINE
  8
80
  6
CONTINUOUS
 62
     4
  5
2FA
 10
3091.851293
 20
1995.76598
 30
0.0
 11
3088.351293
 21
1989.665979
 31
0.0
  0
LINE
  8
80
  6
CONTINUOUS
 62
     4
  5
2FB
 10
3087.551293
 20
1990.165979
 30
0.0
 11
3090.751293
 21
1995.56598
 31
0.0
  0
ARC
  8
80
  6
CONTINUOUS
 62
     4
  5
2FC
 10
3064.251292
 20
1963.165979
 30
0.0
 40
41.800001
 50
50.98
 51
69.37
  0
LINE
  8
80
  6
CONTINUOUS
 62
     4
  5
2FD
 10
3075.851292
 20
1996.86598
 30
0.0
 11
3078.951292
 21
2002.26598
 31
0.0
  0
LINE
  8
80
  6
CONTINUOUS
 62
     4
  5
2FE
 10
3078.551292
 20
2003.36598
 30
0.0
 11
3075.051292
 21
1997.36598
 31
0.0
  0
ARC
  8
80
  6
CONTINUOUS
 62
     4
  5
2FF
 10
3029.251292
 20
1963.165979
 30
0.0
 40
7.7
 50
270.0
 51
90.0
  0
ARC
  8
80
  6
CONTINUOUS
 62
     4
  5
300
 10
3029.251292
 20
1963.165979
 30
0.0
 40
6.8
 50
270.0
 51
90.0
  0
LINE
  8
80
  6
CONTINUOUS
 62
     4
  5
301
 10
3022.251292
 20
1970.765979
 30
0.0
 11
3029.251292
 21
1970.765979
 31
0.0
  0
LINE
  8
80
  6
CONTINUOUS
 62
     4
  5
302
 10
3029.251292
 20
1969.865979
 30
0.0
 11
3022.951292
 21
1969.865979
 31
0.0
  0
ARC
  8
80
  6
CONTINUOUS
 62
     4
  5
303
 10
3064.251292
 20
1963.165979
 30
0.0
 40
41.800001
 50
170.98
 51
189.37
  0
LINE
  8
80
  6
CONTINUOUS
 62
     4
  5
304
 10
3029.251292
 20
1956.365979
 30
0.0
 11
3023.051292
 21
1956.365979
 31
0.0
  0
LINE
  8
80
  6
CONTINUOUS
 62
     4
  5
305
 10
3022.251292
 20
1955.465979
 30
0.0
 11
3029.251292
 21
1955.465979
 31
0.0
  0
ARC
  8
80
  6
CONTINUOUS
 62
     4
  5
306
 10
3081.751292
 20
1932.865979
 30
0.0
 40
7.7
 50
30.0
 51
210.0
  0
ARC
  8
80
  6
CONTINUOUS
 62
     4
  5
307
 10
3081.751292
 20
1932.865979
 30
0.0
 40
6.8
 50
30.0
 51
210.0
  0
LINE
  8
80
  6
CONTINUOUS
 62
     4
  5
308
 10
3078.651292
 20
1922.965978
 30
0.0
 11
3075.151292
 21
1929.065979
 31
0.0
  0
LINE
  8
80
  6
CONTINUOUS
 62
     4
  5
309
 10
3075.951292
 20
1929.465979
 30
0.0
 11
3079.051292
 21
1924.065978
 31
0.0
  0
ARC
  8
80
  6
CONTINUOUS
 62
     4
  5
30A
 10
3064.251292
 20
1963.165979
 30
0.0
 40
41.800001
 50
290.98
 51
309.37
  0
LINE
  8
80
  6
CONTINUOUS
 62
     4
  5
30B
 10
3087.651293
 20
1936.265979
 30
0.0
 11
3090.751293
 21
1930.865979
 31
0.0
  0
LINE
  8
80
  6
CONTINUOUS
 62
     4
  5
30C
 10
3091.951293
 20
1930.665979
 30
0.0
 11
3088.451293
 21
1936.665979
 31
0.0
  0
ARC
  8
80
  6
DIVIDE
 62
     4
  5
30D
 10
3498.251299
 20
1963.165979
 30
0.0
 40
42.700001
 50
301.61
 51
58.39
  0
ARC
  8
80
  6
CONTINUOUS
 62
     4
  5
30E
 10
3498.251299
 20
1963.165979
 30
0.0
 40
45.000001
 50
299.87
 51
60.13
  0
ARC
  8
80
  6
DIVIDE
 62
     4
  5
30F
 10
3498.251299
 20
1963.165979
 30
0.0
 40
42.700001
 50
199.71
 51
261.38
  0
ARC
  8
80
  6
DIVIDE
 62
     4
  5
310
 10
3498.251299
 20
1963.165979
 30
0.0
 40
42.700001
 50
98.62
 51
160.29
  0
ARC
  8
80
  6
CONTINUOUS
 62
     4
  5
311
 10
3498.251299
 20
1963.165979
 30
0.0
 40
45.000001
 50
198.68
 51
261.82
  0
ARC
  8
80
  6
CONTINUOUS
 62
     4
  5
312
 10
3498.251299
 20
1963.165979
 30
0.0
 40
45.000001
 50
98.18
 51
161.32
  0
ARC
  8
80
  6
DIVIDE
 62
     4
  5
313
 10
3064.251292
 20
1963.165979
 30
0.0
 40
42.700001
 50
278.62
 51
340.29
  0
ARC
  8
80
  6
CONTINUOUS
 62
     4
  5
314
 10
3064.251292
 20
1963.165979
 30
0.0
 40
45.000001
 50
278.18
 51
341.32
  0
ARC
  8
80
  6
CONTINUOUS
 62
     4
  5
315
 10
3064.251292
 20
1963.165979
 30
0.0
 40
45.000001
 50
119.87
 51
240.13
  0
ARC
  8
80
  6
CONTINUOUS
 62
     4
  5
316
 10
3064.251292
 20
1963.165979
 30
0.0
 40
45.000001
 50
18.68
 51
81.82
  0
ARC
  8
80
  6
DIVIDE
 62
     4
  5
317
 10
3064.251292
 20
1963.165979
 30
0.0
 40
42.700001
 50
121.61
 51
238.39
  0
ARC
  8
80
  6
DIVIDE
 62
     4
  5
318
 10
3064.251292
 20
1963.165979
 30
0.0
 40
42.700001
 50
19.71
 51
81.38
  0
CIRCLE
  8
80
  6
CONTINUOUS
 62
     4
  5
319
 10
3533.251299
 20
1963.165979
 30
0.0
 40
4.0
  0
CIRCLE
  8
80
  6
CONTINUOUS
 62
     4
  5
31A
 10
3533.251299
 20
1963.165979
 30
0.0
 40
4.4
  0
CIRCLE
  8
80
  6
CONTINUOUS
 62
     4
  5
31B
 10
3480.751298
 20
1932.865979
 30
0.0
 40
4.0
  0
CIRCLE
  8
80
  6
CONTINUOUS
 62
     4
  5
31C
 10
3480.751298
 20
1932.865979
 30
0.0
 40
4.4
  0
CIRCLE
  8
80
  6
CONTINUOUS
 62
     4
  5
31D
 10
3480.751298
 20
1993.46598
 30
0.0
 40
4.0
  0
CIRCLE
  8
80
  6
CONTINUOUS
 62
     4
  5
31E
 10
3480.751298
 20
1993.46598
 30
0.0
 40
4.4
  0
CIRCLE
  8
80
  6
CONTINUOUS
 62
     4
  5
31F
 10
3081.751292
 20
1932.865979
 30
0.0
 40
4.4
  0
CIRCLE
  8
80
  6
CONTINUOUS
 62
     4
  5
320
 10
3081.751292
 20
1932.865979
 30
0.0
 40
4.0
  0
CIRCLE
  8
80
  6
CONTINUOUS
 62
     4
  5
321
 10
3081.751292
 20
1993.46598
 30
0.0
 40
4.0
  0
CIRCLE
  8
80
  6
CONTINUOUS
 62
     4
  5
322
 10
3081.751292
 20
1993.46598
 30
0.0
 40
4.4
  0
CIRCLE
  8
80
  6
CONTINUOUS
 62
     4
  5
323
 10
3029.251292
 20
1963.165979
 30
0.0
 40
4.0
  0
CIRCLE
  8
80
  6
CONTINUOUS
 62
     4
  5
324
 10
3029.251292
 20
1963.165979
 30
0.0
 40
4.4
  0
ARC
  8
80
  6
CONTINUOUS
 62
     4
  5
325
 10
3238.651295
 20
1930.765979
 30
0.0
 40
18.0
 50
90.0
 51
180.0
  0
ARC
  8
80
  6
CONTINUOUS
 62
     4
  5
326
 10
3323.851296
 20
1995.56598
 30
0.0
 40
18.0
 50
270.0
 51
0.0
  0
ARC
  8
80
  6
CONTINUOUS
 62
     4
  5
327
 10
3323.851296
 20
1930.765979
 30
0.0
 40
18.0
 50
0.0
 51
90.0
  0
ARC
  8
80
  6
CONTINUOUS
 62
     4
  5
328
 10
3238.651295
 20
1995.56598
 30
0.0
 40
18.0
 50
180.0
 51
270.0
  0
ARC
  8
80
  6
CONTINUOUS
 62
     4
  5
329
 10
3388.651297
 20
1995.56598
 30
0.0
 40
18.0
 50
180.0
 51
270.0
  0
ARC
  8
80
  6
CONTINUOUS
 62
     4
  5
32A
 10
3388.651297
 20
1930.765979
 30
0.0
 40
18.0
 50
90.0
 51
180.0
  0
ARC
  8
80
  6
CONTINUOUS
 62
     4
  5
32B
 10
3173.851294
 20
1995.56598
 30
0.0
 40
18.0
 50
270.0
 51
0.0
  0
ARC
  8
80
  6
CONTINUOUS
 62
     4
  5
32C
 10
3173.851294
 20
1930.765979
 30
0.0
 40
18.0
 50
0.0
 51
90.0
  0
ARC
  8
80
  6
CONTINUOUS
 62
     4
  5
32D
 10
3473.851298
 20
1930.765979
 30
0.0
 40
18.0
 50
0.0
 51
90.0
  0
ARC
  8
80
  6
CONTINUOUS
 62
     4
  5
32E
 10
3473.851298
 20
1995.56598
 30
0.0
 40
18.0
 50
270.0
 51
0.0
  0
ARC
  8
80
  6
CONTINUOUS
 62
     4
  5
32F
 10
3088.651293
 20
1995.56598
 30
0.0
 40
18.0
 50
180.0
 51
270.0
  0
ARC
  8
80
  6
CONTINUOUS
 62
     4
  5
330
 10
3088.651293
 20
1930.765979
 30
0.0
 40
18.0
 50
90.0
 51
180.0
  0
ARC
  8
80
  6
CONTINUOUS
 62
     4
  5
331
 10
3480.751298
 20
1632.865974
 30
0.0
 40
7.7
 50
330.0
 51
150.0
  0
ARC
  8
80
  6
CONTINUOUS
 62
     4
  5
332
 10
3480.751298
 20
1632.865974
 30
0.0
 40
6.8
 50
330.0
 51
150.0
  0
LINE
  8
80
  6
CONTINUOUS
 62
     4
  5
333
 10
3470.651298
 20
1630.565974
 30
0.0
 11
3474.151298
 21
1636.665974
 31
0.0
  0
LINE
  8
80
  6
CONTINUOUS
 62
     4
  5
334
 10
3474.951298
 20
1636.165974
 30
0.0
 11
3471.751298
 21
1630.765974
 31
0.0
  0
ARC
  8
80
  6
CONTINUOUS
 62
     4
  5
335
 10
3498.251299
 20
1663.165975
 30
0.0
 40
41.800001
 50
230.98
 51
249.37
  0
LINE
  8
80
  6
CONTINUOUS
 62
     4
  5
336
 10
3486.651298
 20
1629.465974
 30
0.0
 11
3483.551298
 21
1624.065974
 31
0.0
  0
LINE
  8
80
  6
CONTINUOUS
 62
     4
  5
337
 10
3483.951298
 20
1622.965974
 30
0.0
 11
3487.451298
 21
1628.965974
 31
0.0
  0
ARC
  8
80
  6
CONTINUOUS
 62
     4
  5
338
 10
3533.251299
 20
1663.165975
 30
0.0
 40
7.7
 50
90.0
 51
270.0
  0
ARC
  8
80
  6
CONTINUOUS
 62
     4
  5
339
 10
3533.251299
 20
1663.165975
 30
0.0
 40
6.8
 50
90.0
 51
270.0
  0
LINE
  8
80
  6
CONTINUOUS
 62
     4
  5
33A
 10
3540.251299
 20
1655.565974
 30
0.0
 11
3533.251299
 21
1655.565974
 31
0.0
  0
LINE
  8
80
  6
CONTINUOUS
 62
     4
  5
33B
 10
3533.251299
 20
1656.465975
 30
0.0
 11
3539.551299
 21
1656.465975
 31
0.0
  0
ARC
  8
80
  6
CONTINUOUS
 62
     4
  5
33C
 10
3498.251299
 20
1663.165975
 30
0.0
 40
41.800001
 50
350.98
 51
9.37
  0
LINE
  8
80
  6
CONTINUOUS
 62
     4
  5
33D
 10
3533.251299
 20
1669.965975
 30
0.0
 11
3539.451299
 21
1669.965975
 31
0.0
  0
LINE
  8
80
  6
CONTINUOUS
 62
     4
  5
33E
 10
3540.251299
 20
1670.865975
 30
0.0
 11
3533.251299
 21
1670.865975
 31
0.0
  0
ARC
  8
80
  6
CONTINUOUS
 62
     4
  5
33F
 10
3480.751298
 20
1693.465975
 30
0.0
 40
7.7
 50
210.0
 51
30.0
  0
ARC
  8
80
  6
CONTINUOUS
 62
     4
  5
340
 10
3480.751298
 20
1693.465975
 30
0.0
 40
6.8
 50
210.0
 51
30.0
  0
ARC
  8
80
  6
CONTINUOUS
 62
     4
  5
341
 10
3498.251299
 20
1663.165975
 30
0.0
 40
41.800001
 50
110.98
 51
129.37
  0
LINE
  8
80
  6
CONTINUOUS
 62
     4
  5
342
 10
3474.851298
 20
1690.065975
 30
0.0
 11
3471.751298
 21
1695.465975
 31
0.0
  0
LINE
  8
80
  6
CONTINUOUS
 62
     4
  5
343
 10
3470.551298
 20
1695.665975
 30
0.0
 11
3474.051298
 21
1689.665975
 31
0.0
  0
ARC
  8
80
  6
CONTINUOUS
 62
     4
  5
344
 10
3081.751292
 20
1693.465975
 30
0.0
 40
7.7
 50
150.0
 51
330.0
  0
ARC
  8
80
  6
CONTINUOUS
 62
     4
  5
345
 10
3081.751292
 20
1693.465975
 30
0.0
 40
6.8
 50
150.0
 51
330.0
  0
LINE
  8
80
  6
CONTINUOUS
 62
     4
  5
346
 10
3091.851293
 20
1695.765975
 30
0.0
 11
3088.351293
 21
1689.665975
 31
0.0
  0
LINE
  8
80
  6
CONTINUOUS
 62
     4
  5
347
 10
3087.551293
 20
1690.165975
 30
0.0
 11
3090.751293
 21
1695.565975
 31
0.0
  0
ARC
  8
80
  6
CONTINUOUS
 62
     4
  5
348
 10
3064.251292
 20
1663.165975
 30
0.0
 40
41.800001
 50
50.98
 51
69.37
  0
LINE
  8
80
  6
CONTINUOUS
 62
     4
  5
349
 10
3075.851292
 20
1696.865975
 30
0.0
 11
3078.951292
 21
1702.265975
 31
0.0
  0
LINE
  8
80
  6
CONTINUOUS
 62
     4
  5
34A
 10
3078.551292
 20
1703.365975
 30
0.0
 11
3075.051292
 21
1697.365975
 31
0.0
  0
ARC
  8
80
  6
CONTINUOUS
 62
     4
  5
34B
 10
3029.251292
 20
1663.165975
 30
0.0
 40
7.7
 50
270.0
 51
90.0
  0
ARC
  8
80
  6
CONTINUOUS
 62
     4
  5
34C
 10
3029.251292
 20
1663.165975
 30
0.0
 40
6.8
 50
270.0
 51
90.0
  0
LINE
  8
80
  6
CONTINUOUS
 62
     4
  5
34D
 10
3022.251292
 20
1670.765975
 30
0.0
 11
3029.251292
 21
1670.765975
 31
0.0
  0
LINE
  8
80
  6
CONTINUOUS
 62
     4
  5
34E
 10
3029.251292
 20
1669.865975
 30
0.0
 11
3022.951292
 21
1669.865975
 31
0.0
  0
ARC
  8
80
  6
CONTINUOUS
 62
     4
  5
34F
 10
3064.251292
 20
1663.165975
 30
0.0
 40
41.800001
 50
170.98
 51
189.37
  0
LINE
  8
80
  6
CONTINUOUS
 62
     4
  5
350
 10
3029.251292
 20
1656.365975
 30
0.0
 11
3023.051292
 21
1656.365975
 31
0.0
  0
LINE
  8
80
  6
CONTINUOUS
 62
     4
  5
351
 10
3022.251292
 20
1655.465974
 30
0.0
 11
3029.251292
 21
1655.465974
 31
0.0
  0
ARC
  8
80
  6
CONTINUOUS
 62
     4
  5
352
 10
3498.251299
 20
1663.165975
 30
0.0
 40
45.000001
 50
299.87
 51
60.13
  0
ARC
  8
80
  6
DIVIDE
 62
     4
  5
353
 10
3498.251299
 20
1663.165975
 30
0.0
 40
42.700001
 50
301.61
 51
58.39
  0
ARC
  8
80
  6
DIVIDE
 62
     4
  5
354
 10
3498.251299
 20
1663.165975
 30
0.0
 40
42.700001
 50
199.71
 51
261.38
  0
ARC
  8
80
  6
DIVIDE
 62
     4
  5
355
 10
3498.251299
 20
1663.165975
 30
0.0
 40
42.700001
 50
98.62
 51
160.29
  0
ARC
  8
80
  6
CONTINUOUS
 62
     4
  5
356
 10
3498.251299
 20
1663.165975
 30
0.0
 40
45.000001
 50
198.68
 51
261.82
  0
ARC
  8
80
  6
CONTINUOUS
 62
     4
  5
357
 10
3498.251299
 20
1663.165975
 30
0.0
 40
45.000001
 50
98.18
 51
161.32
  0
ARC
  8
80
  6
CONTINUOUS
 62
     4
  5
358
 10
3064.251292
 20
1663.165975
 30
0.0
 40
45.000001
 50
278.18
 51
341.32
  0
ARC
  8
80
  6
DIVIDE
 62
     4
  5
359
 10
3064.251292
 20
1663.165975
 30
0.0
 40
42.700001
 50
278.62
 51
340.29
  0
ARC
  8
80
  6
DIVIDE
 62
     4
  5
35A
 10
3064.251292
 20
1663.165975
 30
0.0
 40
42.700001
 50
121.61
 51
238.39
  0
ARC
  8
80
  6
DIVIDE
 62
     4
  5
35B
 10
3064.251292
 20
1663.165975
 30
0.0
 40
42.700001
 50
19.71
 51
81.38
  0
ARC
  8
80
  6
CONTINUOUS
 62
     4
  5
35C
 10
3064.251292
 20
1663.165975
 30
0.0
 40
45.000001
 50
119.87
 51
240.13
  0
ARC
  8
80
  6
CONTINUOUS
 62
     4
  5
35D
 10
3064.251292
 20
1663.165975
 30
0.0
 40
45.000001
 50
18.68
 51
81.82
  0
CIRCLE
  8
80
  6
CONTINUOUS
 62
     4
  5
35E
 10
3533.251299
 20
1663.165975
 30
0.0
 40
4.0
  0
CIRCLE
  8
80
  6
CONTINUOUS
 62
     4
  5
35F
 10
3533.251299
 20
1663.165975
 30
0.0
 40
4.4
  0
CIRCLE
  8
80
  6
CONTINUOUS
 62
     4
  5
360
 10
3480.751298
 20
1693.465975
 30
0.0
 40
4.0
  0
CIRCLE
  8
80
  6
CONTINUOUS
 62
     4
  5
361
 10
3480.751298
 20
1693.465975
 30
0.0
 40
4.4
  0
CIRCLE
  8
80
  6
CONTINUOUS
 62
     4
  5
362
 10
3480.751298
 20
1632.865974
 30
0.0
 40
4.0
  0
CIRCLE
  8
80
  6
CONTINUOUS
 62
     4
  5
363
 10
3480.751298
 20
1632.865974
 30
0.0
 40
4.4
  0
CIRCLE
  8
80
  6
CONTINUOUS
 62
     4
  5
364
 10
3081.751292
 20
1693.465975
 30
0.0
 40
4.0
  0
CIRCLE
  8
80
  6
CONTINUOUS
 62
     4
  5
365
 10
3081.751292
 20
1693.465975
 30
0.0
 40
4.4
  0
CIRCLE
  8
80
  6
CONTINUOUS
 62
     4
  5
366
 10
3029.251292
 20
1663.165975
 30
0.0
 40
4.0
  0
CIRCLE
  8
80
  6
CONTINUOUS
 62
     4
  5
367
 10
3029.251292
 20
1663.165975
 30
0.0
 40
4.4
  0
POINT
  8
80
  6
CONTINUOUS
 62
     4
  5
368
 10
3281.251295
 20
1648.765974
 30
0.0
 50
57.29578
  0
LINE
  8
80
  6
CONTINUOUS
 62
     4
  5
369
 10
3323.851296
 20
1648.765974
 30
0.0
 11
3238.651295
 21
1648.765974
 31
0.0
  0
LINE
  8
80
  6
CONTINUOUS
 62
     4
  5
36A
 10
3323.851296
 20
1677.565975
 30
0.0
 11
3238.651295
 21
1677.565975
 31
0.0
  0
ARC
  8
80
  6
CONTINUOUS
 62
     4
  5
36B
 10
3238.651295
 20
1630.765974
 30
0.0
 40
18.0
 50
90.0
 51
180.0
  0
ARC
  8
80
  6
CONTINUOUS
 62
     4
  5
36C
 10
3238.651295
 20
1695.565975
 30
0.0
 40
18.0
 50
180.0
 51
270.0
  0
ARC
  8
80
  6
CONTINUOUS
 62
     4
  5
36D
 10
3323.851296
 20
1630.765974
 30
0.0
 40
18.0
 50
0.0
 51
90.0
  0
ARC
  8
80
  6
CONTINUOUS
 62
     4
  5
36E
 10
3323.851296
 20
1695.565975
 30
0.0
 40
18.0
 50
270.0
 51
0.0
  0
ARC
  8
80
  6
CONTINUOUS
 62
     4
  5
36F
 10
3388.651297
 20
1630.765974
 30
0.0
 40
18.0
 50
90.0
 51
180.0
  0
ARC
  8
80
  6
CONTINUOUS
 62
     4
  5
370
 10
3388.651297
 20
1695.565975
 30
0.0
 40
18.0
 50
180.0
 51
270.0
  0
ARC
  8
80
  6
CONTINUOUS
 62
     4
  5
371
 10
3173.851294
 20
1630.765974
 30
0.0
 40
18.0
 50
0.0
 51
90.0
  0
ARC
  8
80
  6
CONTINUOUS
 62
     4
  5
372
 10
3173.851294
 20
1695.565975
 30
0.0
 40
18.0
 50
270.0
 51
0.0
  0
LINE
  8
80
  6
CONTINUOUS
 62
     4
  5
373
 10
3173.851294
 20
1648.765974
 30
0.0
 11
3088.651293
 21
1648.765974
 31
0.0
  0
LINE
  8
80
  6
CONTINUOUS
 62
     4
  5
374
 10
3173.851294
 20
1677.565975
 30
0.0
 11
3088.651293
 21
1677.565975
 31
0.0
  0
LINE
  8
80
  6
CONTINUOUS
 62
     4
  5
375
 10
3388.651297
 20
1677.565975
 30
0.0
 11
3473.851298
 21
1677.565975
 31
0.0
  0
LINE
  8
80
  6
CONTINUOUS
 62
     4
  5
376
 10
3388.651297
 20
1648.765974
 30
0.0
 11
3473.851298
 21
1648.765974
 31
0.0
  0
ARC
  8
80
  6
CONTINUOUS
 62
     4
  5
377
 10
3088.651293
 20
1630.765974
 30
0.0
 40
18.0
 50
90.0
 51
180.0
  0
ARC
  8
80
  6
CONTINUOUS
 62
     4
  5
378
 10
3088.651293
 20
1695.565975
 30
0.0
 40
18.0
 50
180.0
 51
270.0
  0
ARC
  8
80
  6
CONTINUOUS
 62
     4
  5
379
 10
3473.851298
 20
1695.565975
 30
0.0
 40
18.0
 50
270.0
 51
0.0
  0
ARC
  8
80
  6
CONTINUOUS
 62
     4
  5
37A
 10
3473.851298
 20
1630.765974
 30
0.0
 40
18.0
 50
0.0
 51
90.0
  0
ARC
  8
80
  6
CONTINUOUS
 62
     4
  5
37B
 10
3475.651298
 20
1543.765973
 30
0.0
 40
45.000001
 50
270.0
 51
0.0
  0
ARC
  8
80
  6
CONTINUOUS
 62
     4
  5
37C
 10
3086.851293
 20
1543.765973
 30
0.0
 40
45.000001
 50
180.0
 51
270.0
  0
ARC
  8
80
  6
CONTINUOUS
 62
     4
  5
37D
 10
3473.851298
 20
1545.565973
 30
0.0
 40
18.0
 50
270.0
 51
0.0
  0
ARC
  8
80
  6
CONTINUOUS
 62
     4
  5
37E
 10
3088.651293
 20
1545.565973
 30
0.0
 40
18.0
 50
180.0
 51
270.0
  0
LINE
  8
80
  6
CONTINUOUS
 62
     4
  5
37F
 10
3473.851298
 20
1527.565973
 30
0.0
 11
3388.651297
 21
1527.565973
 31
0.0
  0
LINE
  8
80
  6
CONTINUOUS
 62
     4
  5
380
 10
3088.651293
 20
1527.565973
 30
0.0
 11
3173.851294
 21
1527.565973
 31
0.0
  0
ARC
  8
80
  6
CONTINUOUS
 62
     4
  5
381
 10
3238.651295
 20
1545.565973
 30
0.0
 40
18.0
 50
180.0
 51
270.0
  0
ARC
  8
80
  6
CONTINUOUS
 62
     4
  5
382
 10
3323.851296
 20
1545.565973
 30
0.0
 40
18.0
 50
270.0
 51
0.0
  0
LINE
  8
80
  6
CONTINUOUS
 62
     4
  5
383
 10
3238.651295
 20
1527.565973
 30
0.0
 11
3323.851296
 21
1527.565973
 31
0.0
  0
ARC
  8
80
  6
CONTINUOUS
 62
     4
  5
384
 10
3388.651297
 20
1545.565973
 30
0.0
 40
18.0
 50
180.0
 51
270.0
  0
ARC
  8
80
  6
CONTINUOUS
 62
     4
  5
385
 10
3173.851294
 20
1545.565973
 30
0.0
 40
18.0
 50
270.0
 51
0.0
  0
LINE
  8
80
  6
CONTINUOUS
 62
     4
  5
386
 10
3475.651298
 20
1498.765972
 30
0.0
 11
3086.851293
 21
1498.765972
 31
0.0
  0
LINE
  8
80
  6
CONTINUOUS
 62
     4
  5
387
 10
3220.651294
 20
1995.56598
 30
0.0
 11
3220.651294
 21
2080.765981
 31
0.0
  0
LINE
  8
80
  6
CONTINUOUS
 62
     4
  5
388
 10
3341.851296
 20
1995.56598
 30
0.0
 11
3341.851296
 21
2080.765981
 31
0.0
  0
LINE
  8
80
  6
CONTINUOUS
 62
     4
  5
389
 10
3370.651297
 20
1995.56598
 30
0.0
 11
3370.651297
 21
2080.765981
 31
0.0
  0
LINE
  8
80
  6
CONTINUOUS
 62
     4
  5
38A
 10
3191.851294
 20
1995.56598
 30
0.0
 11
3191.851294
 21
2080.765981
 31
0.0
  0
LINE
  8
80
  6
CONTINUOUS
 62
     4
  5
38B
 10
3520.651299
 20
1543.765973
 30
0.0
 11
3520.651299
 21
2082.565981
 31
0.0
  0
LINE
  8
80
  6
CONTINUOUS
 62
     4
  5
38C
 10
3491.851299
 20
1995.56598
 30
0.0
 11
3491.851299
 21
2080.765981
 31
0.0
  0
LINE
  8
80
  6
CONTINUOUS
 62
     4
  5
38D
 10
3041.851292
 20
1543.765973
 30
0.0
 11
3041.851292
 21
2082.565981
 31
0.0
  0
LINE
  8
80
  6
CONTINUOUS
 62
     4
  5
38E
 10
3070.651292
 20
1995.56598
 30
0.0
 11
3070.651292
 21
2080.765981
 31
0.0
  0
LINE
  8
80
  6
CONTINUOUS
 62
     4
  5
38F
 10
3220.651294
 20
1845.565977
 30
0.0
 11
3220.651294
 21
1930.765979
 31
0.0
  0
LINE
  8
80
  6
CONTINUOUS
 62
     4
  5
390
 10
3341.851296
 20
1845.565977
 30
0.0
 11
3341.851296
 21
1930.765979
 31
0.0
  0
LINE
  8
80
  6
CONTINUOUS
 62
     4
  5
391
 10
3370.651297
 20
1845.565977
 30
0.0
 11
3370.651297
 21
1930.765979
 31
0.0
  0
LINE
  8
80
  6
CONTINUOUS
 62
     4
  5
392
 10
3191.851294
 20
1845.565977
 30
0.0
 11
3191.851294
 21
1930.765979
 31
0.0
  0
LINE
  8
80
  6
CONTINUOUS
 62
     4
  5
393
 10
3388.651297
 20
1827.565977
 30
0.0
 11
3474.251298
 21
1827.565977
 31
0.0
  0
LINE
  8
80
  6
CONTINUOUS
 62
     4
  5
394
 10
3173.851294
 20
1827.565977
 30
0.0
 11
3088.251293
 21
1827.565977
 31
0.0
  0
LINE
  8
80
  6
CONTINUOUS
 62
     4
  5
395
 10
3323.851296
 20
1827.565977
 30
0.0
 11
3238.351295
 21
1827.565977
 31
0.0
  0
ARC
  8
80
  6
CONTINUOUS
 62
     4
  5
396
 10
3238.651295
 20
1845.565977
 30
0.0
 40
18.0
 50
180.0
 51
270.0
  0
ARC
  8
80
  6
CONTINUOUS
 62
     4
  5
397
 10
3323.851296
 20
1845.565977
 30
0.0
 40
18.0
 50
270.0
 51
0.0
  0
ARC
  8
80
  6
CONTINUOUS
 62
     4
  5
398
 10
3388.651297
 20
1845.565977
 30
0.0
 40
18.0
 50
180.0
 51
270.0
  0
ARC
  8
80
  6
CONTINUOUS
 62
     4
  5
399
 10
3173.851294
 20
1845.565977
 30
0.0
 40
18.0
 50
270.0
 51
0.0
  0
LINE
  8
80
  6
CONTINUOUS
 62
     4
  5
39A
 10
3388.651297
 20
1977.565979
 30
0.0
 11
3473.851298
 21
1977.565979
 31
0.0
  0
LINE
  8
80
  6
CONTINUOUS
 62
     4
  5
39B
 10
3388.651297
 20
1948.765979
 30
0.0
 11
3473.851298
 21
1948.765979
 31
0.0
  0
LINE
  8
80
  6
CONTINUOUS
 62
     4
  5
39C
 10
3491.851299
 20
1845.565977
 30
0.0
 11
3491.851299
 21
1930.765979
 31
0.0
  0
ARC
  8
80
  6
CONTINUOUS
 62
     4
  5
39D
 10
3473.851298
 20
1845.565977
 30
0.0
 40
18.0
 50
270.0
 51
0.0
  0
LINE
  8
80
  6
CONTINUOUS
 62
     4
  5
39E
 10
3070.651292
 20
1845.565977
 30
0.0
 11
3070.651292
 21
1930.765979
 31
0.0
  0
ARC
  8
80
  6
CONTINUOUS
 62
     4
  5
39F
 10
3088.651293
 20
1845.565977
 30
0.0
 40
18.0
 50
180.0
 51
270.0
  0
LINE
  8
80
  6
CONTINUOUS
 62
     4
  5
3A0
 10
3388.651297
 20
1798.765977
 30
0.0
 11
3473.851298
 21
1798.765977
 31
0.0
  0
LINE
  8
80
  6
CONTINUOUS
 62
     4
  5
3A1
 10
3173.851294
 20
1798.765977
 30
0.0
 11
3088.651293
 21
1798.765977
 31
0.0
  0
LINE
  8
80
  6
CONTINUOUS
 62
     4
  5
3A2
 10
3323.851296
 20
1798.765977
 30
0.0
 11
3238.651295
 21
1798.765977
 31
0.0
  0
ARC
  8
80
  6
CONTINUOUS
 62
     4
  5
3A3
 10
3238.651295
 20
1780.765976
 30
0.0
 40
18.0
 50
90.0
 51
180.0
  0
ARC
  8
80
  6
CONTINUOUS
 62
     4
  5
3A4
 10
3323.851296
 20
1780.765976
 30
0.0
 40
18.0
 50
0.0
 51
90.0
  0
ARC
  8
80
  6
CONTINUOUS
 62
     4
  5
3A5
 10
3388.651297
 20
1780.765976
 30
0.0
 40
18.0
 50
90.0
 51
180.0
  0
ARC
  8
80
  6
CONTINUOUS
 62
     4
  5
3A6
 10
3173.851294
 20
1780.765976
 30
0.0
 40
18.0
 50
0.0
 51
90.0
  0
ARC
  8
80
  6
CONTINUOUS
 62
     4
  5
3A7
 10
3473.851298
 20
1780.765976
 30
0.0
 40
18.0
 50
0.0
 51
90.0
  0
ARC
  8
80
  6
CONTINUOUS
 62
     4
  5
3A8
 10
3088.651293
 20
1780.765976
 30
0.0
 40
18.0
 50
90.0
 51
180.0
  0
LINE
  8
80
  6
CONTINUOUS
 62
     4
  5
3A9
 10
3220.651294
 20
1695.565975
 30
0.0
 11
3220.651294
 21
1780.765976
 31
0.0
  0
LINE
  8
80
  6
CONTINUOUS
 62
     4
  5
3AA
 10
3341.851296
 20
1695.565975
 30
0.0
 11
3341.851296
 21
1780.765976
 31
0.0
  0
LINE
  8
80
  6
CONTINUOUS
 62
     4
  5
3AB
 10
3370.651297
 20
1695.565975
 30
0.0
 11
3370.651297
 21
1780.765976
 31
0.0
  0
LINE
  8
80
  6
CONTINUOUS
 62
     4
  5
3AC
 10
3191.851294
 20
1695.565975
 30
0.0
 11
3191.851294
 21
1780.765976
 31
0.0
  0
LINE
  8
80
  6
CONTINUOUS
 62
     4
  5
3AD
 10
3070.651292
 20
1695.565975
 30
0.0
 11
3070.651292
 21
1780.765976
 31
0.0
  0
LINE
  8
80
  6
CONTINUOUS
 62
     4
  5
3AE
 10
3483.851298
 20
1703.365975
 30
0.0
 11
3487.351298
 21
1697.265975
 31
0.0
  0
LINE
  8
80
  6
CONTINUOUS
 62
     4
  5
3AF
 10
3486.551298
 20
1696.865975
 30
0.0
 11
3483.451298
 21
1702.265975
 31
0.0
  0
LINE
  8
80
  6
CONTINUOUS
 62
     4
  5
3B0
 10
3491.851299
 20
1695.565975
 30
0.0
 11
3491.851299
 21
1780.765976
 31
0.0
  0
LINE
  8
80
  6
CONTINUOUS
 62
     4
  5
3B1
 10
3220.651294
 20
1545.565973
 30
0.0
 11
3220.651294
 21
1630.765974
 31
0.0
  0
LINE
  8
80
  6
CONTINUOUS
 62
     4
  5
3B2
 10
3341.851296
 20
1545.565973
 30
0.0
 11
3341.851296
 21
1630.765974
 31
0.0
  0
LINE
  8
80
  6
CONTINUOUS
 62
     4
  5
3B3
 10
3370.651297
 20
1545.565973
 30
0.0
 11
3370.651297
 21
1630.765974
 31
0.0
  0
LINE
  8
80
  6
CONTINUOUS
 62
     4
  5
3B4
 10
3191.851294
 20
1545.565973
 30
0.0
 11
3191.851294
 21
1630.765974
 31
0.0
  0
LINE
  8
80
  6
CONTINUOUS
 62
     4
  5
3B5
 10
3070.651292
 20
1545.565973
 30
0.0
 11
3070.651292
 21
1630.765974
 31
0.0
  0
ARC
  8
80
  6
CONTINUOUS
 62
     4
  5
3B6
 10
3081.751292
 20
1632.865974
 30
0.0
 40
7.7
 50
30.0
 51
210.0
  0
ARC
  8
80
  6
CONTINUOUS
 62
     4
  5
3B7
 10
3081.751292
 20
1632.865974
 30
0.0
 40
6.8
 50
30.0
 51
210.0
  0
LINE
  8
80
  6
CONTINUOUS
 62
     4
  5
3B8
 10
3078.651292
 20
1622.965974
 30
0.0
 11
3075.151292
 21
1629.065974
 31
0.0
  0
LINE
  8
80
  6
CONTINUOUS
 62
     4
  5
3B9
 10
3075.951292
 20
1629.465974
 30
0.0
 11
3079.051292
 21
1624.065974
 31
0.0
  0
ARC
  8
80
  6
CONTINUOUS
 62
     4
  5
3BA
 10
3064.251292
 20
1663.165975
 30
0.0
 40
41.800001
 50
290.98
 51
309.37
  0
LINE
  8
80
  6
CONTINUOUS
 62
     4
  5
3BB
 10
3087.651293
 20
1636.265974
 30
0.0
 11
3090.751293
 21
1630.865974
 31
0.0
  0
LINE
  8
80
  6
CONTINUOUS
 62
     4
  5
3BC
 10
3091.951293
 20
1630.665974
 30
0.0
 11
3088.451293
 21
1636.665974
 31
0.0
  0
CIRCLE
  8
80
  6
CONTINUOUS
 62
     4
  5
3BD
 10
3081.751292
 20
1632.865974
 30
0.0
 40
4.4
  0
CIRCLE
  8
80
  6
CONTINUOUS
 62
     4
  5
3BE
 10
3081.751292
 20
1632.865974
 30
0.0
 40
4.0
  0
LINE
  8
80
  6
CONTINUOUS
 62
     4
  5
3BF
 10
3491.851299
 20
1545.565973
 30
0.0
 11
3491.851299
 21
1630.765974
 31
0.0
  0
LINE
  8
5
  6
CONTINUOUS
 62
     3
  5
3C0
 10
3636.251292
 20
1513.165981
 30
0.0
 11
3536.251292
 21
1513.165981
 31
0.0
  0
LINE
  8
5
  6
CONTINUOUS
 62
     3
  5
3C1
 10
3636.251292
 20
1048.165974
 30
0.0
 11
3636.251292
 21
1513.165981
 31
0.0
  0
LINE
  8
5
  6
CONTINUOUS
 62
     3
  5
3C2
 10
3736.251292
 20
2113.165981
 30
0.0
 11
3536.251292
 21
2113.165981
 31
0.0
  0
LINE
  8
5
  6
CONTINUOUS
 62
     3
  5
3C3
 10
3736.251292
 20
2113.165981
 30
0.0
 11
3736.251292
 21
1048.165974
 31
0.0
  0
LINE
  8
3
  6
CONTINUOUS
 62
     6
  5
3C4
 10
2612.359726
 20
1407.612834
 30
0.0
 11
3161.959734
 21
1407.612834
 31
0.0
  0
LINE
  8
3
  6
CONTINUOUS
 62
     6
  5
3C5
 10
2540.359725
 20
1078.012829
 30
0.0
 11
2620.359726
 21
1078.012829
 31
0.0
  0
LINE
  8
3
  6
CONTINUOUS
 62
     6
  5
3C6
 10
2409.159723
 20
1781.21284
 30
0.0
 11
2599.159726
 21
1781.21284
 31
0.0
  0
LINE
  8
3
  6
CONTINUOUS
 62
     6
  5
3C7
 10
2612.359726
 20
1459.612835
 30
0.0
 11
2612.359726
 21
1407.612834
 31
0.0
  0
LINE
  8
3
  6
CONTINUOUS
 62
     6
  5
3C8
 10
3167.959734
 20
1426.812834
 30
0.0
 11
2721.959728
 21
1426.812834
 31
0.0
  0
LINE
  8
3
  6
CONTINUOUS
 62
     6
  5
3C9
 10
2612.359726
 20
1412.812834
 30
0.0
 11
2413.159723
 21
1412.812834
 31
0.0
  0
LINE
  8
3
  6
CONTINUOUS
 62
     6
  5
3CA
 10
2721.959728
 20
1459.612835
 30
0.0
 11
2721.959728
 21
1407.612834
 31
0.0
  0
LINE
  8
3
  6
CONTINUOUS
 62
     6
  5
3CB
 10
2612.359726
 20
1459.612835
 30
0.0
 11
2789.959729
 21
1459.612835
 31
0.0
  0
LINE
  8
3
  6
CONTINUOUS
 62
     6
  5
3CC
 10
2959.559731
 20
1072.812829
 30
0.0
 11
2958.759731
 21
1097.612829
 31
0.0
  0
LINE
  8
3
  6
CONTINUOUS
 62
     6
  5
3CD
 10
2958.759731
 20
1097.612829
 30
0.0
 11
2957.559731
 21
1122.81283
 31
0.0
  0
LINE
  8
3
  6
CONTINUOUS
 62
     6
  5
3CE
 10
2957.559731
 20
1122.81283
 30
0.0
 11
2956.359731
 21
1147.61283
 31
0.0
  0
LINE
  8
3
  6
CONTINUOUS
 62
     6
  5
3CF
 10
2956.359731
 20
1147.61283
 30
0.0
 11
2955.159731
 21
1172.812831
 31
0.0
  0
LINE
  8
3
  6
CONTINUOUS
 62
     6
  5
3D0
 10
2955.159731
 20
1172.812831
 30
0.0
 11
2953.559731
 21
1196.412831
 31
0.0
  0
ARC
  8
3
  6
CONTINUOUS
 62
     6
  5
3D1
 10
3100.359733
 20
1405.212834
 30
0.0
 40
60.000001
 50
328.92
 51
2.38
  0
ARC
  8
3
  6
CONTINUOUS
 62
     6
  5
3D2
 10
3076.359733
 20
1075.212829
 30
0.0
 40
200.000003
 50
111.76
 51
116.77
  0
ARC
  8
3
  6
CONTINUOUS
 62
     6
  5
3D3
 10
3013.559732
 20
1200.412831
 30
0.0
 40
60.000001
 50
116.77
 51
183.9
  0
ARC
  8
3
  6
CONTINUOUS
 62
     6
  5
3D4
 10
3004.359732
 20
1022.412828
 30
0.0
 40
600.000009
 50
166.92
 51
177.54
  0
LINE
  8
3
  6
CONTINUOUS
 62
     6
  5
3D5
 10
2437.559723
 20
1412.412834
 30
0.0
 11
2446.759724
 21
1389.612834
 31
0.0
  0
LINE
  8
3
  6
CONTINUOUS
 62
     6
  5
3D6
 10
2446.759724
 20
1389.612834
 30
0.0
 11
2456.359724
 21
1366.812833
 31
0.0
  0
LINE
  8
3
  6
CONTINUOUS
 62
     6
  5
3D7
 10
2456.359724
 20
1366.812833
 30
0.0
 11
2467.159724
 21
1344.012833
 31
0.0
  0
LINE
  8
3
  6
CONTINUOUS
 62
     6
  5
3D8
 10
2467.159724
 20
1344.012833
 30
0.0
 11
2478.759724
 21
1321.612833
 31
0.0
  0
LINE
  8
3
  6
CONTINUOUS
 62
     6
  5
3D9
 10
2478.759724
 20
1321.612833
 30
0.0
 11
2490.759724
 21
1300.012832
 31
0.0
  0
LINE
  8
3
  6
CONTINUOUS
 62
     6
  5
3DA
 10
2490.759724
 20
1300.012832
 30
0.0
 11
2499.159724
 21
1285.612832
 31
0.0
  0
ARC
  8
3
  6
CONTINUOUS
 62
     6
  5
3DB
 10
2572.359725
 20
1108.01283
 30
0.0
 40
160.000002
 50
121.42
 51
161.83
  0
ARC
  8
3
  6
CONTINUOUS
 62
     6
  5
3DC
 10
2473.159724
 20
1270.412832
 30
0.0
 40
30.0
 50
301.42
 51
30.85
  0
ARC
  8
3
  6
CONTINUOUS
 62
     6
  5
3DD
 10
3131.959734
 20
1386.812834
 30
0.0
 40
400.000006
 50
187.06
 51
203.44
  0
ARC
  8
3
  6
CONTINUOUS
 62
     6
  5
3DE
 10
3039.959732
 20
1093.612829
 30
0.0
 40
500.000007
 50
170.38
 51
181.79
  0
ARC
  8
3
  6
CONTINUOUS
 62
     6
  5
3DF
 10
2743.959728
 20
1143.61283
 30
0.0
 40
200.000003
 50
155.63
 51
170.38
  0
ARC
  8
3
  6
CONTINUOUS
 62
     6
  5
3E0
 10
2120.759719
 20
1093.612829
 30
0.0
 40
500.000007
 50
358.2
 51
9.61
  0
ARC
  8
3
  6
CONTINUOUS
 62
     6
  5
3E1
 10
2580.359726
 20
1218.012831
 30
0.0
 40
20.0
 50
24.36
 51
155.63
  0
ARC
  8
3
  6
CONTINUOUS
 62
     6
  5
3E2
 10
2416.359723
 20
1143.61283
 30
0.0
 40
200.000003
 50
9.61
 51
24.36
  0
LINE
  8
3
  6
CONTINUOUS
 62
     6
  5
3E3
 10
3079.559733
 20
1451.212835
 30
0.0
 11
3054.759733
 21
1453.212835
 31
0.0
  0
LINE
  8
3
  6
CONTINUOUS
 62
     6
  5
3E4
 10
3054.759733
 20
1453.212835
 30
0.0
 11
3029.959732
 21
1454.812835
 31
0.0
  0
LINE
  8
3
  6
CONTINUOUS
 62
     6
  5
3E5
 10
3029.959732
 20
1454.812835
 30
0.0
 11
3004.759732
 21
1456.012835
 31
0.0
  0
LINE
  8
3
  6
CONTINUOUS
 62
     6
  5
3E6
 10
3004.759732
 20
1456.012835
 30
0.0
 11
2979.959731
 21
1456.812835
 31
0.0
  0
LINE
  8
3
  6
CONTINUOUS
 62
     6
  5
3E7
 10
2979.959731
 20
1456.812835
 30
0.0
 11
2966.759731
 21
1457.212835
 31
0.0
  0
ARC
  8
3
  6
CONTINUOUS
 62
     6
  5
3E8
 10
3038.759732
 20
953.612827
 30
0.0
 40
500.000007
 50
79.15
 51
85.3
  0
ARC
  8
3
  6
CONTINUOUS
 62
     6
  5
3E9
 10
3110.359733
 20
1326.412833
 30
0.0
 40
120.000002
 50
70.98
 51
79.15
  0
ARC
  8
3
  6
CONTINUOUS
 62
     6
  5
3EA
 10
3136.359734
 20
1401.612834
 30
0.0
 40
40.000001
 50
38.26
 51
70.98
  0
LINE
  8
3
  6
CONTINUOUS
 62
     6
  5
3EB
 10
2625.159726
 20
1459.212835
 30
0.0
 11
2625.159726
 21
1484.412835
 31
0.0
  0
LINE
  8
3
  6
CONTINUOUS
 62
     6
  5
3EC
 10
2625.159726
 20
1484.412835
 30
0.0
 11
2624.759726
 21
1509.212836
 31
0.0
  0
LINE
  8
3
  6
CONTINUOUS
 62
     6
  5
3ED
 10
2624.759726
 20
1509.212836
 30
0.0
 11
2623.959726
 21
1534.412836
 31
0.0
  0
LINE
  8
3
  6
CONTINUOUS
 62
     6
  5
3EE
 10
2623.959726
 20
1534.412836
 30
0.0
 11
2622.759726
 21
1559.212836
 31
0.0
  0
LINE
  8
3
  6
CONTINUOUS
 62
     6
  5
3EF
 10
2622.759726
 20
1559.212836
 30
0.0
 11
2621.159726
 21
1584.412837
 31
0.0
  0
LINE
  8
3
  6
CONTINUOUS
 62
     6
  5
3F0
 10
2621.159726
 20
1584.412837
 30
0.0
 11
2619.559726
 21
1609.212837
 31
0.0
  0
LINE
  8
3
  6
CONTINUOUS
 62
     6
  5
3F1
 10
2619.559726
 20
1609.212837
 30
0.0
 11
2617.559726
 21
1634.412837
 31
0.0
  0
LINE
  8
3
  6
CONTINUOUS
 62
     6
  5
3F2
 10
2617.559726
 20
1634.412837
 30
0.0
 11
2615.159726
 21
1659.212838
 31
0.0
  0
LINE
  8
3
  6
CONTINUOUS
 62
     6
  5
3F3
 10
2615.159726
 20
1659.212838
 30
0.0
 11
2606.759726
 21
1733.612839
 31
0.0
  0
LINE
  8
3
  6
CONTINUOUS
 62
     6
  5
3F4
 10
2606.359726
 20
1733.612839
 30
0.0
 11
2602.359726
 21
1758.412839
 31
0.0
  0
LINE
  8
3
  6
CONTINUOUS
 62
     6
  5
3F5
 10
2594.359726
 20
1807.61284
 30
0.0
 11
2602.359726
 21
1758.412839
 31
0.0
  0
LINE
  8
3
  6
CONTINUOUS
 62
     6
  5
3F6
 10
2594.359726
 20
1807.61284
 30
0.0
 11
2594.359726
 21
1808.01284
 31
0.0
  0
ARC
  8
3
  6
CONTINUOUS
 62
     6
  5
3F7
 10
3125.559734
 20
1390.812834
 30
0.0
 40
40.000001
 50
25.05
 51
63.96
  0
LINE
  8
3
  6
CONTINUOUS
 62
     6
  5
3F8
 10
2966.759731
 20
1457.212835
 30
0.0
 11
2941.559731
 21
1458.012835
 31
0.0
  0
LINE
  8
3
  6
CONTINUOUS
 62
     6
  5
3F9
 10
2941.559731
 20
1458.012835
 30
0.0
 11
2916.759731
 21
1458.412835
 31
0.0
  0
LINE
  8
3
  6
CONTINUOUS
 62
     6
  5
3FA
 10
2916.759731
 20
1458.412835
 30
0.0
 11
2891.55973
 21
1458.812835
 31
0.0
  0
LINE
  8
3
  6
CONTINUOUS
 62
     6
  5
3FB
 10
2891.55973
 20
1458.812835
 30
0.0
 11
2866.75973
 21
1459.212835
 31
0.0
  0
LINE
  8
3
  6
CONTINUOUS
 62
     6
  5
3FC
 10
2866.75973
 20
1459.212835
 30
0.0
 11
2841.559729
 21
1459.212835
 31
0.0
  0
LINE
  8
3
  6
CONTINUOUS
 62
     6
  5
3FD
 10
2841.559729
 20
1459.212835
 30
0.0
 11
2816.759729
 21
1459.212835
 31
0.0
  0
LINE
  8
3
  6
CONTINUOUS
 62
     6
  5
3FE
 10
2816.759729
 20
1459.212835
 30
0.0
 11
2791.559729
 21
1459.212835
 31
0.0
  0
LINE
  8
3
  6
CONTINUOUS
 62
     6
  5
3FF
 10
2791.559729
 20
1459.212835
 30
0.0
 11
2789.959729
 21
1459.612835
 31
0.0
  0
ARC
  8
3
  6
CONTINUOUS
 62
     6
  5
400
 10
2854.35973
 20
1632.012837
 30
0.0
 40
400.000006
 50
291.76
 51
309.23
  0
ARC
  8
3
  6
CONTINUOUS
 62
     6
  5
401
 10
2980.759732
 20
1477.212835
 30
0.0
 40
200.000003
 50
309.23
 51
328.92
  0
LINE
  8
3
  6
CONTINUOUS
 62
     6
  5
402
 10
2412.359723
 20
1832.01284
 30
0.0
 11
2410.759723
 21
1807.21284
 31
0.0
  0
LINE
  8
3
  6
CONTINUOUS
 62
     6
  5
403
 10
2410.759723
 20
1807.21284
 30
0.0
 11
2409.159723
 21
1782.01284
 31
0.0
  0
LINE
  8
3
  6
CONTINUOUS
 62
     6
  5
404
 10
2409.159723
 20
1782.01284
 30
0.0
 11
2408.359723
 21
1757.212839
 31
0.0
  0
LINE
  8
3
  6
CONTINUOUS
 62
     6
  5
405
 10
2408.359723
 20
1757.212839
 30
0.0
 11
2407.159723
 21
1732.012839
 31
0.0
  0
LINE
  8
3
  6
CONTINUOUS
 62
     6
  5
406
 10
2407.159723
 20
1732.012839
 30
0.0
 11
2406.359723
 21
1707.212838
 31
0.0
  0
LINE
  8
3
  6
CONTINUOUS
 62
     6
  5
407
 10
2406.359723
 20
1707.212838
 30
0.0
 11
2405.959723
 21
1682.012838
 31
0.0
  0
LINE
  8
3
  6
CONTINUOUS
 62
     6
  5
408
 10
2405.959723
 20
1682.012838
 30
0.0
 11
2405.559723
 21
1657.212838
 31
0.0
  0
LINE
  8
3
  6
CONTINUOUS
 62
     6
  5
409
 10
2405.559723
 20
1657.212838
 30
0.0
 11
2405.559723
 21
1632.012837
 31
0.0
  0
LINE
  8
3
  6
CONTINUOUS
 62
     6
  5
40A
 10
2405.559723
 20
1632.012837
 30
0.0
 11
2405.559723
 21
1607.212837
 31
0.0
  0
LINE
  8
3
  6
CONTINUOUS
 62
     6
  5
40B
 10
2405.559723
 20
1607.212837
 30
0.0
 11
2405.959723
 21
1582.012837
 31
0.0
  0
LINE
  8
3
  6
CONTINUOUS
 62
     6
  5
40C
 10
2405.959723
 20
1582.012837
 30
0.0
 11
2406.359723
 21
1557.212836
 31
0.0
  0
LINE
  8
3
  6
CONTINUOUS
 62
     6
  5
40D
 10
2406.359723
 20
1557.212836
 30
0.0
 11
2407.159723
 21
1532.012836
 31
0.0
  0
LINE
  8
3
  6
CONTINUOUS
 62
     6
  5
40E
 10
2407.159723
 20
1532.012836
 30
0.0
 11
2407.959723
 21
1507.212835
 31
0.0
  0
LINE
  8
3
  6
CONTINUOUS
 62
     6
  5
40F
 10
2407.959723
 20
1507.212835
 30
0.0
 11
2409.159723
 21
1482.012835
 31
0.0
  0
LINE
  8
3
  6
CONTINUOUS
 62
     6
  5
410
 10
2409.159723
 20
1482.012835
 30
0.0
 11
2410.359723
 21
1457.212835
 31
0.0
  0
LINE
  8
3
  6
CONTINUOUS
 62
     6
  5
411
 10
2410.359723
 20
1457.212835
 30
0.0
 11
2411.959723
 21
1432.412834
 31
0.0
  0
LINE
  8
3
  6
CONTINUOUS
 62
     6
  5
412
 10
2411.959723
 20
1432.412834
 30
0.0
 11
2413.159723
 21
1412.812834
 31
0.0
  0
ARC
  8
3
  6
CONTINUOUS
 62
     6
  5
413
 10
2385.159723
 20
1664.012838
 30
0.0
 40
170.000003
 50
63.28
 51
80.72
  0
ARC
  8
3
  6
CONTINUOUS
 62
     6
  5
414
 10
2499.959724
 20
1358.012833
 30
0.0
 40
460.000007
 50
78.14
 51
94.79
  0
TEXT
  8
5
  6
CONTINUOUS
 62
     3
  5
415
 10
3191.251292
 20
2243.165981
 30
0.0
 40
90.0
  1
450
 41
0.666667
  7

 72
     5
 11
3371.251292
 21
2243.165981
 31
0.0
  0
TEXT
  8
5
  6
CONTINUOUS
 62
     3
  5
416
 10
2713.25129
 20
2343.165981
 30
0.0
 40
90.0
  1
1,120
 41
0.6
  7

 72
     5
 11
2983.25129
 21
2343.165981
 31
0.0
  0
TEXT
  8
5
  6
CONTINUOUS
 62
     3
  5
417
 10
2652.375753
 20
2243.165981
 30
0.0
 40
90.0
  1
670
 41
0.666667
  7

 72
     5
 11
2832.375753
 21
2243.165981
 31
0.0
  0
TEXT
  8
5
  6
CONTINUOUS
 62
     3
  5
418
 10
3636.251292
 20
1723.165981
 30
0.0
 40
90.0
  1
600
 50
90.0
 41
0.666667
  7

 72
     5
 11
3636.251292
 21
1903.165981
 31
0.0
  0
TEXT
  8
5
  6
CONTINUOUS
 62
     3
  5
419
 10
3636.251292
 20
1190.365978
 30
0.0
 40
90.0
  1
465
 50
90.0
 41
0.666667
  7

 72
     5
 11
3636.251292
 21
1370.365978
 31
0.0
  0
TEXT
  8
5
  6
CONTINUOUS
 62
     3
  5
41A
 10
3736.251292
 20
1445.365978
 30
0.0
 40
90.0
  1
1,065
 50
90.0
 41
0.6
  7

 72
     5
 11
3736.251292
 21
1715.365978
 31
0.0
  0
LINE
  8
3
  6
CONTINUOUS
 62
     1
  5
41B
 10
2387.211292
 20
8102.166988
 30
0.0
 11
2387.211292
 21
7682.166988
 31
0.0
  0
LINE
  8
3
  6
CONTINUOUS
 62
     1
  5
41C
 10
2387.211292
 20
8102.166988
 30
0.0
 11
2387.211292
 21
7682.166988
 31
0.0
  0
LINE
  8
3
  6
CONTINUOUS
 62
     1
  5
41D
 10
2559.211292
 20
8102.166988
 30
0.0
 11
2387.211292
 21
8102.166988
 31
0.0
  0
ARC
  8
3
  6
CONTINUOUS
 62
     1
  5
41E
 10
3027.211292
 20
7892.166988
 30
0.0
 40
120.0
 50
338.52
 51
21.49
  0
ARC
  8
3
  6
CONTINUOUS
 62
     1
  5
41F
 10
3122.211292
 20
7837.166988
 30
0.0
 40
20.0
 50
317.44
 51
33.57
  0
ARC
  8
3
  6
CONTINUOUS
 62
     1
  5
420
 10
2872.211292
 20
8066.166988
 30
0.0
 40
360.0
 50
270.16
 51
317.44
  0
ARC
  8
3
  6
CONTINUOUS
 62
     1
  5
421
 10
3122.211292
 20
7946.166988
 30
0.0
 40
20.0
 50
326.44
 51
42.57
  0
ARC
  8
3
  6
CONTINUOUS
 62
     1
  5
422
 10
2872.211292
 20
7718.166988
 30
0.0
 40
360.0
 50
42.57
 51
89.85
  0
LINE
  8
3
  6
CONTINUOUS
 62
     1
  5
423
 10
2586.211292
 20
7697.166988
 30
0.0
 11
2600.211292
 21
7719.166988
 31
0.0
  0
ARC
  8
3
  6
CONTINUOUS
 62
     1
  5
424
 10
2884.211292
 20
7370.166988
 30
0.0
 40
700.0
 50
96.76
 51
113.57
  0
ARC
  8
3
  6
CONTINUOUS
 62
     1
  5
425
 10
2872.211292
 20
7916.166988
 30
0.0
 40
210.0
 50
225.1
 51
270.16
  0
ARC
  8
3
  6
CONTINUOUS
 62
     1
  5
426
 10
2872.211292
 20
7867.166988
 30
0.0
 40
210.0
 50
89.85
 51
134.51
  0
ARC
  8
3
  6
CONTINUOUS
 62
     1
  5
427
 10
2884.211292
 20
8414.166988
 30
0.0
 40
700.0
 50
246.44
 51
263.25
  0
LINE
  8
3
  6
CONTINUOUS
 62
     1
  5
428
 10
2586.211292
 20
8087.166988
 30
0.0
 11
2600.211292
 21
8065.166988
 31
0.0
  0
LINE
  8
3
  6
CONTINUOUS
 62
     1
  5
429
 10
2665.211292
 20
7974.166988
 30
0.0
 11
2696.211292
 21
7974.166988
 31
0.0
  0
LINE
  8
3
  6
CONTINUOUS
 62
     1
  5
42A
 10
2696.211292
 20
7809.166988
 30
0.0
 11
2696.211292
 21
7975.166988
 31
0.0
  0
LINE
  8
3
  6
CONTINUOUS
 62
     1
  5
42B
 10
2665.211292
 20
7810.166988
 30
0.0
 11
2696.211292
 21
7810.166988
 31
0.0
  0
LINE
  8
3
  6
CONTINUOUS
 62
     1
  5
42C
 10
2701.211292
 20
7920.166988
 30
0.0
 11
2644.211292
 21
7864.166988
 31
0.0
  0
LINE
  8
3
  6
CONTINUOUS
 62
     1
  5
42D
 10
2701.211292
 20
7864.166988
 30
0.0
 11
2644.211292
 21
7920.166988
 31
0.0
  0
ARC
  8
3
  6
CONTINUOUS
 62
     1
  5
42E
 10
2559.211292
 20
8070.166988
 30
0.0
 40
32.0
 50
33.69
 51
90.0
  0
ARC
  8
3
  6
CONTINUOUS
 62
     1
  5
42F
 10
3515.211292
 20
7892.166988
 30
0.0
 40
800.0
 50
188.22
 51
188.83
  0
ARC
  8
3
  6
CONTINUOUS
 62
     1
  5
430
 10
2877.211292
 20
7949.166988
 30
0.0
 40
230.0
 50
217.96
 51
228.0
  0
ARC
  8
3
  6
CONTINUOUS
 62
     1
  5
431
 10
3515.211292
 20
7892.166988
 30
0.0
 40
800.0
 50
171.03
 51
171.86
  0
ARC
  8
3
  6
CONTINUOUS
 62
     1
  5
432
 10
2877.211292
 20
7835.166988
 30
0.0
 40
230.0
 50
132.01
 51
142.05
  0
ARC
  8
3
  6
CONTINUOUS
 62
     1
  5
433
 10
2677.211292
 20
8000.166988
 30
0.0
 40
50.0
 50
254.69
 51
291.9
  0
ARC
  8
3
  6
CONTINUOUS
 62
     1
  5
434
 10
2692.211292
 20
7962.166988
 30
0.0
 40
30.0
 50
156.43
 51
199.93
  0
ARC
  8
3
  6
CONTINUOUS
 62
     1
  5
435
 10
2692.211292
 20
7822.166988
 30
0.0
 40
30.0
 50
160.08
 51
203.58
  0
ARC
  8
3
  6
CONTINUOUS
 62
     1
  5
436
 10
2677.211292
 20
7784.166988
 30
0.0
 40
50.0
 50
68.11
 51
105.32
  0
LINE
  8
3
  6
CONTINUOUS
 62
     1
  5
437
 10
2600.211292
 20
8065.166988
 30
0.0
 11
2602.211292
 21
8041.166988
 31
0.0
  0
LINE
  8
3
  6
CONTINUOUS
 62
     1
  5
438
 10
2602.211292
 20
8041.166988
 30
0.0
 11
2604.211292
 21
8016.166988
 31
0.0
  0
LINE
  8
3
  6
CONTINUOUS
 62
     1
  5
439
 10
2604.211292
 20
8016.166988
 30
0.0
 11
2605.211292
 21
7991.166988
 31
0.0
  0
LINE
  8
3
  6
CONTINUOUS
 62
     1
  5
43A
 10
2605.211292
 20
7991.166988
 30
0.0
 11
2606.211292
 21
7966.166988
 31
0.0
  0
LINE
  8
3
  6
CONTINUOUS
 62
     1
  5
43B
 10
2606.211292
 20
7966.166988
 30
0.0
 11
2606.211292
 21
7941.166988
 31
0.0
  0
LINE
  8
3
  6
CONTINUOUS
 62
     1
  5
43C
 10
2606.211292
 20
7941.166988
 30
0.0
 11
2607.211292
 21
7916.166988
 31
0.0
  0
LINE
  8
3
  6
CONTINUOUS
 62
     1
  5
43D
 10
2607.211292
 20
7916.166988
 30
0.0
 11
2607.211292
 21
7892.166988
 31
0.0
  0
LINE
  8
3
  6
CONTINUOUS
 62
     1
  5
43E
 10
2607.211292
 20
7892.166988
 30
0.0
 11
2607.211292
 21
7867.166988
 31
0.0
  0
LINE
  8
3
  6
CONTINUOUS
 62
     1
  5
43F
 10
2607.211292
 20
7867.166988
 30
0.0
 11
2606.211292
 21
7842.166988
 31
0.0
  0
LINE
  8
3
  6
CONTINUOUS
 62
     1
  5
440
 10
2606.211292
 20
7842.166988
 30
0.0
 11
2606.211292
 21
7817.166988
 31
0.0
  0
LINE
  8
3
  6
CONTINUOUS
 62
     1
  5
441
 10
2606.211292
 20
7817.166988
 30
0.0
 11
2605.211292
 21
7792.166988
 31
0.0
  0
LINE
  8
3
  6
CONTINUOUS
 62
     1
  5
442
 10
2605.211292
 20
7792.166988
 30
0.0
 11
2603.211292
 21
7767.166988
 31
0.0
  0
LINE
  8
3
  6
CONTINUOUS
 62
     1
  5
443
 10
2603.211292
 20
7767.166988
 30
0.0
 11
2602.211292
 21
7742.166988
 31
0.0
  0
LINE
  8
3
  6
CONTINUOUS
 62
     1
  5
444
 10
2602.211292
 20
7742.166988
 30
0.0
 11
2600.211292
 21
7719.166988
 31
0.0
  0
LINE
  8
3
  6
CONTINUOUS
 62
     1
  5
445
 10
2559.211292
 20
7682.166988
 30
0.0
 11
2387.211292
 21
7682.166988
 31
0.0
  0
ARC
  8
3
  6
CONTINUOUS
 62
     1
  5
446
 10
2559.211292
 20
7714.166988
 30
0.0
 40
32.0
 50
270.0
 51
326.32
  0
LINE
  8
3
  6
CONTINUOUS
 62
     1
  5
447
 10
2550.211292
 20
7666.166988
 30
0.0
 11
2550.211292
 21
7682.166988
 31
0.0
  0
LINE
  8
3
  6
CONTINUOUS
 62
     1
  5
448
 10
2515.211292
 20
7666.166988
 30
0.0
 11
2514.211292
 21
7682.166988
 31
0.0
  0
ARC
  8
3
  6
CONTINUOUS
 62
     1
  5
449
 10
2532.211292
 20
7814.166988
 30
0.0
 40
150.0
 50
263.31
 51
276.7
  0
LINE
  8
3
  6
CONTINUOUS
 62
     1
  5
44A
 10
2387.211292
 20
8102.166988
 30
0.0
 11
2387.211292
 21
7682.166988
 31
0.0
  0
LINE
  8
4
  6
CONTINUOUS
 62
     1
  5
44B
 10
2387.215702
 20
6648.575828
 30
0.0
 11
2387.215702
 21
7035.758148
 31
0.0
  0
ARC
  8
4
  6
CONTINUOUS
 62
     1
  5
44C
 10
2532.582882
 20
7023.552528
 30
0.0
 40
3.5112
 50
352.1
 51
83.61
  0
ARC
  8
4
  6
CONTINUOUS
 62
     1
  5
44D
 10
2579.055742
 20
7006.330988
 30
0.0
 40
10.56006
 50
319.26
 51
70.03
  0
ARC
  8
4
  6
CONTINUOUS
 62
     1
  5
44E
 10
2540.326842
 20
7021.774948
 30
0.0
 40
4.39124
 50
83.3
 51
172.19
  0
LINE
  8
4
  6
CONTINUOUS
 62
     1
  5
44F
 10
2387.206882
 20
7035.758148
 30
0.0
 11
2541.162922
 21
7026.113408
 31
0.0
  0
LINE
  8
4
  6
CONTINUOUS
 62
     1
  5
450
 10
2390.735582
 20
6648.602148
 30
0.0
 11
2390.735582
 21
7035.731828
 31
0.0
  0
ARC
  8
4
  6
CONTINUOUS
 62
     1
  5
451
 10
2519.215682
 20
6811.375808
 30
0.0
 40
167.19122
 50
45.02
 51
73.28
  0
ARC
  8
4
  6
CONTINUOUS
 62
     1
  5
452
 10
2720.348502
 20
6884.530148
 30
0.0
 40
176.00002
 50
139.240001
 51
166.28
  0
ARC
  8
4
  6
CONTINUOUS
 62
     1
  5
453
 10
2519.514862
 20
6842.580548
 30
0.0
 40
184.79118
 50
47.47
 51
83.28
  0
LINE
  8
4
  6
CONTINUOUS
 62
     1
  5
454
 10
2617.740542
 20
6986.495788
 30
0.0
 11
2694.414902
 21
6919.976608
 31
0.0
  0
ARC
  8
4
  6
CONTINUOUS
 62
     1
  5
455
 10
2519.514862
 20
6842.580548
 30
0.0
 40
174.23126
 50
55.69
 51
66.55
  0
ARC
  8
4
  6
CONTINUOUS
 62
     1
  5
456
 10
2532.582882
 20
6660.781308
 30
0.0
 40
3.5112
 50
276.39
 51
7.88
  0
ARC
  8
4
  6
CONTINUOUS
 62
     1
  5
457
 10
2540.326842
 20
6662.559028
 30
0.0
 40
4.40006
 50
187.84
 51
276.63
  0
LINE
  8
4
  6
CONTINUOUS
 62
     1
  5
458
 10
2541.162922
 20
6658.220568
 30
0.0
 11
2387.215702
 21
6648.575828
 31
0.0
  0
ARC
  8
4
  6
CONTINUOUS
 62
     1
  5
459
 10
2579.055742
 20
6678.002988
 30
0.0
 40
10.56006
 50
289.98
 51
40.77
  0
ARC
  8
4
  6
CONTINUOUS
 62
     1
  5
45A
 10
2519.514862
 20
6841.753428
 30
0.0
 40
184.8
 50
276.73
 51
312.54
  0
ARC
  8
4
  6
CONTINUOUS
 62
     1
  5
45B
 10
2519.514862
 20
6841.753428
 30
0.0
 40
174.23126
 50
293.46
 51
304.32
  0
LINE
  8
4
  6
CONTINUOUS
 62
     1
  5
45C
 10
2545.615762
 20
6796.882168
 30
0.0
 11
2559.150122
 21
6791.135728
 31
0.0
  0
ARC
  8
4
  6
CONTINUOUS
 62
     1
  5
45D
 10
2575.817262
 20
6938.799748
 30
0.0
 40
91.42322
 50
250.72
 51
294.48
  0
ARC
  8
4
  6
CONTINUOUS
 62
     1
  5
45E
 10
2575.878862
 20
6747.065408
 30
0.0
 40
89.9976
 50
65.16
 51
109.66
  0
ARC
  8
4
  6
CONTINUOUS
 62
     1
  5
45F
 10
2519.215682
 20
6872.966988
 30
0.0
 40
167.20004
 50
286.73
 51
314.99
  0
ARC
  8
4
  6
CONTINUOUS
 62
     1
  5
460
 10
2488.415682
 20
6981.031028
 30
0.0
 40
264.0001
 50
285.77
 51
317.95
  0
LINE
  8
4
  6
CONTINUOUS
 62
     1
  5
461
 10
2704.728562
 20
6827.242148
 30
0.0
 11
2637.399762
 21
6754.703808
 31
0.0
  0
ARC
  8
4
  6
CONTINUOUS
 62
     1
  5
462
 10
2687.383682
 20
6842.166988
 30
0.0
 40
22.88006
 50
319.28
 51
40.72
  0
ARC
  8
4
  6
CONTINUOUS
 62
     1
  5
463
 10
2720.348502
 20
6799.812508
 30
0.0
 40
175.9912
 50
193.73
 51
220.77
  0
ARC
  8
4
  6
CONTINUOUS
 62
     1
  5
464
 10
2677.606922
 20
6789.375788
 30
0.0
 40
131.99998
 50
180.0
 51
193.73
  0
LINE
  8
4
  6
CONTINUOUS
 62
     1
  5
465
 10
2694.414902
 20
6764.357368
 30
0.0
 11
2617.740542
 21
6697.838188
 31
0.0
  0
LINE
  8
4
  6
CONTINUOUS
 62
     1
  5
466
 10
2749.608502
 20
6820.844568
 30
0.0
 11
2644.457302
 21
6705.582148
 31
0.0
  0
LINE
  8
4
  6
CONTINUOUS
 62
     1
  5
467
 10
2744.706962
 20
6824.575708
 30
0.0
 11
2694.414902
 21
6764.357368
 31
0.0
  0
LINE
  8
4
  6
CONTINUOUS
 62
     1
  5
468
 10
2545.615762
 20
6887.451808
 30
0.0
 11
2559.150122
 21
6893.198108
 31
0.0
  0
LINE
  8
4
  6
CONTINUOUS
 62
     1
  5
469
 10
2545.615762
 20
6789.375788
 30
0.0
 11
2545.615762
 21
6894.694148
 31
0.0
  0
ARC
  8
4
  6
CONTINUOUS
 62
     1
  5
46A
 10
2488.415682
 20
6703.302948
 30
0.0
 40
263.99128
 50
42.06
 51
74.24
  0
ARC
  8
4
  6
CONTINUOUS
 62
     1
  5
46B
 10
2580.815682
 20
6842.166988
 30
0.0
 40
55.44
 50
247.0
 51
113.01
  0
LINE
  8
4
  6
CONTINUOUS
 62
     1
  5
46C
 10
2637.399762
 20
6929.630168
 30
0.0
 11
2704.728562
 21
6857.091828
 31
0.0
  0
LINE
  8
4
  6
CONTINUOUS
 62
     1
  5
46D
 10
2535.970882
 20
6661.960528
 30
0.0
 11
2535.970882
 21
7022.373308
 31
0.0
  0
ARC
  8
4
  6
CONTINUOUS
 62
     1
  5
46E
 10
2677.606922
 20
6894.967008
 30
0.0
 40
131.99998
 50
166.28
 51
180.0
  0
LINE
  8
4
  6
CONTINUOUS
 62
     1
  5
46F
 10
2644.448482
 20
6978.751828
 30
0.0
 11
2749.608502
 21
6863.489408
 31
0.0
  0
LINE
  8
4
  6
CONTINUOUS
 62
     1
  5
470
 10
2694.414902
 20
6919.976608
 30
0.0
 11
2744.706962
 21
6859.758128
 31
0.0
  0
LINE
  8
4
  6
CONTINUOUS
 62
     1
  5
471
 10
2746.037802
 20
6842.166988
 30
0.0
 11
2760.707282
 21
6842.166988
 31
0.0
  0
ARC
  8
4
  6
CONTINUOUS
 62
     1
  5
472
 10
2721.606962
 20
6842.166988
 30
0.0
 40
35.19124
 50
322.03
 51
39.65
  0
ARC
  8
4
  6
CONTINUOUS
 62
     1
  5
473
 10
2721.606962
 20
6842.166988
 30
0.0
 40
29.03124
 50
322.03
 51
39.65
  0
LINE
  8
5
  6
CONTINUOUS
 62
     3
  5
474
 10
3169.213832
 20
8277.542548
 30
0.0
 11
3039.310022
 21
8052.542548
 31
0.0
  0
LINE
  8
5
  6
CONTINUOUS
 62
     3
  5
475
 10
3039.310022
 20
8052.542548
 30
0.0
 11
3654.310022
 21
8052.542548
 31
0.0
  0
TEXT
  8
5
  6
CONTINUOUS
 62
     3
  5
476
 10
3114.310022
 20
8052.542548
 30
0.0
 40
90.0
  1
テスリックス
 41
0.837
  7

 72
     5
 11
3654.310022
 21
8052.542548
 31
0.0
  0
TEXT
  8
5
  6
CONTINUOUS
 62
     3
  5
477
 10
2413.271634
 20
1944.193197
 30
0.0
 40
90.0
  1
テスリックス
 41
0.837
  7

 72
     5
 11
2953.271634
 21
1944.193197
 31
0.0
  0
LINE
  8
5
  6
CONTINUOUS
 62
     3
  5
478
 10
2976.899387
 20
1944.193197
 30
0.0
 11
2361.899387
 21
1944.193197
 31
0.0
  0
LINE
  8
5
  6
CONTINUOUS
 62
     3
  5
479
 10
3041.851292
 20
1831.693197
 30
0.0
 11
2976.899387
 21
1944.193197
 31
0.0
  0
TEXT
  8
5
  6
CONTINUOUS
 62
     3
  5
47A
 10
3121.200736
 20
4267.600238
 30
0.0
 40
135.0
  1
平面図
 41
0.837
  7

 72
     5
 11
3526.200736
 21
4267.600238
 31
0.0
  0
TEXT
  8
5
  6
CONTINUOUS
 62
     3
  5
47B
 10
2865.125256
 20
795.601309
 30
0.0
 40
135.0
  1
テスリックス
 41
0.837
  7

 72
     5
 11
3675.125256
 21
795.601309
 31
0.0
  0
TEXT
  8
5
  6
CONTINUOUS
 62
     3
  5
47C
 10
2865.125256
 20
660.601309
 30
0.0
 40
135.0
  1
取付側展開図
 41
0.837
  7

 72
     5
 11
3675.125256
 21
660.601309
 31
0.0
  0
ENDSEC
  0
EOF
