  0
SECTION
  2
HEADER
  9
$ACADVER
  1
AC1009
  9
$INSBASE
 10
0.0
 20
0.0
 30
0.0
  9
$EXTMIN
 10
48821.836548
 20
8362.156792
 30
0.0
  9
$EXTMAX
 10
50966.835548
 20
16322.938273
 30
0.0
  9
$LIMMIN
 10
46882.395087
 20
7815.58695
  9
$LIMMAX
 10
53182.395087
 20
16725.58695
  9
$ORTHOMODE
 70
     0
  9
$REGENMODE
 70
     1
  9
$FILLMODE
 70
     1
  9
$QTEXTMODE
 70
     0
  9
$MIRRTEXT
 70
     1
  9
$DRAGMODE
 70
     2
  9
$LTSCALE
 40
30.0
  9
$OSMODE
 70
     0
  9
$ATTMODE
 70
     1
  9
$TEXTSIZE
 40
0.2
  9
$TRACEWID
 40
0.05
  9
$TEXTSTYLE
  7
STANDARD
  9
$CLAYER
  8
0
  9
$CELTYPE
  6
CONTINUOUS
  9
$CECOLOR
 62
   256
  9
$DIMSCALE
 40
1.0
  9
$DIMASZ
 40
0.18
  9
$DIMEXO
 40
0.0625
  9
$DIMDLI
 40
0.38
  9
$DIMRND
 40
0.0
  9
$DIMDLE
 40
0.0
  9
$DIMEXE
 40
0.18
  9
$DIMTP
 40
0.0
  9
$DIMTM
 40
0.0
  9
$DIMTXT
 40
0.18
  9
$DIMCEN
 40
0.09
  9
$DIMTSZ
 40
0.0
  9
$DIMTOL
 70
     0
  9
$DIMLIM
 70
     0
  9
$DIMTIH
 70
     1
  9
$DIMTOH
 70
     1
  9
$DIMSE1
 70
     0
  9
$DIMSE2
 70
     0
  9
$DIMTAD
 70
     0
  9
$DIMZIN
 70
     0
  9
$DIMBLK
  1

  9
$DIMASO
 70
     1
  9
$DIMSHO
 70
     1
  9
$DIMPOST
  1

  9
$DIMAPOST
  1

  9
$DIMALT
 70
     0
  9
$DIMALTD
 70
     2
  9
$DIMALTF
 40
25.4
  9
$DIMLFAC
 40
1.0
  9
$DIMTOFL
 70
     0
  9
$DIMTVP
 40
0.0
  9
$DIMTIX
 70
     0
  9
$DIMSOXD
 70
     0
  9
$DIMSAH
 70
     0
  9
$DIMBLK1
  1

  9
$DIMBLK2
  1

  9
$DIMSTYLE
  2
STANDARD
  9
$DIMCLRD
 70
     0
  9
$DIMCLRE
 70
     0
  9
$DIMCLRT
 70
     0
  9
$DIMTFAC
 40
1.0
  9
$DIMGAP
 40
0.09
  9
$LUNITS
 70
     2
  9
$LUPREC
 70
     4
  9
$AXISMODE
 70
     0
  9
$AXISUNIT
 10
0.0
 20
0.0
  9
$SKETCHINC
 40
0.1
  9
$FILLETRAD
 40
0.0
  9
$AUNITS
 70
     0
  9
$AUPREC
 70
     0
  9
$MENU
  1
acad
  9
$ELEVATION
 40
0.0
  9
$PELEVATION
 40
0.0
  9
$THICKNESS
 40
0.0
  9
$LIMCHECK
 70
     0
  9
$BLIPMODE
 70
     1
  9
$CHAMFERA
 40
0.0
  9
$CHAMFERB
 40
0.0
  9
$SKPOLY
 70
     0
  9
$TDCREATE
 40
0.000000000
  9
$TDUPDATE
 40
0.000000000
  9
$TDINDWG
 40
0.0000000000
  9
$TDUSRTIMER
 40
0.0000000000
  9
$USRTIMER
 70
     1
  9
$ANGBASE
 50
0.0
  9
$ANGDIR
 70
     0
  9
$PDMODE
 70
     0
  9
$PDSIZE
 40
0.0
  9
$PLINEWID
 40
0.0
  9
$COORDS
 70
     0
  9
$SPLFRAME
 70
     0
  9
$SPLINETYPE
 70
     6
  9
$SPLINESEGS
 70
     8
  9
$ATTDIA
 70
     0
  9
$ATTREQ
 70
     1
  9
$HANDLING
 70
     1
  9
$HANDSEED
  5
575
  9
$SURFTAB1
 70
     6
  9
$SURFTAB2
 70
     6
  9
$SURFTYPE
 70
     6
  9
$SURFU
 70
     6
  9
$SURFV
 70
     6
  9
$UCSNAME
  2

  9
$UCSORG
 10
0.0
 20
0.0
 30
0.0
  9
$UCSXDIR
 10
1.0
 20
0.0
 30
0.0
  9
$UCSYDIR
 10
0.0
 20
1.0
 30
0.0
  9
$PUCSNAME
  2

  9
$PUCSORG
 10
0.0
 20
0.0
 30
0.0
  9
$PUCSXDIR
 10
1.0
 20
0.0
 30
0.0
  9
$PUCSYDIR
 10
0.0
 20
1.0
 30
0.0
  9
$USERI1
 70
     0
  9
$USERI2
 70
     0
  9
$USERI3
 70
     0
  9
$USERI4
 70
     0
  9
$USERI5
 70
     0
  9
$USERR1
 40
0.0
  9
$USERR2
 40
0.0
  9
$USERR3
 40
0.0
  9
$USERR4
 40
0.0
  9
$USERR5
 40
0.0
  9
$WORLDVIEW
 70
     1
  9
$SHADEDGE
 70
     3
  9
$SHADEDIF
 70
    70
  9
$TILEMODE
 70
     1
  9
$MAXACTVP
 70
    16
  9
$PINSBASE
 10
0.0
 20
0.0
 30
0.0
  9
$PLIMCHECK
 70
     0
  9
$PEXTMIN
 10
1.000000E+20
 20
1.000000E+20
 30
1.000000E+20
  9
$PEXTMAX
 10
-1.000000E+20
 20
-1.000000E+20
 30
-1.000000E+20
  9
$PLIMMIN
 10
0.0
 20
0.0
  9
$PLIMMAX
 10
12.0
 20
9.0
  9
$UNITMODE
 70
     0
  9
$VISRETAIN
 70
     0
  9
$PLINEGEN
 70
     1
  9
$PSLTSCALE
 70
     0
  9
$TREEDEPTH
 70
  3020
  9
$DWGCODEPAGE
  3
dos932
  0
ENDSEC
  0
SECTION
  2
TABLES
  0
TABLE
  2
VPORT
 70
     1
  0
VPORT
  2
*ACTIVE
 70
     0
 10
0.0
 20
0.0
 11
1.0
 21
1.0
 12
50032.395087
 22
12270.58695
 13
0.0
 23
0.0
 14
1000.0
 24
1000.0
 15
1000.0
 25
1000.0
 16
0.0
 26
0.0
 36
1.0
 17
0.0
 27
0.0
 37
0.0
 40
8910.0
 41
0.707071
 42
50.0
 43
0.0
 44
0.0
 50
0.0
 51
0.0
 71
     0
 72
   100
 73
     1
 74
     1
 75
     0
 76
     0
 77
     0
 78
     0
  0
ENDTAB
  0
TABLE
  2
LTYPE
 70
     9
  0
LTYPE
  2
CONTINUOUS
 70
    64
  3
Solid line
 72
    65
 73
     0
 40
0.0
  0
LTYPE
  2
HIDDEN
 70
    64
  3
__ __ __ __ __ __ __ __ __ __ __ __ __ __ __ __
 72
    65
 73
     5
 40
8.0
 49
1.0
 49
-2.0
 49
2.0
 49
-2.0
 49
1.0
  0
LTYPE
  2
DOT
 70
    64
  3
. . . . . . . . . . . . . . . . . . . . . . . .
 72
    65
 73
     3
 40
1.6
 49
0.4
 49
-0.8
 49
0.4
  0
LTYPE
  2
CENTER
 70
    64
  3
____ _ ____ _ ____ _ ____ _ ____ _ ____ _ ____ 
 72
    65
 73
     5
 40
12.0
 49
5.0
 49
-0.8
 49
0.4
 49
-0.8
 49
5.0
  0
LTYPE
  2
DIVIDE
 70
    64
  3
____ . . ____ . . ____ . . ____ . . ____ . . __
 72
    65
 73
     7
 40
13.2
 49
5.0
 49
-0.8
 49
0.4
 49
-0.8
 49
0.4
 49
-0.8
 49
5.0
  0
LTYPE
  2
DASHED1
 70
     0
  3
Solid Line
 72
    65
 73
     2
 40
2.5
 49
1.25
 49
-1.25
  0
LTYPE
  2
DASHED3
 70
     0
  3
Solid Line
 72
    65
 73
     2
 40
5.0
 49
3.75
 49
-1.25
  0
LTYPE
  2
CENTER1
 70
     0
  3
Solid Line
 72
    65
 73
     4
 40
10.0
 49
6.25
 49
-1.25
 49
1.25
 49
-1.25
  0
LTYPE
  2
PHANTOM1
 70
     0
  3
Solid Line
 72
    65
 73
     6
 40
9.5
 49
3.25
 49
-1.25
 49
1.25
 49
-1.25
 49
1.25
 49
-1.25
  0
ENDTAB
  0
TABLE
  2
LAYER
 70
    19
  0
LAYER
  2
0
 70
     0
 62
     7
  6
CONTINUOUS
  0
LAYER
  2
1
 70
     0
 62
     1
  6
CONTINUOUS
  0
LAYER
  2
2
 70
     0
 62
     1
  6
CONTINUOUS
  0
LAYER
  2
3
 70
     0
 62
     1
  6
CONTINUOUS
  0
LAYER
  2
4
 70
     0
 62
     1
  6
CONTINUOUS
  0
LAYER
  2
5
 70
     0
 62
     1
  6
CONTINUOUS
  0
LAYER
  2
6
 70
     0
 62
     1
  6
CONTINUOUS
  0
LAYER
  2
7
 70
     0
 62
     1
  6
CONTINUOUS
  0
LAYER
  2
8
 70
     0
 62
     1
  6
CONTINUOUS
  0
LAYER
  2
9
 70
     0
 62
     1
  6
CONTINUOUS
  0
LAYER
  2
10
 70
     0
 62
     1
  6
CONTINUOUS
  0
LAYER
  2
11
 70
     0
 62
     1
  6
CONTINUOUS
  0
LAYER
  2
12
 70
     0
 62
     1
  6
CONTINUOUS
  0
LAYER
  2
13
 70
     0
 62
     1
  6
CONTINUOUS
  0
LAYER
  2
14
 70
     0
 62
     1
  6
CONTINUOUS
  0
LAYER
  2
15
 70
     0
 62
     1
  6
CONTINUOUS
  0
LAYER
  2
16
 70
     0
 62
     1
  6
CONTINUOUS
  0
LAYER
  2
40
 70
     0
 62
     1
  6
CONTINUOUS
  0
LAYER
  2
50
 70
     0
 62
     1
  6
CONTINUOUS
  0
ENDTAB
  0
TABLE
  2
STYLE
 70
     3
  0
STYLE
  2
STANDARD
 70
     0
 40
0.0
 41
1.0
 50
0.0
 71
     0
 42
0.0
  3
txt
  4

  0
STYLE
  2

 70
     0
 40
1000.0
 41
1.0
 50
0.0
 71
     0
 42
1000.0
  3
txt
  4
extfont
  0
STYLE
  2

 70
     0
 40
1000.0
 41
1.0
 50
0.0
 71
     0
 42
1000.0
  3
txt
  4
extfont
  0
ENDTAB
  0
TABLE
  2
VIEW
 70
     0
  0
ENDTAB
  0
TABLE
  2
UCS
 70
     0
  0
ENDTAB
  0
TABLE
  2
APPID
 70
     1
  0
APPID
  2
ACAD
 70
     0
  0
ENDTAB
  0
TABLE
  2
DIMSTYLE
 70
     1
  0
DIMSTYLE
  2
STANDARD
 70
     0
  3

  4

  5

  6

  7

 40
1.0
 41
0.18
 42
0.0625
 43
0.38
 44
0.18
 45
0.0
 46
0.0
 47
0.0
 48
0.0
 71
     0
 72
     0
 73
     1
 74
     1
 75
     0
 76
     0
 77
     0
 78
     0
140
0.18
141
0.09
142
0.0
143
25.4
144
1.0
145
0.0
146
1.0
147
0.09
170
     0
171
     2
172
     0
173
     0
174
     0
175
     0
176
     0
177
     0
178
     0
  0
ENDTAB
  0
ENDSEC
  0
SECTION
  2
BLOCKS
  0
ENDSEC
  0
SECTION
  2
ENTITIES
  0
TEXT
  8
5
  6
CONTINUOUS
 62
     3
  5
102
 10
49729.219425
 20
12449.234446
 30
0.0
 40
135.0
  1
平面図
 41
0.837
  7

 72
     5
 11
50134.219425
 21
12449.234446
 31
0.0
  0
LINE
  8
1
  6
CONTINUOUS
 62
     6
  5
103
 10
49241.836548
 20
12842.938962
 30
0.0
 11
49826.836548
 21
12842.938962
 31
0.0
  0
LINE
  8
1
  6
CONTINUOUS
 62
     6
  5
104
 10
50716.836548
 20
12727.938362
 30
0.0
 11
50716.836548
 21
12692.938062
 31
0.0
  0
LINE
  8
1
  6
CONTINUOUS
 62
     6
  5
105
 10
49497.074548
 20
14792.937423
 30
0.0
 11
49497.074548
 21
14792.437923
 31
0.0
  0
LINE
  8
1
  6
CONTINUOUS
 62
     6
  5
106
 10
49647.665548
 20
14891.680323
 30
0.0
 11
49673.859548
 21
14851.332823
 31
0.0
  0
LINE
  8
1
  6
CONTINUOUS
 62
     6
  5
107
 10
49497.827548
 20
14802.187523
 30
0.0
 11
49497.827548
 21
14814.437523
 31
0.0
  0
LINE
  8
1
  6
CONTINUOUS
 62
     6
  5
108
 10
49497.827548
 20
14814.437523
 30
0.0
 11
49497.827548
 21
14844.437923
 31
0.0
  0
LINE
  8
1
  6
CONTINUOUS
 62
     6
  5
109
 10
49647.298548
 20
14901.607623
 30
0.0
 11
49681.339548
 21
14847.709923
 31
0.0
  0
LINE
  8
1
  6
CONTINUOUS
 62
     6
  5
10A
 10
49689.507548
 20
14845.475523
 30
0.0
 11
49688.195548
 21
14847.504323
 31
0.0
  0
LINE
  8
1
  6
CONTINUOUS
 62
     6
  5
10B
 10
49497.827548
 20
14793.937423
 30
0.0
 11
49497.074548
 21
14792.937423
 31
0.0
  0
LINE
  8
1
  6
CONTINUOUS
 62
     6
  5
10C
 10
49687.827548
 20
14771.794323
 30
0.0
 11
49521.826548
 21
14771.794323
 31
0.0
  0
LINE
  8
1
  6
CONTINUOUS
 62
     6
  5
10D
 10
49519.574548
 20
14769.937823
 30
0.0
 11
49696.461548
 21
14769.937823
 31
0.0
  0
LINE
  8
1
  6
CONTINUOUS
 62
     6
  5
10E
 10
49696.461548
 20
14824.937823
 30
0.0
 11
49678.827548
 21
14824.937823
 31
0.0
  0
LINE
  8
1
  6
CONTINUOUS
 62
     6
  5
10F
 10
49674.827548
 20
14828.937723
 30
0.0
 11
49674.827548
 21
14848.064323
 31
0.0
  0
LINE
  8
1
  6
CONTINUOUS
 62
     6
  5
110
 10
49497.827548
 20
14793.937423
 30
0.0
 11
49497.827548
 21
14802.187523
 31
0.0
  0
LINE
  8
1
  6
CONTINUOUS
 62
     6
  5
111
 10
49687.827548
 20
14810.437623
 30
0.0
 11
49687.827548
 21
14771.794323
 31
0.0
  0
LINE
  8
1
  6
CONTINUOUS
 62
     6
  5
112
 10
49499.463548
 20
14809.938023
 30
0.0
 11
49499.463548
 21
14794.520123
 31
0.0
  0
LINE
  8
1
  6
CONTINUOUS
 62
     6
  5
113
 10
49500.464548
 20
14810.938023
 30
0.0
 11
49687.327548
 21
14810.938023
 31
0.0
  0
LINE
  8
1
  6
CONTINUOUS
 62
     6
  5
114
 10
49259.827548
 20
14812.938823
 30
0.0
 11
49455.780548
 21
14812.938823
 31
0.0
  0
LINE
  8
1
  6
CONTINUOUS
 62
     6
  5
115
 10
49355.204548
 20
14825.938623
 30
0.0
 11
49455.778548
 21
14825.938623
 31
0.0
  0
LINE
  8
1
  6
CONTINUOUS
 62
     6
  5
116
 10
49682.737548
 20
14847.016123
 30
0.0
 11
49688.195548
 21
14847.504323
 31
0.0
  0
ARC
  8
1
  6
CONTINUOUS
 62
     6
  5
117
 10
49596.830548
 20
15838.802423
 30
0.0
 40
995.49999
 50
275.265899
 51
284.01936
  0
ARC
  8
1
  6
CONTINUOUS
 62
     6
  5
118
 10
49597.601548
 20
15839.082423
 30
0.0
 40
999.99992
 50
275.488555
 51
284.37327
  0
ARC
  8
1
  6
CONTINUOUS
 62
     6
  5
119
 10
49409.826548
 20
14797.437823
 30
0.0
 40
299.99999
 50
357.10401
 51
2.89596
  0
ARC
  8
1
  6
CONTINUOUS
 62
     6
  5
11A
 10
49521.965548
 20
14794.296123
 30
0.0
 40
22.502573
 50
179.43035
 51
269.649627
  0
ARC
  8
1
  6
CONTINUOUS
 62
     6
  5
11B
 10
49455.778548
 20
14837.938423
 30
0.0
 40
24.999999
 50
270.002288
 51
356.06182
  0
ARC
  8
1
  6
CONTINUOUS
 62
     6
  5
11C
 10
49455.778548
 20
14837.938423
 30
0.0
 40
11.999998
 50
270.0
 51
356.05792
  0
ARC
  8
1
  6
CONTINUOUS
 62
     6
  5
11D
 10
49355.204548
 20
14865.938923
 30
0.0
 40
39.998301
 50
200.733078
 51
270.001419
  0
ARC
  8
1
  6
CONTINUOUS
 62
     6
  5
11E
 10
49668.825548
 20
14848.064323
 30
0.0
 40
6.002144
 50
0.0
 51
32.99247
  0
ARC
  8
1
  6
CONTINUOUS
 62
     6
  5
11F
 10
49682.608548
 20
14848.510423
 30
0.0
 40
1.5
 50
212.275634
 51
274.950561
  0
ARC
  8
1
  6
CONTINUOUS
 62
     6
  5
120
 10
49696.461548
 20
14782.937623
 30
0.0
 40
12.999998
 50
270.0
 51
357.10401
  0
ARC
  8
1
  6
CONTINUOUS
 62
     6
  5
121
 10
49696.461548
 20
14811.938023
 30
0.0
 40
12.999998
 50
2.89596
 51
90.0
  0
ARC
  8
1
  6
CONTINUOUS
 62
     6
  5
122
 10
49519.574548
 20
14792.437923
 30
0.0
 40
22.499997
 50
180.0
 51
221.160552
  0
ARC
  8
1
  6
CONTINUOUS
 62
     6
  5
123
 10
49692.865548
 20
14847.648723
 30
0.0
 40
3.999999
 50
212.91896
 51
275.488555
  0
ARC
  8
1
  6
CONTINUOUS
 62
     6
  5
124
 10
49687.327548
 20
14810.437623
 30
0.0
 40
0.5
 50
0.0
 51
90.0
  0
ARC
  8
1
  6
CONTINUOUS
 62
     6
  5
125
 10
49678.827548
 20
14828.937723
 30
0.0
 40
3.999999
 50
180.0
 51
270.0
  0
ARC
  8
1
  6
CONTINUOUS
 62
     6
  5
126
 10
49519.574548
 20
14792.437923
 30
0.0
 40
22.499997
 50
221.160552
 51
270.0
  0
ARC
  8
1
  6
CONTINUOUS
 62
     6
  5
127
 10
49500.464548
 20
14809.938023
 30
0.0
 40
1.0
 50
90.0
 51
180.0
  0
LINE
  8
1
  6
CONTINUOUS
 62
     6
  5
128
 10
49497.827548
 20
14844.437923
 30
0.0
 11
49497.827548
 21
15218.937523
 31
0.0
  0
ARC
  8
1
  6
CONTINUOUS
 62
     6
  5
129
 10
46477.844548
 20
15042.938623
 30
0.0
 40
3009.9835
 50
356.06198
 51
3.93798
  0
ARC
  8
1
  6
CONTINUOUS
 62
     6
  5
12A
 10
46477.844548
 20
15042.938623
 30
0.0
 40
2996.9837
 50
356.06196
 51
3.938
  0
LINE
  8
1
  6
CONTINUOUS
 62
     6
  5
12B
 10
49259.827548
 20
14812.938823
 30
0.0
 11
49259.827548
 21
15272.937523
 31
0.0
  0
ARC
  8
1
  6
CONTINUOUS
 62
     6
  5
12C
 10
49822.828548
 20
15042.937723
 30
0.0
 40
539.9986
 50
159.26776
 51
200.732116
  0
LINE
  8
1
  6
CONTINUOUS
 62
     6
  5
12D
 10
49593.827548
 20
14903.937423
 30
0.0
 11
49643.070548
 21
14903.937423
 31
0.0
  0
LINE
  8
1
  6
CONTINUOUS
 62
     6
  5
12E
 10
49660.862548
 20
14871.351723
 30
0.0
 11
49666.968548
 21
14870.463723
 31
0.0
  0
LINE
  8
1
  6
CONTINUOUS
 62
     6
  5
12F
 10
49484.446548
 20
14900.331123
 30
0.0
 11
49497.827548
 21
14897.905123
 31
0.0
  0
LINE
  8
1
  6
CONTINUOUS
 62
     6
  5
130
 10
49643.105548
 20
14903.937423
 30
0.0
 11
49643.070548
 21
14903.937423
 31
0.0
  0
ARC
  8
1
  6
CONTINUOUS
 62
     6
  5
131
 10
49672.827548
 20
14908.016023
 30
0.0
 40
30.0
 50
187.813034
 51
212.992477
  0
ARC
  8
1
  6
CONTINUOUS
 62
     6
  5
132
 10
49593.827548
 20
14904.937323
 30
0.0
 40
1.0
 50
180.0
 51
270.0
  0
ARC
  8
1
  6
CONTINUOUS
 62
     6
  5
133
 10
49765.313548
 20
15164.018923
 30
0.0
 40
299.99999
 50
284.01936
 51
317.5811
  0
ARC
  8
1
  6
CONTINUOUS
 62
     6
  5
134
 10
49771.367548
 20
15160.993623
 30
0.0
 40
299.99999
 50
284.37327
 51
316.96829
  0
ARC
  8
1
  6
CONTINUOUS
 62
     6
  5
135
 10
49643.070548
 20
14898.937423
 30
0.0
 40
5.0
 50
32.27563
 51
89.60652
  0
LINE
  8
1
  6
CONTINUOUS
 62
     6
  5
136
 10
49569.827548
 20
15251.437423
 30
0.0
 11
49572.326548
 21
15251.437423
 31
0.0
  0
LINE
  8
1
  6
CONTINUOUS
 62
     6
  5
137
 10
49556.827548
 20
15251.437423
 30
0.0
 11
49569.827548
 21
15251.437423
 31
0.0
  0
LINE
  8
1
  6
CONTINUOUS
 62
     6
  5
138
 10
49700.732548
 20
15257.738323
 30
0.0
 11
49696.189548
 21
15250.720023
 31
0.0
  0
LINE
  8
1
  6
CONTINUOUS
 62
     6
  5
139
 10
49737.842548
 20
15266.091623
 30
0.0
 11
49713.643548
 21
15269.277923
 31
0.0
  0
LINE
  8
1
  6
CONTINUOUS
 62
     6
  5
13A
 10
49705.883548
 20
15265.693623
 30
0.0
 11
49700.732548
 21
15257.738323
 31
0.0
  0
LINE
  8
1
  6
CONTINUOUS
 62
     6
  5
13B
 10
49678.771548
 20
15260.941223
 30
0.0
 11
49700.732548
 21
15257.738323
 31
0.0
  0
LINE
  8
1
  6
CONTINUOUS
 62
     6
  5
13C
 10
49676.429548
 20
15253.583523
 30
0.0
 11
49696.189548
 21
15250.720023
 31
0.0
  0
LINE
  8
1
  6
CONTINUOUS
 62
     6
  5
13D
 10
49519.340548
 20
15250.937923
 30
0.0
 11
49520.327548
 21
15250.937923
 31
0.0
  0
LINE
  8
1
  6
CONTINUOUS
 62
     6
  5
13E
 10
49556.827548
 20
15251.437423
 30
0.0
 11
49556.827548
 21
15259.937723
 31
0.0
  0
LINE
  8
1
  6
CONTINUOUS
 62
     6
  5
13F
 10
49569.827548
 20
15251.437423
 30
0.0
 11
49569.827548
 21
15262.362023
 31
0.0
  0
LINE
  8
1
  6
CONTINUOUS
 62
     6
  5
140
 10
49573.327548
 20
15250.437523
 30
0.0
 11
49573.327548
 21
15249.413923
 31
0.0
  0
LINE
  8
1
  6
CONTINUOUS
 62
     6
  5
141
 10
49554.326548
 20
15251.437423
 30
0.0
 11
49556.827548
 21
15251.437423
 31
0.0
  0
LINE
  8
1
  6
CONTINUOUS
 62
     6
  5
142
 10
49553.327548
 20
15250.437523
 30
0.0
 11
49553.327548
 21
15249.763823
 31
0.0
  0
LINE
  8
1
  6
CONTINUOUS
 62
     6
  5
143
 10
49676.429548
 20
15253.583523
 30
0.0
 11
49660.167548
 21
15255.876623
 31
0.0
  0
LINE
  8
1
  6
CONTINUOUS
 62
     6
  5
144
 10
49659.770548
 20
15263.692723
 30
0.0
 11
49678.771548
 21
15260.941223
 31
0.0
  0
LINE
  8
1
  6
CONTINUOUS
 62
     6
  5
145
 10
49355.204548
 20
15259.937723
 30
0.0
 11
49455.778548
 21
15259.937723
 31
0.0
  0
LINE
  8
1
  6
CONTINUOUS
 62
     6
  5
146
 10
49573.805548
 20
15248.914323
 30
0.0
 11
49553.327548
 21
15249.763823
 31
0.0
  0
LINE
  8
1
  6
CONTINUOUS
 62
     6
  5
147
 10
49553.327548
 20
15249.763823
 30
0.0
 11
49521.060548
 21
15250.925623
 31
0.0
  0
ARC
  8
1
  6
CONTINUOUS
 62
     6
  5
148
 10
49576.135548
 20
15262.362023
 30
0.0
 40
6.308872
 50
122.94621
 51
180.0
  0
ARC
  8
1
  6
CONTINUOUS
 62
     6
  5
149
 10
49364.503548
 20
10453.479923
 30
0.0
 40
4799.9999
 50
86.36039
 51
87.50083
  0
ARC
  8
1
  6
CONTINUOUS
 62
     6
  5
14A
 10
49568.790548
 20
15273.697823
 30
0.0
 40
7.198903
 50
302.94621
 51
352.64929
  0
ARC
  8
1
  6
CONTINUOUS
 62
     6
  5
14B
 10
49569.864548
 20
15274.304123
 30
0.0
 40
6.13165
 50
356.57188
 51
66.54925
  0
ARC
  8
1
  6
CONTINUOUS
 62
     6
  5
14C
 10
49520.327548
 20
15228.437823
 30
0.0
 40
22.499997
 50
88.13088
 51
90.0
  0
ARC
  8
1
  6
CONTINUOUS
 62
     6
  5
14D
 10
49569.864548
 20
15274.304123
 30
0.0
 40
6.13165
 50
66.54925
 51
121.16062
  0
ARC
  8
1
  6
CONTINUOUS
 62
     6
  5
14E
 10
49577.889548
 20
15261.632423
 30
0.0
 40
21.129668
 50
122.00144
 51
184.600952
  0
ARC
  8
1
  6
CONTINUOUS
 62
     6
  5
14F
 10
49568.790548
 20
15273.697823
 30
0.0
 40
7.198903
 50
352.64929
 51
1.91317
  0
ARC
  8
1
  6
CONTINUOUS
 62
     6
  5
150
 10
49669.189548
 20
15328.697823
 30
0.0
 40
73.377499
 50
242.491363
 51
262.937911
  0
ARC
  8
1
  6
CONTINUOUS
 62
     6
  5
151
 10
49669.189548
 20
15328.697823
 30
0.0
 40
65.683445
 50
240.993988
 51
261.755752
  0
ARC
  8
1
  6
CONTINUOUS
 62
     6
  5
152
 10
49590.249548
 20
15168.624323
 30
0.0
 40
105.13228
 50
64.62867
 51
97.82847
  0
ARC
  8
1
  6
CONTINUOUS
 62
     6
  5
153
 10
49590.331548
 20
15166.986523
 30
0.0
 40
114.37279
 50
65.73258
 51
99.06886
  0
ARC
  8
1
  6
CONTINUOUS
 62
     6
  5
154
 10
49455.778548
 20
15247.938823
 30
0.0
 40
24.999963
 50
3.93588
 51
89.99769
  0
ARC
  8
1
  6
CONTINUOUS
 62
     6
  5
155
 10
49455.778548
 20
15247.938823
 30
0.0
 40
12.000323
 50
3.9373
 51
90.0
  0
ARC
  8
1
  6
CONTINUOUS
 62
     6
  5
156
 10
49736.798548
 20
15258.160023
 30
0.0
 40
7.999999
 50
18.11744
 51
82.5
  0
ARC
  8
1
  6
CONTINUOUS
 62
     6
  5
157
 10
49712.598548
 20
15261.346323
 30
0.0
 40
7.999999
 50
82.5
 51
147.08102
  0
ARC
  8
1
  6
CONTINUOUS
 62
     6
  5
158
 10
49573.827548
 20
15249.413923
 30
0.0
 40
0.5
 50
180.0
 51
267.500839
  0
ARC
  8
1
  6
CONTINUOUS
 62
     6
  5
159
 10
49554.326548
 20
15250.437523
 30
0.0
 40
1.0
 50
90.0
 51
180.0
  0
ARC
  8
1
  6
CONTINUOUS
 62
     6
  5
15A
 10
49572.326548
 20
15250.437523
 30
0.0
 40
1.0
 50
0.0
 51
90.0
  0
LINE
  8
1
  6
CONTINUOUS
 62
     6
  5
15B
 10
49259.827548
 20
15272.937523
 30
0.0
 11
49455.780548
 21
15272.937523
 31
0.0
  0
LINE
  8
1
  6
CONTINUOUS
 62
     6
  5
15C
 10
49696.189548
 20
15250.720023
 30
0.0
 11
49688.195548
 21
15238.371223
 31
0.0
  0
LINE
  8
1
  6
CONTINUOUS
 62
     6
  5
15D
 10
49592.826548
 20
14927.937923
 30
0.0
 11
49594.826548
 21
14927.937923
 31
0.0
  0
LINE
  8
1
  6
CONTINUOUS
 62
     6
  5
15E
 10
49592.826548
 20
15157.937623
 30
0.0
 11
49594.826548
 21
15157.937623
 31
0.0
  0
LINE
  8
1
  6
CONTINUOUS
 62
     6
  5
15F
 10
49592.826548
 20
15180.938123
 30
0.0
 11
49592.826548
 21
15157.937623
 31
0.0
  0
LINE
  8
1
  6
CONTINUOUS
 62
     6
  5
160
 10
49643.070548
 20
15181.938123
 30
0.0
 11
49593.827548
 21
15181.938123
 31
0.0
  0
LINE
  8
1
  6
CONTINUOUS
 62
     6
  5
161
 10
49681.339548
 20
15238.165623
 30
0.0
 11
49679.420548
 21
15235.127123
 31
0.0
  0
LINE
  8
1
  6
CONTINUOUS
 62
     6
  5
162
 10
49592.826548
 20
14904.937323
 30
0.0
 11
49592.826548
 21
14927.937923
 31
0.0
  0
LINE
  8
1
  6
CONTINUOUS
 62
     6
  5
163
 10
49594.826548
 20
15157.937623
 30
0.0
 11
49594.826548
 21
14927.937923
 31
0.0
  0
LINE
  8
1
  6
CONTINUOUS
 62
     6
  5
164
 10
49679.420548
 20
15235.127123
 30
0.0
 11
49677.072548
 21
15231.408023
 31
0.0
  0
LINE
  8
1
  6
CONTINUOUS
 62
     6
  5
165
 10
49677.072548
 20
15231.408023
 30
0.0
 11
49647.298548
 21
15184.267923
 31
0.0
  0
LINE
  8
1
  6
CONTINUOUS
 62
     6
  5
166
 10
49744.402548
 20
15260.648123
 30
0.0
 11
49751.385548
 21
15239.301223
 31
0.0
  0
LINE
  8
1
  6
CONTINUOUS
 62
     6
  5
167
 10
49496.840548
 20
15220.376723
 30
0.0
 11
49496.840548
 21
15228.437823
 31
0.0
  0
LINE
  8
1
  6
CONTINUOUS
 62
     6
  5
168
 10
49497.827548
 20
15218.937523
 30
0.0
 11
49496.840548
 21
15220.376723
 31
0.0
  0
LINE
  8
1
  6
CONTINUOUS
 62
     6
  5
169
 10
49647.665548
 20
15194.195123
 30
0.0
 11
49673.859548
 21
15234.543623
 31
0.0
  0
LINE
  8
1
  6
CONTINUOUS
 62
     6
  5
16A
 10
49497.827548
 20
15187.963423
 30
0.0
 11
49484.446548
 21
15185.538223
 31
0.0
  0
LINE
  8
1
  6
CONTINUOUS
 62
     6
  5
16B
 10
49666.963548
 20
15215.403923
 30
0.0
 11
49660.858548
 21
15214.516823
 31
0.0
  0
LINE
  8
1
  6
CONTINUOUS
 62
     6
  5
16C
 10
49643.070548
 20
15181.938123
 30
0.0
 11
49643.105548
 21
15181.938123
 31
0.0
  0
LINE
  8
1
  6
CONTINUOUS
 62
     6
  5
16D
 10
49688.195548
 20
15238.371223
 30
0.0
 11
49682.737548
 21
15238.859323
 31
0.0
  0
ARC
  8
1
  6
CONTINUOUS
 62
     6
  5
16E
 10
49672.827548
 20
15177.859523
 30
0.0
 40
30.0
 50
147.0075
 51
172.18695
  0
ARC
  8
1
  6
CONTINUOUS
 62
     6
  5
16F
 10
49668.827548
 20
15237.810423
 30
0.0
 40
5.999999
 50
327.0075
 51
86.36039
  0
ARC
  8
1
  6
CONTINUOUS
 62
     6
  5
170
 10
49596.830548
 20
14247.073123
 30
0.0
 40
995.49999
 50
75.98062
 51
84.73408
  0
ARC
  8
1
  6
CONTINUOUS
 62
     6
  5
171
 10
49643.070548
 20
15186.938023
 30
0.0
 40
5.0
 50
270.393463
 51
327.72434
  0
ARC
  8
1
  6
CONTINUOUS
 62
     6
  5
172
 10
49593.827548
 20
15180.938123
 30
0.0
 40
1.0
 50
90.0
 51
180.0
  0
ARC
  8
1
  6
CONTINUOUS
 62
     6
  5
173
 10
49682.608548
 20
15237.365123
 30
0.0
 40
1.5
 50
85.04942
 51
147.72434
  0
ARC
  8
1
  6
CONTINUOUS
 62
     6
  5
174
 10
49771.367548
 20
14924.881923
 30
0.0
 40
299.99999
 50
43.03169
 51
75.6267
  0
ARC
  8
1
  6
CONTINUOUS
 62
     6
  5
175
 10
49597.601548
 20
14246.792223
 30
0.0
 40
999.99992
 50
75.6267
 51
80.78688
  0
ARC
  8
1
  6
CONTINUOUS
 62
     6
  5
176
 10
49765.313548
 20
14921.856623
 30
0.0
 40
299.99999
 50
42.41888
 51
75.98062
  0
ARC
  8
1
  6
CONTINUOUS
 62
     6
  5
177
 10
49519.340548
 20
15228.437823
 30
0.0
 40
22.499997
 50
90.0
 51
180.0
  0
ARC
  8
1
  6
CONTINUOUS
 62
     6
  5
178
 10
49323.826548
 20
15042.938623
 30
0.0
 40
34.000178
 50
305.95042
 51
54.04956
  0
ARC
  8
1
  6
CONTINUOUS
 62
     6
  5
179
 10
49355.204548
 20
15219.938423
 30
0.0
 40
39.998995
 50
90.0
 51
159.26875
  0
ARC
  8
1
  6
CONTINUOUS
 62
     6
  5
17A
 10
49643.070548
 20
15186.938023
 30
0.0
 40
5.0
 50
270.0
 51
327.72434
  0
ARC
  8
1
  6
CONTINUOUS
 62
     6
  5
17B
 10
49758.990548
 20
15241.789323
 30
0.0
 40
7.999999
 50
198.117446
 51
260.78688
  0
ARC
  8
1
  6
CONTINUOUS
 62
     6
  5
17C
 10
49794.826548
 20
15042.937723
 30
0.0
 40
499.99876
 50
171.66778
 51
188.332062
  0
ARC
  8
1
  6
CONTINUOUS
 62
     6
  5
17D
 10
49319.894548
 20
14973.379823
 30
0.0
 40
20.000575
 50
125.95028
 51
188.328613
  0
ARC
  8
1
  6
CONTINUOUS
 62
     6
  5
17E
 10
49319.894548
 20
15112.496623
 30
0.0
 40
19.998938
 50
171.67095
 51
234.052017
  0
LINE
  8
1
  6
CONTINUOUS
 62
     6
  5
17F
 10
49343.787548
 20
15015.415023
 30
0.0
 11
49308.152548
 21
14989.570323
 31
0.0
  0
LINE
  8
1
  6
CONTINUOUS
 62
     6
  5
180
 10
49308.154548
 20
15096.306123
 30
0.0
 11
49343.787548
 21
15070.463123
 31
0.0
  0
LINE
  8
1
  6
CONTINUOUS
 62
     6
  5
181
 10
50611.836548
 20
12872.940108
 30
0.0
 11
50611.836548
 21
12842.940108
 31
0.0
  0
LINE
  8
1
  6
CONTINUOUS
 62
     6
  5
182
 10
50649.836548
 20
12874.939866
 30
0.0
 11
50611.836561
 21
12874.940108
 31
0.0
  0
LINE
  8
1
  6
CONTINUOUS
 62
     6
  5
183
 10
50651.836548
 20
12872.939853
 30
0.0
 11
50611.836548
 21
12872.940108
 31
0.0
  0
LINE
  8
1
  6
CONTINUOUS
 62
     6
  5
184
 10
50651.836548
 20
12867.939853
 30
0.0
 11
50651.836548
 21
12887.939853
 31
0.0
  0
LINE
  8
1
  6
CONTINUOUS
 62
     6
  5
185
 10
50672.836548
 20
12867.939719
 30
0.0
 11
50651.836548
 21
12867.939853
 31
0.0
  0
LINE
  8
1
  6
CONTINUOUS
 62
     6
  5
186
 10
50672.836548
 20
12887.939719
 30
0.0
 11
50651.836548
 21
12887.939853
 31
0.0
  0
LINE
  8
1
  6
CONTINUOUS
 62
     6
  5
187
 10
50672.836548
 20
12867.939719
 30
0.0
 11
50672.836548
 21
12887.939719
 31
0.0
  0
LINE
  8
1
  6
CONTINUOUS
 62
     6
  5
188
 10
50611.836561
 20
12874.940108
 30
0.0
 11
50611.836561
 21
13535.939123
 31
0.0
  0
LINE
  8
1
  6
CONTINUOUS
 62
     6
  5
189
 10
50649.836548
 20
12874.939866
 30
0.0
 11
50649.836548
 21
13535.939123
 31
0.0
  0
LINE
  8
1
  6
CONTINUOUS
 62
     6
  5
18A
 10
50611.836561
 20
13535.939123
 30
0.0
 11
50649.836548
 21
13535.939123
 31
0.0
  0
LINE
  8
1
  6
CONTINUOUS
 62
     6
  5
18B
 10
50611.836548
 20
13537.939123
 30
0.0
 11
50651.836548
 21
13537.939123
 31
0.0
  0
LINE
  8
1
  6
CONTINUOUS
 62
     6
  5
18C
 10
50611.836548
 20
13537.939123
 30
0.0
 11
50611.836548
 21
13567.939123
 31
0.0
  0
LINE
  8
1
  6
CONTINUOUS
 62
     6
  5
18D
 10
50651.836548
 20
13542.939123
 30
0.0
 11
50672.836548
 21
13542.939123
 31
0.0
  0
LINE
  8
1
  6
CONTINUOUS
 62
     6
  5
18E
 10
50651.836548
 20
13522.939123
 30
0.0
 11
50651.836548
 21
13537.939123
 31
0.0
  0
LINE
  8
1
  6
CONTINUOUS
 62
     6
  5
18F
 10
50651.836548
 20
13522.939123
 30
0.0
 11
50672.836548
 21
13522.939123
 31
0.0
  0
LINE
  8
1
  6
CONTINUOUS
 62
     6
  5
190
 10
50672.836548
 20
13522.939123
 30
0.0
 11
50672.836548
 21
13542.939123
 31
0.0
  0
LINE
  8
1
  6
CONTINUOUS
 62
     6
  5
191
 10
50651.836548
 20
13537.939123
 30
0.0
 11
50651.836548
 21
13542.939123
 31
0.0
  0
LINE
  8
1
  6
CONTINUOUS
 62
     6
  5
192
 10
50611.836548
 20
12842.940108
 30
0.0
 11
50731.836548
 21
12842.939234
 31
0.0
  0
LINE
  8
1
  6
CONTINUOUS
 62
     6
  5
193
 10
50731.836548
 20
12872.939343
 30
0.0
 11
50672.836548
 21
12872.939719
 31
0.0
  0
LINE
  8
1
  6
CONTINUOUS
 62
     6
  5
194
 10
50731.836548
 20
12872.939343
 30
0.0
 11
50731.836548
 21
12842.939234
 31
0.0
  0
LINE
  8
1
  6
CONTINUOUS
 62
     6
  5
195
 10
50672.836548
 20
13537.939123
 30
0.0
 11
50731.836548
 21
13537.939123
 31
0.0
  0
LINE
  8
1
  6
CONTINUOUS
 62
     6
  5
196
 10
50731.836548
 20
13567.939123
 30
0.0
 11
50611.836548
 21
13567.939123
 31
0.0
  0
LINE
  8
1
  6
CONTINUOUS
 62
     6
  5
197
 10
50731.836548
 20
13537.939123
 30
0.0
 11
50731.836548
 21
13567.939123
 31
0.0
  0
LINE
  8
1
  6
CONTINUOUS
 62
     6
  5
198
 10
49281.836548
 20
15722.938866
 30
0.0
 11
49261.836288
 21
15722.938866
 31
0.0
  0
LINE
  8
1
  6
CONTINUOUS
 62
     6
  5
199
 10
49281.836548
 20
15722.938866
 30
0.0
 11
49306.836872
 21
15722.938866
 31
0.0
  0
LINE
  8
1
  6
CONTINUOUS
 62
     6
  5
19A
 10
49296.836742
 20
15722.938866
 30
0.0
 11
49296.836742
 21
15731.938983
 31
0.0
  0
LINE
  8
1
  6
CONTINUOUS
 62
     6
  5
19B
 10
49321.837066
 20
15722.938866
 30
0.0
 11
49296.836742
 21
15722.938866
 31
0.0
  0
LINE
  8
1
  6
CONTINUOUS
 62
     6
  5
19C
 10
49305.836861
 20
15807.939983
 30
0.0
 11
49305.836861
 21
15792.939786
 31
0.0
  0
LINE
  8
1
  6
CONTINUOUS
 62
     6
  5
19D
 10
49761.836471
 20
15760.939359
 30
0.0
 11
49371.837727
 21
15760.939359
 31
0.0
  0
LINE
  8
1
  6
CONTINUOUS
 62
     6
  5
19E
 10
49761.836471
 20
15754.93928
 30
0.0
 11
49371.837727
 21
15754.93928
 31
0.0
  0
LINE
  8
1
  6
CONTINUOUS
 62
     6
  5
19F
 10
49281.836548
 20
15587.937042
 30
0.0
 11
49306.836872
 21
15587.937042
 31
0.0
  0
LINE
  8
1
  6
CONTINUOUS
 62
     6
  5
1A0
 10
49281.836548
 20
15587.937042
 30
0.0
 11
49281.836548
 21
15722.938866
 31
0.0
  0
LINE
  8
1
  6
CONTINUOUS
 62
     6
  5
1A1
 10
49306.836872
 20
15722.938866
 30
0.0
 11
49306.836872
 21
15587.937042
 31
0.0
  0
LINE
  8
1
  6
CONTINUOUS
 62
     6
  5
1A2
 10
49856.83765
 20
15722.938866
 30
0.0
 11
49876.83791
 21
15722.938866
 31
0.0
  0
LINE
  8
1
  6
CONTINUOUS
 62
     6
  5
1A3
 10
49856.83765
 20
15722.938866
 30
0.0
 11
49831.837327
 21
15722.938866
 31
0.0
  0
LINE
  8
1
  6
CONTINUOUS
 62
     6
  5
1A4
 10
49816.837132
 20
15722.938866
 30
0.0
 11
49841.837456
 21
15722.938866
 31
0.0
  0
LINE
  8
1
  6
CONTINUOUS
 62
     6
  5
1A5
 10
49841.837456
 20
15722.938866
 30
0.0
 11
49841.837456
 21
15731.938983
 31
0.0
  0
LINE
  8
1
  6
CONTINUOUS
 62
     6
  5
1A6
 10
49306.836872
 20
15587.937042
 30
0.0
 11
49831.837327
 21
15587.937042
 31
0.0
  0
LINE
  8
1
  6
CONTINUOUS
 62
     6
  5
1A7
 10
49856.83765
 20
15587.937042
 30
0.0
 11
49856.83765
 21
15722.938866
 31
0.0
  0
LINE
  8
1
  6
CONTINUOUS
 62
     6
  5
1A8
 10
49831.837327
 20
15722.938866
 30
0.0
 11
49831.837327
 21
15587.937042
 31
0.0
  0
LINE
  8
1
  6
CONTINUOUS
 62
     6
  5
1A9
 10
49832.837338
 20
15807.939983
 30
0.0
 11
49832.837338
 21
15792.939786
 31
0.0
  0
LINE
  8
1
  6
CONTINUOUS
 62
     6
  5
1AA
 10
49816.837128
 20
15722.938866
 30
0.0
 11
49321.837071
 21
15722.938866
 31
0.0
  0
LINE
  8
1
  6
CONTINUOUS
 62
     6
  5
1AB
 10
49816.837128
 20
15792.939786
 30
0.0
 11
49321.837071
 21
15792.939786
 31
0.0
  0
LINE
  8
1
  6
CONTINUOUS
 62
     6
  5
1AC
 10
49856.83765
 20
15587.937042
 30
0.0
 11
49831.837327
 21
15587.937042
 31
0.0
  0
LINE
  8
1
  6
CONTINUOUS
 62
     6
  5
1AD
 10
49826.836548
 20
12847.938962
 30
0.0
 11
49826.836548
 21
14337.938962
 31
0.0
  0
ARC
  8
1
  6
CONTINUOUS
 62
     6
  5
1AE
 10
49556.869548
 20
13737.965562
 30
0.0
 40
120.0
 50
53.62022
 51
126.38061
  0
ARC
  8
1
  6
CONTINUOUS
 62
     6
  5
1AF
 10
49761.873548
 20
13592.966962
 30
0.0
 40
379.99998
 50
157.03971
 51
202.96022
  0
ARC
  8
1
  6
CONTINUOUS
 62
     6
  5
1B0
 10
49619.153548
 20
13532.495562
 30
0.0
 40
224.99997
 50
202.96022
 51
233.620224
  0
ARC
  8
1
  6
CONTINUOUS
 62
     6
  5
1B1
 10
49619.149548
 20
13653.431462
 30
0.0
 40
224.99997
 50
126.38061
 51
157.03982
  0
CIRCLE
  8
1
  6
CONTINUOUS
 62
     6
  5
1B2
 10
49443.187548
 20
13592.938962
 30
0.0
 40
10.345423
  0
ARC
  8
1
  6
CONTINUOUS
 62
     6
  5
1B3
 10
49556.872548
 20
13447.968462
 30
0.0
 40
120.0
 50
233.620224
 51
306.38021
  0
ARC
  8
1
  6
CONTINUOUS
 62
     6
  5
1B4
 10
49351.875548
 20
13592.966962
 30
0.0
 40
379.99998
 50
337.04022
 51
22.96022
  0
ARC
  8
1
  6
CONTINUOUS
 62
     6
  5
1B5
 10
49494.588548
 20
13532.495562
 30
0.0
 40
224.99997
 50
306.38021
 51
337.04022
  0
ARC
  8
1
  6
CONTINUOUS
 62
     6
  5
1B6
 10
49494.592548
 20
13653.431462
 30
0.0
 40
224.99997
 50
22.96022
 51
53.62022
  0
LINE
  8
1
  6
CONTINUOUS
 62
     6
  5
1B7
 10
49826.836548
 20
14337.938962
 30
0.0
 11
49241.836548
 21
14337.938962
 31
0.0
  0
LINE
  8
1
  6
CONTINUOUS
 62
     6
  5
1B8
 10
49826.836548
 20
14337.938962
 30
0.0
 11
49826.836548
 21
14342.938962
 31
0.0
  0
LINE
  8
1
  6
CONTINUOUS
 62
     6
  5
1B9
 10
49826.836548
 20
12847.938962
 30
0.0
 11
49241.836548
 21
12847.938962
 31
0.0
  0
LINE
  8
1
  6
CONTINUOUS
 62
     6
  5
1BA
 10
49826.836548
 20
12842.938962
 30
0.0
 11
49826.836548
 21
12847.938962
 31
0.0
  0
ARC
  8
1
  6
CONTINUOUS
 62
     6
  5
1BB
 10
49897.827548
 20
15042.937723
 30
0.0
 40
126.99999
 50
316.96829
 51
43.03169
  0
ARC
  8
1
  6
CONTINUOUS
 62
     6
  5
1BC
 10
49897.827548
 20
15042.937723
 30
0.0
 40
120.49999
 50
317.5811
 51
42.41888
  0
LINE
  8
2
  6
CONTINUOUS
 62
     2
  5
1BD
 10
50651.836548
 20
12867.939853
 30
0.0
 11
50672.836548
 21
12887.939719
 31
0.0
  0
LINE
  8
2
  6
CONTINUOUS
 62
     2
  5
1BE
 10
50719.966126
 20
12842.939419
 30
0.0
 11
50695.198816
 21
12872.939576
 31
0.0
  0
LINE
  8
2
  6
CONTINUOUS
 62
     2
  5
1BF
 10
50611.836548
 20
12848.256067
 30
0.0
 11
50616.225282
 21
12842.94008
 31
0.0
  0
LINE
  8
2
  6
CONTINUOUS
 62
     2
  5
1C0
 10
50617.393183
 20
12872.940073
 30
0.0
 11
50642.160493
 21
12842.939915
 31
0.0
  0
LINE
  8
2
  6
CONTINUOUS
 62
     2
  5
1C1
 10
50643.328394
 20
12872.939907
 30
0.0
 11
50668.095704
 21
12842.939749
 31
0.0
  0
LINE
  8
2
  6
CONTINUOUS
 62
     2
  5
1C2
 10
50672.836548
 20
12874.130239
 30
0.0
 11
50666.336502
 21
12867.939761
 31
0.0
  0
LINE
  8
2
  6
CONTINUOUS
 62
     2
  5
1C3
 10
50694.030915
 20
12842.939584
 30
0.0
 11
50672.836548
 21
12868.611906
 31
0.0
  0
LINE
  8
2
  6
CONTINUOUS
 62
     2
  5
1C4
 10
50658.336594
 20
12887.939812
 30
0.0
 11
50651.836548
 21
12881.749333
 31
0.0
  0
LINE
  8
2
  6
CONTINUOUS
 62
     2
  5
1C5
 10
50651.836548
 20
13522.939123
 30
0.0
 11
50672.836548
 21
13542.939123
 31
0.0
  0
LINE
  8
2
  6
CONTINUOUS
 62
     2
  5
1C6
 10
50666.336548
 20
13522.939123
 30
0.0
 11
50672.836548
 21
13529.129599
 31
0.0
  0
LINE
  8
2
  6
CONTINUOUS
 62
     2
  5
1C7
 10
50658.336548
 20
13542.939123
 30
0.0
 11
50651.836548
 21
13536.748646
 31
0.0
  0
LINE
  8
2
  6
CONTINUOUS
 62
     2
  5
1C8
 10
50611.836548
 20
13543.256102
 30
0.0
 11
50616.226101
 21
13537.939123
 31
0.0
  0
LINE
  8
2
  6
CONTINUOUS
 62
     2
  5
1C9
 10
50617.393996
 20
13567.939123
 30
0.0
 11
50642.161176
 21
13537.939123
 31
0.0
  0
LINE
  8
2
  6
CONTINUOUS
 62
     2
  5
1CA
 10
50669.264145
 20
13567.939123
 30
0.0
 11
50694.031325
 21
13537.939123
 31
0.0
  0
LINE
  8
2
  6
CONTINUOUS
 62
     2
  5
1CB
 10
50695.199219
 20
13567.939123
 30
0.0
 11
50719.966399
 21
13537.939123
 31
0.0
  0
LINE
  8
2
  6
CONTINUOUS
 62
     2
  5
1CC
 10
50643.32907
 20
13567.939123
 30
0.0
 11
50663.968387
 21
13542.939123
 31
0.0
  0
LINE
  8
2
  6
CONTINUOUS
 62
     2
  5
1CD
 10
50721.134027
 20
12872.939411
 30
0.0
 11
50731.836548
 21
12859.975657
 31
0.0
  0
LINE
  8
2
  6
CONTINUOUS
 62
     2
  5
1CE
 10
50721.134294
 20
13567.939123
 30
0.0
 11
50731.836548
 21
13554.975691
 31
0.0
  0
LINE
  8
2
  6
CONTINUOUS
 62
     2
  5
1CF
 10
49306.836872
 20
15640.938131
 30
0.0
 11
49281.836548
 21
15665.938455
 31
0.0
  0
LINE
  8
2
  6
CONTINUOUS
 62
     2
  5
1D0
 10
49306.836872
 20
15604.168096
 30
0.0
 11
49281.836548
 21
15629.16842
 31
0.0
  0
LINE
  8
2
  6
CONTINUOUS
 62
     2
  5
1D1
 10
49299.765713
 20
15792.939786
 30
0.0
 11
49296.836742
 21
15795.868756
 31
0.0
  0
LINE
  8
2
  6
CONTINUOUS
 62
     2
  5
1D2
 10
49298.907837
 20
15807.939983
 30
0.0
 11
49305.836861
 21
15801.010959
 31
0.0
  0
LINE
  8
2
  6
CONTINUOUS
 62
     2
  5
1D3
 10
49305.836861
 20
15808.08212
 30
0.0
 11
49305.978998
 21
15807.939983
 31
0.0
  0
LINE
  8
2
  6
CONTINUOUS
 62
     2
  5
1D4
 10
49296.836742
 20
15802.939917
 30
0.0
 11
49305.836861
 21
15793.939799
 31
0.0
  0
LINE
  8
2
  6
CONTINUOUS
 62
     2
  5
1D5
 10
49306.836872
 20
15676.938594
 30
0.0
 11
49281.836548
 21
15703.188934
 31
0.0
  0
LINE
  8
2
  6
CONTINUOUS
 62
     2
  5
1D6
 10
49281.836548
 20
15592.398384
 30
0.0
 11
49286.29789
 21
15587.937042
 31
0.0
  0
LINE
  8
2
  6
CENTER
 62
     2
  5
1D7
 10
49891.838117
 20
15757.93932
 30
0.0
 11
49246.835974
 21
15757.93932
 31
0.0
  0
LINE
  8
2
  6
CONTINUOUS
 62
     2
  5
1D8
 10
49856.83765
 20
15660.938387
 30
0.0
 11
49831.837327
 21
15685.938711
 31
0.0
  0
LINE
  8
2
  6
CONTINUOUS
 62
     2
  5
1D9
 10
49831.837327
 20
15648.938235
 30
0.0
 11
49856.83765
 21
15626.021271
 31
0.0
  0
LINE
  8
2
  6
CONTINUOUS
 62
     2
  5
1DA
 10
49831.837327
 20
15613.666994
 30
0.0
 11
49856.83765
 21
15590.75003
 31
0.0
  0
LINE
  8
2
  6
CONTINUOUS
 62
     2
  5
1DB
 10
49838.908485
 20
15792.939786
 30
0.0
 11
49841.837456
 21
15795.868756
 31
0.0
  0
LINE
  8
2
  6
CONTINUOUS
 62
     2
  5
1DC
 10
49839.766361
 20
15807.939983
 30
0.0
 11
49832.837338
 21
15801.010959
 31
0.0
  0
LINE
  8
2
  6
CONTINUOUS
 62
     2
  5
1DD
 10
49841.837456
 20
15802.939917
 30
0.0
 11
49832.837338
 21
15793.939799
 31
0.0
  0
LINE
  8
2
  6
CONTINUOUS
 62
     2
  5
1DE
 10
49298.571422
 20
15722.938866
 30
0.0
 11
49306.836872
 21
15714.260144
 31
0.0
  0
LINE
  8
2
  6
CONTINUOUS
 62
     2
  5
1DF
 10
49831.837327
 20
15722.339154
 30
0.0
 11
49856.83765
 21
15697.33883
 31
0.0
  0
LINE
  8
4
  6
CENTER
 62
     2
  5
1E0
 10
49477.832828
 20
15757.93932
 30
0.0
 11
49241.836548
 21
15757.93932
 31
0.0
  0
LINE
  8
3
  6
CONTINUOUS
 62
     2
  5
1E1
 10
49241.836548
 20
13323.329425
 30
0.0
 11
49241.836548
 21
13223.329425
 31
0.0
  0
LINE
  8
3
  6
CONTINUOUS
 62
     2
  5
1E2
 10
49041.836548
 20
13323.329425
 30
0.0
 11
49041.836548
 21
13223.329425
 31
0.0
  0
LINE
  8
1
  6
CONTINUOUS
 62
     1
  5
1E3
 10
50611.836561
 20
12874.940108
 30
0.0
 11
49950.836561
 21
12874.940108
 31
0.0
  0
ARC
  8
1
  6
CONTINUOUS
 62
     1
  5
1E4
 10
50611.836561
 20
12874.940108
 30
0.0
 40
661.0
 50
90.0
 51
180.0
  0
LINE
  8
1
  6
CONTINUOUS
 62
     6
  5
1E5
 10
49286.836613
 20
15907.941268
 30
0.0
 11
49856.837586
 21
15907.941268
 31
0.0
  0
LINE
  8
1
  6
CONTINUOUS
 62
     6
  5
1E6
 10
49286.836613
 20
15907.941268
 30
0.0
 11
49286.836613
 21
15888.135715
 31
0.0
  0
LINE
  8
1
  6
CONTINUOUS
 62
     6
  5
1E7
 10
49856.837586
 20
15907.941268
 30
0.0
 11
49856.837586
 21
15887.941007
 31
0.0
  0
LINE
  8
7
  6
CONTINUOUS
 62
     3
  5
1E8
 10
50431.187339
 20
15602.914318
 30
0.0
 11
50396.128761
 21
15602.914318
 31
0.0
  0
LINE
  8
7
  6
CONTINUOUS
 62
     3
  5
1E9
 10
50047.546335
 20
15617.939423
 30
0.0
 11
50047.546335
 21
15602.914318
 31
0.0
  0
LINE
  8
7
  6
CONTINUOUS
 62
     3
  5
1EA
 10
49957.395707
 20
15602.914318
 30
0.0
 11
49957.395707
 21
15617.939423
 31
0.0
  0
LINE
  8
7
  6
CONTINUOUS
 62
     3
  5
1EB
 10
50012.487757
 20
15602.914318
 30
0.0
 11
50012.487757
 21
15572.864109
 31
0.0
  0
LINE
  8
7
  6
CONTINUOUS
 62
     3
  5
1EC
 10
49992.454284
 20
15602.914318
 30
0.0
 11
49992.454284
 21
15572.864109
 31
0.0
  0
LINE
  8
5
  6
CONTINUOUS
 62
     5
  5
1ED
 10
49241.836548
 20
12842.939162
 30
0.0
 11
50656.835548
 21
12842.939162
 31
0.0
  0
LINE
  8
5
  6
CONTINUOUS
 62
     5
  5
1EE
 10
50716.836548
 20
12692.937862
 30
0.0
 11
50716.836548
 21
12842.938062
 31
0.0
  0
LINE
  8
5
  6
CONTINUOUS
 62
     5
  5
1EF
 10
50716.836548
 20
12692.938062
 30
0.0
 11
50566.837548
 21
12692.938062
 31
0.0
  0
LINE
  8
5
  6
CONTINUOUS
 62
     5
  5
1F0
 10
49041.836548
 20
12692.939162
 30
0.0
 11
50656.835548
 21
12692.939162
 31
0.0
  0
LINE
  8
5
  6
CONTINUOUS
 62
     5
  5
1F1
 10
50716.836548
 20
13942.902299
 30
0.0
 11
50716.836548
 21
13567.939123
 31
0.0
  0
LINE
  8
5
  6
CONTINUOUS
 62
     5
  5
1F2
 10
49296.836742
 20
15792.939786
 30
0.0
 11
49296.836742
 21
15807.939983
 31
0.0
  0
LINE
  8
5
  6
CONTINUOUS
 62
     5
  5
1F3
 10
49306.836874
 20
15807.939983
 30
0.0
 11
49296.836742
 21
15807.939983
 31
0.0
  0
LINE
  8
5
  6
CONTINUOUS
 62
     5
  5
1F4
 10
49326.837136
 20
15772.939523
 30
0.0
 11
49386.837925
 21
15772.939523
 31
0.0
  0
LINE
  8
5
  6
CONTINUOUS
 62
     5
  5
1F5
 10
49326.837136
 20
15742.939129
 30
0.0
 11
49386.837925
 21
15742.939129
 31
0.0
  0
LINE
  8
5
  6
CONTINUOUS
 62
     5
  5
1F6
 10
49326.837136
 20
15742.939129
 30
0.0
 11
49326.837136
 21
15772.939523
 31
0.0
  0
LINE
  8
5
  6
CONTINUOUS
 62
     5
  5
1F7
 10
49371.837727
 20
15772.939523
 30
0.0
 11
49371.837727
 21
15772.939523
 31
0.0
  0
LINE
  8
5
  6
CONTINUOUS
 62
     5
  5
1F8
 10
49321.837071
 20
15737.939063
 30
0.0
 11
49339.837307
 21
15737.939063
 31
0.0
  0
LINE
  8
5
  6
CONTINUOUS
 62
     5
  5
1F9
 10
49321.837071
 20
15792.939786
 30
0.0
 11
49321.837071
 21
15737.939063
 31
0.0
  0
LINE
  8
5
  6
CONTINUOUS
 62
     5
  5
1FA
 10
49321.837071
 20
15792.939786
 30
0.0
 11
49296.836742
 21
15792.939786
 31
0.0
  0
LINE
  8
5
  6
CONTINUOUS
 62
     5
  5
1FB
 10
49296.836742
 20
15722.938866
 30
0.0
 11
49296.836742
 21
15792.939786
 31
0.0
  0
LINE
  8
5
  6
CONTINUOUS
 62
     5
  5
1FC
 10
49306.836874
 20
15877.940893
 30
0.0
 11
49306.836874
 21
15807.939983
 31
0.0
  0
LINE
  8
5
  6
CONTINUOUS
 62
     5
  5
1FD
 10
49296.642052
 20
15888.135715
 30
0.0
 11
49306.836874
 21
15877.940893
 31
0.0
  0
LINE
  8
5
  6
CONTINUOUS
 62
     5
  5
1FE
 10
49371.837727
 20
15754.939286
 30
0.0
 11
49386.837925
 21
15754.939286
 31
0.0
  0
LINE
  8
5
  6
CONTINUOUS
 62
     5
  5
1FF
 10
49386.837925
 20
15742.939129
 30
0.0
 11
49386.837925
 21
15754.939286
 31
0.0
  0
LINE
  8
5
  6
CONTINUOUS
 62
     5
  5
200
 10
49371.837727
 20
15760.939365
 30
0.0
 11
49386.949608
 21
15760.939365
 31
0.0
  0
LINE
  8
5
  6
CONTINUOUS
 62
     5
  5
201
 10
49386.837925
 20
15760.939365
 30
0.0
 11
49386.837925
 21
15772.939523
 31
0.0
  0
LINE
  8
5
  6
CONTINUOUS
 62
     5
  5
202
 10
49371.837727
 20
15754.939286
 30
0.0
 11
49371.837727
 21
15760.939365
 31
0.0
  0
LINE
  8
5
  6
CONTINUOUS
 62
     5
  5
203
 10
49339.837307
 20
15737.939063
 30
0.0
 11
49339.837307
 21
15729.938958
 31
0.0
  0
LINE
  8
5
  6
CONTINUOUS
 62
     5
  5
204
 10
49339.837307
 20
15729.938958
 30
0.0
 11
49321.837071
 21
15729.938958
 31
0.0
  0
LINE
  8
5
  6
CONTINUOUS
 62
     5
  5
205
 10
49321.837071
 20
15729.938958
 30
0.0
 11
49321.837071
 21
15722.938866
 31
0.0
  0
LINE
  8
5
  6
CONTINUOUS
 62
     5
  5
206
 10
49241.836548
 20
15617.937492
 30
0.0
 11
49281.836548
 21
15617.937492
 31
0.0
  0
LINE
  8
5
  6
CONTINUOUS
 62
     5
  5
207
 10
49841.837456
 20
15792.939786
 30
0.0
 11
49841.837456
 21
15807.939983
 31
0.0
  0
LINE
  8
5
  6
CONTINUOUS
 62
     5
  5
208
 10
49831.837325
 20
15807.939983
 30
0.0
 11
49841.837456
 21
15807.939983
 31
0.0
  0
LINE
  8
5
  6
CONTINUOUS
 62
     5
  5
209
 10
49841.837456
 20
15737.939063
 30
0.0
 11
49841.837456
 21
15737.939063
 31
0.0
  0
LINE
  8
5
  6
CONTINUOUS
 62
     5
  5
20A
 10
49811.837062
 20
15772.939523
 30
0.0
 11
49751.836274
 21
15772.939523
 31
0.0
  0
LINE
  8
5
  6
CONTINUOUS
 62
     5
  5
20B
 10
49811.837062
 20
15742.939129
 30
0.0
 11
49751.836274
 21
15742.939129
 31
0.0
  0
LINE
  8
5
  6
CONTINUOUS
 62
     5
  5
20C
 10
49811.837062
 20
15742.939129
 30
0.0
 11
49811.837062
 21
15772.939523
 31
0.0
  0
LINE
  8
5
  6
CONTINUOUS
 62
     5
  5
20D
 10
49766.836471
 20
15772.939523
 30
0.0
 11
49766.836471
 21
15772.939523
 31
0.0
  0
LINE
  8
5
  6
CONTINUOUS
 62
     5
  5
20E
 10
49816.837128
 20
15737.939063
 30
0.0
 11
49798.836891
 21
15737.939063
 31
0.0
  0
LINE
  8
5
  6
CONTINUOUS
 62
     5
  5
20F
 10
49816.837128
 20
15792.939786
 30
0.0
 11
49816.837128
 21
15737.939063
 31
0.0
  0
LINE
  8
5
  6
CONTINUOUS
 62
     5
  5
210
 10
49816.837128
 20
15792.939786
 30
0.0
 11
49841.837456
 21
15792.939786
 31
0.0
  0
LINE
  8
5
  6
CONTINUOUS
 62
     5
  5
211
 10
49831.837325
 20
15877.940893
 30
0.0
 11
49831.837325
 21
15807.939983
 31
0.0
  0
LINE
  8
5
  6
CONTINUOUS
 62
     5
  5
212
 10
49841.836516
 20
15887.940084
 30
0.0
 11
49831.837325
 21
15877.940893
 31
0.0
  0
LINE
  8
5
  6
CONTINUOUS
 62
     5
  5
213
 10
49841.837456
 20
15722.938866
 30
0.0
 11
49841.837456
 21
15792.939786
 31
0.0
  0
LINE
  8
5
  6
CONTINUOUS
 62
     5
  5
214
 10
49766.836471
 20
15760.939365
 30
0.0
 11
49751.724591
 21
15760.939365
 31
0.0
  0
LINE
  8
5
  6
CONTINUOUS
 62
     5
  5
215
 10
49751.836274
 20
15760.939365
 30
0.0
 11
49751.836274
 21
15772.939523
 31
0.0
  0
LINE
  8
5
  6
CONTINUOUS
 62
     5
  5
216
 10
49766.836471
 20
15754.939286
 30
0.0
 11
49751.836274
 21
15754.939286
 31
0.0
  0
LINE
  8
5
  6
CONTINUOUS
 62
     5
  5
217
 10
49751.836274
 20
15742.939129
 30
0.0
 11
49751.836274
 21
15754.939286
 31
0.0
  0
LINE
  8
5
  6
CONTINUOUS
 62
     5
  5
218
 10
49766.836471
 20
15754.939286
 30
0.0
 11
49766.836471
 21
15760.939365
 31
0.0
  0
LINE
  8
5
  6
CONTINUOUS
 62
     5
  5
219
 10
49798.836891
 20
15737.939063
 30
0.0
 11
49798.836891
 21
15729.938958
 31
0.0
  0
LINE
  8
5
  6
CONTINUOUS
 62
     5
  5
21A
 10
49798.836891
 20
15729.938958
 30
0.0
 11
49816.837128
 21
15729.938958
 31
0.0
  0
LINE
  8
5
  6
CONTINUOUS
 62
     5
  5
21B
 10
49816.837128
 20
15729.938958
 30
0.0
 11
49816.837128
 21
15722.938866
 31
0.0
  0
LINE
  8
5
  6
CONTINUOUS
 62
     5
  5
21C
 10
50561.83765
 20
15617.938797
 30
0.0
 11
49856.83765
 21
15617.942484
 31
0.0
  0
LINE
  8
5
  6
CONTINUOUS
 62
     5
  5
21D
 10
49826.836548
 20
14342.938962
 30
0.0
 11
49241.836548
 21
14342.938962
 31
0.0
  0
LINE
  8
5
  6
CONTINUOUS
 62
     5
  5
21E
 10
49241.836548
 20
14342.938962
 30
0.0
 11
49841.836548
 21
14342.938962
 31
0.0
  0
LINE
  8
5
  6
CONTINUOUS
 62
     5
  5
21F
 10
49841.836548
 20
14342.938962
 30
0.0
 11
49841.836548
 21
14462.938962
 31
0.0
  0
LINE
  8
5
  6
CONTINUOUS
 62
     5
  5
220
 10
49841.836548
 20
14462.938962
 30
0.0
 11
49241.836548
 21
14462.938962
 31
0.0
  0
LINE
  8
5
  6
CONTINUOUS
 62
     5
  5
221
 10
50566.837548
 20
13942.902299
 30
0.0
 11
50566.837548
 21
15617.939423
 31
0.0
  0
LINE
  8
5
  6
CONTINUOUS
 62
     5
  5
222
 10
50566.837548
 20
13567.939123
 30
0.0
 11
50716.836548
 21
13567.939123
 31
0.0
  0
LINE
  8
5
  6
CONTINUOUS
 62
     5
  5
223
 10
50566.837548
 20
13942.902299
 30
0.0
 11
50566.837548
 21
13567.939123
 31
0.0
  0
LINE
  8
5
  6
CONTINUOUS
 62
     5
  5
224
 10
49241.836548
 20
15617.937492
 30
0.0
 11
49241.836548
 21
12842.939162
 31
0.0
  0
LINE
  8
5
  6
CONTINUOUS
 62
     5
  5
225
 10
49296.642052
 20
15888.135715
 30
0.0
 11
49041.836548
 21
15888.135715
 31
0.0
  0
LINE
  8
5
  6
CONTINUOUS
 62
     5
  5
226
 10
50716.836548
 20
13942.902299
 30
0.0
 11
50716.836548
 21
15887.938103
 31
0.0
  0
LINE
  8
5
  6
CONTINUOUS
 62
     5
  5
227
 10
49041.836548
 20
15887.941895
 30
0.0
 11
50716.836548
 21
15887.938103
 31
0.0
  0
LINE
  8
5
  6
CONTINUOUS
 62
     5
  5
228
 10
49041.836548
 20
12692.939162
 30
0.0
 11
49041.836548
 21
15887.941895
 31
0.0
  0
LINE
  8
4
  6
CENTER
 62
     2
  5
229
 10
50641.836548
 20
15887.938273
 30
0.0
 11
50641.836548
 21
12692.939162
 31
0.0
  0
LINE
  8
4
  6
CENTER
 62
     2
  5
22A
 10
50716.836548
 20
12767.938162
 30
0.0
 11
49041.836548
 21
12767.938162
 31
0.0
  0
LINE
  8
5
  6
CONTINUOUS
 62
     5
  5
22B
 10
50716.836548
 20
12842.938962
 30
0.0
 11
49241.836548
 21
12842.938962
 31
0.0
  0
LINE
  8
4
  6
CENTER
 62
     2
  5
22C
 10
50716.836548
 20
15717.939123
 30
0.0
 11
49041.836548
 21
15717.939123
 31
0.0
  0
LINE
  8
4
  6
CENTER
 62
     2
  5
22D
 10
49141.836548
 20
15887.938273
 30
0.0
 11
49141.836548
 21
12692.939162
 31
0.0
  0
CIRCLE
  8
5
  6
CONTINUOUS
 62
     3
  5
22E
 10
50641.836548
 20
16232.938273
 30
0.0
 40
11.25
  0
CIRCLE
  8
5
  6
CONTINUOUS
 62
     3
  5
22F
 10
50959.335548
 20
15717.939123
 30
0.0
 40
7.5
  0
CIRCLE
  8
5
  6
CONTINUOUS
 62
     3
  5
230
 10
50859.335548
 20
15717.939123
 30
0.0
 40
7.5
  0
CIRCLE
  8
5
  6
CONTINUOUS
 62
     3
  5
231
 10
50959.335548
 20
12767.938162
 30
0.0
 40
7.5
  0
CIRCLE
  8
5
  6
CONTINUOUS
 62
     3
  5
232
 10
50859.335548
 20
12767.938162
 30
0.0
 40
7.5
  0
CIRCLE
  8
5
  6
CONTINUOUS
 62
     3
  5
233
 10
50859.335644
 20
12872.939167
 30
0.0
 40
7.5
  0
CIRCLE
  8
5
  6
CONTINUOUS
 62
     3
  5
234
 10
50859.335548
 20
13537.939123
 30
0.0
 40
7.5
  0
LINE
  8
5
  6
CONTINUOUS
 62
     3
  5
235
 10
50959.335548
 20
15717.939123
 30
0.0
 11
50759.335548
 21
15717.939123
 31
0.0
  0
LINE
  8
5
  6
CONTINUOUS
 62
     3
  5
236
 10
50859.335548
 20
15717.939123
 30
0.0
 11
50859.335548
 21
13537.939123
 31
0.0
  0
LINE
  8
5
  6
CONTINUOUS
 62
     3
  5
237
 10
50859.335548
 20
13537.939123
 30
0.0
 11
50759.335548
 21
13537.939123
 31
0.0
  0
LINE
  8
5
  6
CONTINUOUS
 62
     3
  5
238
 10
50859.335548
 20
13537.939123
 30
0.0
 11
50859.335644
 21
12872.939167
 31
0.0
  0
LINE
  8
5
  6
CONTINUOUS
 62
     3
  5
239
 10
50859.335644
 20
12872.939167
 30
0.0
 11
50759.335644
 21
12872.939167
 31
0.0
  0
LINE
  8
5
  6
CONTINUOUS
 62
     3
  5
23A
 10
50859.335644
 20
12872.939167
 30
0.0
 11
50859.335548
 21
12767.938162
 31
0.0
  0
LINE
  8
5
  6
CONTINUOUS
 62
     3
  5
23B
 10
50959.335548
 20
12767.938162
 30
0.0
 11
50959.335548
 21
15717.939123
 31
0.0
  0
LINE
  8
5
  6
CONTINUOUS
 62
     3
  5
23C
 10
50959.335548
 20
12767.938162
 30
0.0
 11
50759.335548
 21
12767.938162
 31
0.0
  0
LINE
  8
2
  6
CONTINUOUS
 62
     2
  5
23D
 10
49903.015548
 20
8862.134583
 30
0.0
 11
49382.015548
 21
8862.134583
 31
0.0
  0
LINE
  8
5
  6
CONTINUOUS
 62
     5
  5
23E
 10
49241.836548
 20
11512.134683
 30
0.0
 11
50566.837548
 21
11512.134683
 31
0.0
  0
LINE
  8
5
  6
CONTINUOUS
 62
     5
  5
23F
 10
50566.837548
 20
11512.134683
 30
0.0
 11
50566.837548
 21
8862.134583
 31
0.0
  0
LINE
  8
5
  6
CONTINUOUS
 62
     5
  5
240
 10
49241.836548
 20
11512.134683
 30
0.0
 11
49241.836548
 21
8862.134583
 31
0.0
  0
LINE
  8
5
  6
CONTINUOUS
 62
     5
  5
241
 10
49241.836548
 20
8862.134583
 30
0.0
 11
50566.837548
 21
8862.134583
 31
0.0
  0
LINE
  8
7
  6
CENTER
 62
     3
  5
242
 10
49996.837548
 20
10112.134583
 30
0.0
 11
49996.837548
 21
9512.134583
 31
0.0
  0
LINE
  8
7
  6
CENTER
 62
     3
  5
243
 10
50446.837548
 20
10112.134583
 30
0.0
 11
49996.837548
 21
10112.134583
 31
0.0
  0
LINE
  8
7
  6
CENTER
 62
     3
  5
244
 10
50446.837548
 20
9512.134583
 30
0.0
 11
49996.837548
 21
9512.134583
 31
0.0
  0
LINE
  8
7
  6
CENTER
 62
     3
  5
245
 10
50446.837548
 20
10112.134583
 30
0.0
 11
50446.837548
 21
9512.134583
 31
0.0
  0
LINE
  8
7
  6
CONTINUOUS
 62
     4
  5
246
 10
50114.437548
 20
9976.534583
 30
0.0
 11
50029.237548
 21
9976.534583
 31
0.0
  0
LINE
  8
7
  6
CONTINUOUS
 62
     4
  5
247
 10
50114.437548
 20
9947.734583
 30
0.0
 11
50029.237548
 21
9947.734583
 31
0.0
  0
LINE
  8
7
  6
CONTINUOUS
 62
     4
  5
248
 10
50114.437548
 20
9826.534583
 30
0.0
 11
50029.237548
 21
9826.534583
 31
0.0
  0
LINE
  8
7
  6
CONTINUOUS
 62
     4
  5
249
 10
50264.437548
 20
9976.534583
 30
0.0
 11
50179.237548
 21
9976.534583
 31
0.0
  0
ARC
  8
7
  6
CONTINUOUS
 62
     4
  5
24A
 10
50179.237548
 20
9994.534583
 30
0.0
 40
18.0
 50
180.0
 51
270.0
  0
ARC
  8
7
  6
CONTINUOUS
 62
     4
  5
24B
 10
50264.437548
 20
9994.534583
 30
0.0
 40
18.0
 50
270.0
 51
0.0
  0
LINE
  8
7
  6
CONTINUOUS
 62
     4
  5
24C
 10
50132.437548
 20
9929.734583
 30
0.0
 11
50132.437548
 21
9844.534583
 31
0.0
  0
ARC
  8
7
  6
CONTINUOUS
 62
     4
  5
24D
 10
50114.437548
 20
9994.534583
 30
0.0
 40
18.0
 50
270.0
 51
0.0
  0
ARC
  8
7
  6
CONTINUOUS
 62
     4
  5
24E
 10
50114.437548
 20
9929.734583
 30
0.0
 40
18.0
 50
0.0
 51
90.0
  0
ARC
  8
7
  6
CONTINUOUS
 62
     4
  5
24F
 10
50114.437548
 20
9844.534583
 30
0.0
 40
18.0
 50
270.0
 51
0.0
  0
ARC
  8
7
  6
CONTINUOUS
 62
     4
  5
250
 10
50027.437548
 20
10081.534583
 30
0.0
 40
45.0
 50
90.0
 51
180.0
  0
ARC
  8
7
  6
CONTINUOUS
 62
     4
  5
251
 10
50029.237548
 20
10079.734583
 30
0.0
 40
18.0
 50
90.0
 51
180.0
  0
LINE
  8
7
  6
CONTINUOUS
 62
     4
  5
252
 10
50161.237548
 20
10079.734583
 30
0.0
 11
50161.237548
 21
9994.534583
 31
0.0
  0
LINE
  8
7
  6
CONTINUOUS
 62
     4
  5
253
 10
50132.437548
 20
10079.734583
 30
0.0
 11
50132.437548
 21
9994.534583
 31
0.0
  0
LINE
  8
7
  6
CONTINUOUS
 62
     4
  5
254
 10
50282.437548
 20
10079.734583
 30
0.0
 11
50282.437548
 21
9994.534583
 31
0.0
  0
ARC
  8
7
  6
CONTINUOUS
 62
     4
  5
255
 10
50416.237548
 20
9542.734583
 30
0.0
 40
45.0
 50
270.0
 51
0.0
  0
ARC
  8
7
  6
CONTINUOUS
 62
     4
  5
256
 10
50414.437548
 20
9544.534583
 30
0.0
 40
18.0
 50
270.0
 51
0.0
  0
ARC
  8
7
  6
CONTINUOUS
 62
     4
  5
257
 10
50329.237548
 20
9544.534583
 30
0.0
 40
18.0
 50
180.0
 51
270.0
  0
LINE
  8
7
  6
CONTINUOUS
 62
     4
  5
258
 10
50432.437548
 20
9629.734583
 30
0.0
 11
50432.437548
 21
9544.534583
 31
0.0
  0
LINE
  8
7
  6
CONTINUOUS
 62
     4
  5
259
 10
50329.237548
 20
9647.734583
 30
0.0
 11
50414.437548
 21
9647.734583
 31
0.0
  0
LINE
  8
7
  6
CONTINUOUS
 62
     4
  5
25A
 10
50329.237548
 20
9676.534583
 30
0.0
 11
50414.437548
 21
9676.534583
 31
0.0
  0
LINE
  8
7
  6
CONTINUOUS
 62
     4
  5
25B
 10
50311.237548
 20
9629.734583
 30
0.0
 11
50311.237548
 21
9544.534583
 31
0.0
  0
LINE
  8
7
  6
CONTINUOUS
 62
     4
  5
25C
 10
50311.237548
 20
9779.734583
 30
0.0
 11
50311.237548
 21
9694.534583
 31
0.0
  0
ARC
  8
7
  6
CONTINUOUS
 62
     4
  5
25D
 10
50329.237548
 20
9629.734583
 30
0.0
 40
18.0
 50
90.0
 51
180.0
  0
ARC
  8
7
  6
CONTINUOUS
 62
     4
  5
25E
 10
50329.237548
 20
9694.534583
 30
0.0
 40
18.0
 50
180.0
 51
270.0
  0
ARC
  8
7
  6
CONTINUOUS
 62
     4
  5
25F
 10
50414.437548
 20
9844.534583
 30
0.0
 40
18.0
 50
270.0
 51
0.0
  0
ARC
  8
7
  6
CONTINUOUS
 62
     4
  5
260
 10
50414.437548
 20
9779.734583
 30
0.0
 40
18.0
 50
0.0
 51
90.0
  0
LINE
  8
7
  6
CONTINUOUS
 62
     4
  5
261
 10
50432.437548
 20
9779.734583
 30
0.0
 11
50432.437548
 21
9694.534583
 31
0.0
  0
LINE
  8
7
  6
CONTINUOUS
 62
     4
  5
262
 10
50432.437548
 20
9929.734583
 30
0.0
 11
50432.437548
 21
9844.534583
 31
0.0
  0
LINE
  8
7
  6
CONTINUOUS
 62
     4
  5
263
 10
50329.237548
 20
9826.534583
 30
0.0
 11
50414.437548
 21
9826.534583
 31
0.0
  0
LINE
  8
7
  6
CONTINUOUS
 62
     4
  5
264
 10
50329.237548
 20
9797.734583
 30
0.0
 11
50414.837548
 21
9797.734583
 31
0.0
  0
ARC
  8
7
  6
CONTINUOUS
 62
     4
  5
265
 10
50414.437548
 20
9629.734583
 30
0.0
 40
18.0
 50
0.0
 51
90.0
  0
ARC
  8
7
  6
CONTINUOUS
 62
     4
  5
266
 10
50414.437548
 20
9694.534583
 30
0.0
 40
18.0
 50
270.0
 51
0.0
  0
ARC
  8
7
  6
CONTINUOUS
 62
     4
  5
267
 10
50421.337548
 20
9692.434583
 30
0.0
 40
7.7
 50
210.0
 51
30.0
  0
ARC
  8
7
  6
CONTINUOUS
 62
     4
  5
268
 10
50421.337548
 20
9692.434583
 30
0.0
 40
6.8
 50
210.0
 51
30.0
  0
LINE
  8
7
  6
CONTINUOUS
 62
     4
  5
269
 10
50411.237548
 20
9694.734583
 30
0.0
 11
50414.737548
 21
9688.634583
 31
0.0
  0
LINE
  8
7
  6
CONTINUOUS
 62
     4
  5
26A
 10
50415.537548
 20
9689.134583
 30
0.0
 11
50412.337548
 21
9694.534583
 31
0.0
  0
ARC
  8
7
  6
CONTINUOUS
 62
     4
  5
26B
 10
50438.837548
 20
9662.134583
 30
0.0
 40
41.8
 50
110.63
 51
129.02
  0
LINE
  8
7
  6
CONTINUOUS
 62
     4
  5
26C
 10
50427.237548
 20
9695.834583
 30
0.0
 11
50424.137548
 21
9701.234583
 31
0.0
  0
LINE
  8
7
  6
CONTINUOUS
 62
     4
  5
26D
 10
50424.537548
 20
9702.334583
 30
0.0
 11
50428.037548
 21
9696.334583
 31
0.0
  0
ARC
  8
7
  6
CONTINUOUS
 62
     4
  5
26E
 10
50421.337548
 20
9631.834583
 30
0.0
 40
7.7
 50
330.0
 51
150.0
  0
ARC
  8
7
  6
CONTINUOUS
 62
     4
  5
26F
 10
50421.337548
 20
9631.834583
 30
0.0
 40
6.8
 50
330.0
 51
150.0
  0
LINE
  8
7
  6
CONTINUOUS
 62
     4
  5
270
 10
50424.437548
 20
9621.934583
 30
0.0
 11
50427.937548
 21
9628.034583
 31
0.0
  0
LINE
  8
7
  6
CONTINUOUS
 62
     4
  5
271
 10
50427.137548
 20
9628.434583
 30
0.0
 11
50424.037548
 21
9623.034583
 31
0.0
  0
ARC
  8
7
  6
CONTINUOUS
 62
     4
  5
272
 10
50438.837548
 20
9662.134583
 30
0.0
 40
41.8
 50
230.63
 51
249.02
  0
LINE
  8
7
  6
CONTINUOUS
 62
     4
  5
273
 10
50415.437548
 20
9635.234583
 30
0.0
 11
50412.337548
 21
9629.834583
 31
0.0
  0
LINE
  8
7
  6
CONTINUOUS
 62
     4
  5
274
 10
50411.137548
 20
9629.634583
 30
0.0
 11
50414.637548
 21
9635.634583
 31
0.0
  0
ARC
  8
7
  6
DIVIDE
 62
     4
  5
275
 10
50438.837548
 20
9662.134583
 30
0.0
 40
42.7
 50
98.62
 51
160.29
  0
ARC
  8
7
  6
DIVIDE
 62
     4
  5
276
 10
50438.837548
 20
9662.134583
 30
0.0
 40
42.7
 50
199.71
 51
261.38
  0
ARC
  8
7
  6
CONTINUOUS
 62
     4
  5
277
 10
50438.837548
 20
9662.134583
 30
0.0
 40
45.0
 50
98.18
 51
161.32
  0
ARC
  8
7
  6
CONTINUOUS
 62
     4
  5
278
 10
50438.837548
 20
9662.134583
 30
0.0
 40
45.0
 50
198.68
 51
261.82
  0
CIRCLE
  8
7
  6
CONTINUOUS
 62
     4
  5
279
 10
50421.337548
 20
9692.434583
 30
0.0
 40
4.0
  0
CIRCLE
  8
7
  6
CONTINUOUS
 62
     4
  5
27A
 10
50421.337548
 20
9692.434583
 30
0.0
 40
4.4
  0
CIRCLE
  8
7
  6
CONTINUOUS
 62
     4
  5
27B
 10
50421.337548
 20
9631.834583
 30
0.0
 40
4.0
  0
CIRCLE
  8
7
  6
CONTINUOUS
 62
     4
  5
27C
 10
50421.337548
 20
9631.834583
 30
0.0
 40
4.4
  0
LINE
  8
7
  6
CONTINUOUS
 62
     4
  5
27D
 10
50161.237548
 20
9929.734583
 30
0.0
 11
50161.237548
 21
9844.534583
 31
0.0
  0
LINE
  8
7
  6
CONTINUOUS
 62
     4
  5
27E
 10
50264.437548
 20
9947.734583
 30
0.0
 11
50179.237548
 21
9947.734583
 31
0.0
  0
LINE
  8
7
  6
CONTINUOUS
 62
     4
  5
27F
 10
50264.437548
 20
9826.534583
 30
0.0
 11
50179.237548
 21
9826.534583
 31
0.0
  0
LINE
  8
7
  6
CONTINUOUS
 62
     4
  5
280
 10
50282.437548
 20
9929.734583
 30
0.0
 11
50282.437548
 21
9844.534583
 31
0.0
  0
ARC
  8
7
  6
CONTINUOUS
 62
     4
  5
281
 10
50179.237548
 20
9929.734583
 30
0.0
 40
18.0
 50
90.0
 51
180.0
  0
ARC
  8
7
  6
CONTINUOUS
 62
     4
  5
282
 10
50264.437548
 20
9929.734583
 30
0.0
 40
18.0
 50
0.0
 51
90.0
  0
ARC
  8
7
  6
CONTINUOUS
 62
     4
  5
283
 10
50179.237548
 20
9844.534583
 30
0.0
 40
18.0
 50
180.0
 51
270.0
  0
ARC
  8
7
  6
CONTINUOUS
 62
     4
  5
284
 10
50264.437548
 20
9844.534583
 30
0.0
 40
18.0
 50
270.0
 51
0.0
  0
LINE
  8
7
  6
CONTINUOUS
 62
     4
  5
285
 10
50311.237548
 20
9929.734583
 30
0.0
 11
50311.237548
 21
9844.534583
 31
0.0
  0
ARC
  8
7
  6
CONTINUOUS
 62
     4
  5
286
 10
50329.237548
 20
9844.534583
 30
0.0
 40
18.0
 50
180.0
 51
270.0
  0
ARC
  8
7
  6
CONTINUOUS
 62
     4
  5
287
 10
50329.237548
 20
9779.734583
 30
0.0
 40
18.0
 50
90.0
 51
180.0
  0
LINE
  8
7
  6
CONTINUOUS
 62
     4
  5
288
 10
50329.237548
 20
9976.534583
 30
0.0
 11
50414.437548
 21
9976.534583
 31
0.0
  0
ARC
  8
7
  6
CONTINUOUS
 62
     4
  5
289
 10
50416.237548
 20
10081.534583
 30
0.0
 40
45.0
 50
0.0
 51
90.0
  0
LINE
  8
7
  6
CONTINUOUS
 62
     4
  5
28A
 10
50432.437548
 20
10079.734583
 30
0.0
 11
50432.437548
 21
9994.534583
 31
0.0
  0
ARC
  8
7
  6
CONTINUOUS
 62
     4
  5
28B
 10
50414.437548
 20
9994.534583
 30
0.0
 40
18.0
 50
270.0
 51
0.0
  0
ARC
  8
7
  6
CONTINUOUS
 62
     4
  5
28C
 10
50421.337548
 20
9992.434583
 30
0.0
 40
7.7
 50
210.0
 51
30.0
  0
ARC
  8
7
  6
CONTINUOUS
 62
     4
  5
28D
 10
50421.337548
 20
9992.434583
 30
0.0
 40
6.8
 50
210.0
 51
30.0
  0
LINE
  8
7
  6
CONTINUOUS
 62
     4
  5
28E
 10
50411.237548
 20
9994.734583
 30
0.0
 11
50414.737548
 21
9988.634583
 31
0.0
  0
LINE
  8
7
  6
CONTINUOUS
 62
     4
  5
28F
 10
50415.537548
 20
9989.134583
 30
0.0
 11
50412.337548
 21
9994.534583
 31
0.0
  0
ARC
  8
7
  6
CONTINUOUS
 62
     4
  5
290
 10
50438.837548
 20
9962.134583
 30
0.0
 40
41.8
 50
110.63
 51
129.02
  0
LINE
  8
7
  6
CONTINUOUS
 62
     4
  5
291
 10
50427.237548
 20
9995.834583
 30
0.0
 11
50424.137548
 21
10001.234583
 31
0.0
  0
LINE
  8
7
  6
CONTINUOUS
 62
     4
  5
292
 10
50424.537548
 20
10002.334583
 30
0.0
 11
50428.037548
 21
9996.334583
 31
0.0
  0
ARC
  8
7
  6
DIVIDE
 62
     4
  5
293
 10
50438.837548
 20
9962.134583
 30
0.0
 40
42.7
 50
98.62
 51
160.29
  0
ARC
  8
7
  6
CONTINUOUS
 62
     4
  5
294
 10
50438.837548
 20
9962.134583
 30
0.0
 40
45.0
 50
98.18
 51
161.32
  0
CIRCLE
  8
7
  6
CONTINUOUS
 62
     4
  5
295
 10
50421.337548
 20
9992.434583
 30
0.0
 40
4.0
  0
CIRCLE
  8
7
  6
CONTINUOUS
 62
     4
  5
296
 10
50421.337548
 20
9992.434583
 30
0.0
 40
4.4
  0
ARC
  8
7
  6
CONTINUOUS
 62
     4
  5
297
 10
50329.237548
 20
9994.534583
 30
0.0
 40
18.0
 50
180.0
 51
270.0
  0
LINE
  8
7
  6
CONTINUOUS
 62
     4
  5
298
 10
50311.237548
 20
10079.734583
 30
0.0
 11
50311.237548
 21
9994.534583
 31
0.0
  0
LINE
  8
7
  6
CONTINUOUS
 62
     4
  5
299
 10
50329.237548
 20
9947.734583
 30
0.0
 11
50414.437548
 21
9947.734583
 31
0.0
  0
ARC
  8
7
  6
CONTINUOUS
 62
     4
  5
29A
 10
50414.437548
 20
9929.734583
 30
0.0
 40
18.0
 50
0.0
 51
90.0
  0
ARC
  8
7
  6
CONTINUOUS
 62
     4
  5
29B
 10
50421.337548
 20
9931.834583
 30
0.0
 40
7.7
 50
330.0
 51
150.0
  0
ARC
  8
7
  6
CONTINUOUS
 62
     4
  5
29C
 10
50421.337548
 20
9931.834583
 30
0.0
 40
6.8
 50
330.0
 51
150.0
  0
LINE
  8
7
  6
CONTINUOUS
 62
     4
  5
29D
 10
50424.437548
 20
9921.934583
 30
0.0
 11
50427.937548
 21
9928.034583
 31
0.0
  0
LINE
  8
7
  6
CONTINUOUS
 62
     4
  5
29E
 10
50427.137548
 20
9928.434583
 30
0.0
 11
50424.037548
 21
9923.034583
 31
0.0
  0
ARC
  8
7
  6
CONTINUOUS
 62
     4
  5
29F
 10
50438.837548
 20
9962.134583
 30
0.0
 40
41.8
 50
230.63
 51
249.02
  0
LINE
  8
7
  6
CONTINUOUS
 62
     4
  5
2A0
 10
50415.437548
 20
9935.234583
 30
0.0
 11
50412.337548
 21
9929.834583
 31
0.0
  0
LINE
  8
7
  6
CONTINUOUS
 62
     4
  5
2A1
 10
50411.137548
 20
9929.634583
 30
0.0
 11
50414.637548
 21
9935.634583
 31
0.0
  0
ARC
  8
7
  6
DIVIDE
 62
     4
  5
2A2
 10
50438.837548
 20
9962.134583
 30
0.0
 40
42.7
 50
199.71
 51
261.38
  0
ARC
  8
7
  6
CONTINUOUS
 62
     4
  5
2A3
 10
50438.837548
 20
9962.134583
 30
0.0
 40
45.0
 50
198.68
 51
261.82
  0
CIRCLE
  8
7
  6
CONTINUOUS
 62
     4
  5
2A4
 10
50421.337548
 20
9931.834583
 30
0.0
 40
4.0
  0
CIRCLE
  8
7
  6
CONTINUOUS
 62
     4
  5
2A5
 10
50421.337548
 20
9931.834583
 30
0.0
 40
4.4
  0
ARC
  8
7
  6
CONTINUOUS
 62
     4
  5
2A6
 10
50329.237548
 20
9929.734583
 30
0.0
 40
18.0
 50
90.0
 51
180.0
  0
ARC
  8
7
  6
CONTINUOUS
 62
     4
  5
2A7
 10
50027.437548
 20
9542.734583
 30
0.0
 40
45.0
 50
180.0
 51
270.0
  0
ARC
  8
7
  6
CONTINUOUS
 62
     4
  5
2A8
 10
50114.437548
 20
9544.534583
 30
0.0
 40
18.0
 50
270.0
 51
0.0
  0
LINE
  8
7
  6
CONTINUOUS
 62
     4
  5
2A9
 10
50114.437548
 20
9647.734583
 30
0.0
 11
50029.237548
 21
9647.734583
 31
0.0
  0
LINE
  8
7
  6
CONTINUOUS
 62
     4
  5
2AA
 10
50132.437548
 20
9629.734583
 30
0.0
 11
50132.437548
 21
9544.534583
 31
0.0
  0
LINE
  8
7
  6
CONTINUOUS
 62
     4
  5
2AB
 10
50132.437548
 20
9779.734583
 30
0.0
 11
50132.437548
 21
9694.534583
 31
0.0
  0
ARC
  8
7
  6
CONTINUOUS
 62
     4
  5
2AC
 10
50114.437548
 20
9629.734583
 30
0.0
 40
18.0
 50
0.0
 51
90.0
  0
ARC
  8
7
  6
CONTINUOUS
 62
     4
  5
2AD
 10
50114.437548
 20
9694.534583
 30
0.0
 40
18.0
 50
270.0
 51
0.0
  0
LINE
  8
7
  6
CONTINUOUS
 62
     4
  5
2AE
 10
50114.437548
 20
9676.534583
 30
0.0
 11
50029.237548
 21
9676.534583
 31
0.0
  0
LINE
  8
7
  6
CONTINUOUS
 62
     4
  5
2AF
 10
50114.437548
 20
9797.734583
 30
0.0
 11
50028.837548
 21
9797.734583
 31
0.0
  0
ARC
  8
7
  6
CONTINUOUS
 62
     4
  5
2B0
 10
50114.437548
 20
9779.734583
 30
0.0
 40
18.0
 50
0.0
 51
90.0
  0
ARC
  8
7
  6
CONTINUOUS
 62
     4
  5
2B1
 10
50179.237548
 20
9544.534583
 30
0.0
 40
18.0
 50
180.0
 51
270.0
  0
ARC
  8
7
  6
CONTINUOUS
 62
     4
  5
2B2
 10
50264.437548
 20
9544.534583
 30
0.0
 40
18.0
 50
270.0
 51
0.0
  0
LINE
  8
7
  6
CONTINUOUS
 62
     4
  5
2B3
 10
50161.237548
 20
9629.734583
 30
0.0
 11
50161.237548
 21
9544.534583
 31
0.0
  0
LINE
  8
7
  6
CONTINUOUS
 62
     4
  5
2B4
 10
50282.437548
 20
9629.734583
 30
0.0
 11
50282.437548
 21
9544.534583
 31
0.0
  0
LINE
  8
7
  6
CONTINUOUS
 62
     4
  5
2B5
 10
50264.437548
 20
9676.534583
 30
0.0
 11
50179.237548
 21
9676.534583
 31
0.0
  0
LINE
  8
7
  6
CONTINUOUS
 62
     4
  5
2B6
 10
50264.437548
 20
9647.734583
 30
0.0
 11
50179.237548
 21
9647.734583
 31
0.0
  0
LINE
  8
7
  6
CONTINUOUS
 62
     4
  5
2B7
 10
50161.237548
 20
9779.734583
 30
0.0
 11
50161.237548
 21
9694.534583
 31
0.0
  0
LINE
  8
7
  6
CONTINUOUS
 62
     4
  5
2B8
 10
50282.437548
 20
9779.734583
 30
0.0
 11
50282.437548
 21
9694.534583
 31
0.0
  0
ARC
  8
7
  6
CONTINUOUS
 62
     4
  5
2B9
 10
50179.237548
 20
9694.534583
 30
0.0
 40
18.0
 50
180.0
 51
270.0
  0
ARC
  8
7
  6
CONTINUOUS
 62
     4
  5
2BA
 10
50264.437548
 20
9629.734583
 30
0.0
 40
18.0
 50
0.0
 51
90.0
  0
ARC
  8
7
  6
CONTINUOUS
 62
     4
  5
2BB
 10
50264.437548
 20
9694.534583
 30
0.0
 40
18.0
 50
270.0
 51
0.0
  0
ARC
  8
7
  6
CONTINUOUS
 62
     4
  5
2BC
 10
50179.237548
 20
9629.734583
 30
0.0
 40
18.0
 50
90.0
 51
180.0
  0
LINE
  8
7
  6
CONTINUOUS
 62
     4
  5
2BD
 10
50264.437548
 20
9797.734583
 30
0.0
 11
50178.937548
 21
9797.734583
 31
0.0
  0
ARC
  8
7
  6
CONTINUOUS
 62
     4
  5
2BE
 10
50179.237548
 20
9779.734583
 30
0.0
 40
18.0
 50
90.0
 51
180.0
  0
ARC
  8
7
  6
CONTINUOUS
 62
     4
  5
2BF
 10
50264.437548
 20
9779.734583
 30
0.0
 40
18.0
 50
0.0
 51
90.0
  0
LINE
  8
7
  6
CONTINUOUS
 62
     4
  5
2C0
 10
50416.237548
 20
9497.734583
 30
0.0
 11
50027.437548
 21
9497.734583
 31
0.0
  0
LINE
  8
7
  6
CONTINUOUS
 62
     4
  5
2C1
 10
50461.237548
 20
10081.534583
 30
0.0
 11
50461.237548
 21
9542.734583
 31
0.0
  0
LINE
  8
7
  6
CONTINUOUS
 62
     4
  5
2C2
 10
49982.437548
 20
10081.534583
 30
0.0
 11
49982.437548
 21
9542.734583
 31
0.0
  0
LINE
  8
7
  6
CONTINUOUS
 62
     4
  5
2C3
 10
50416.237548
 20
10126.534583
 30
0.0
 11
50027.437548
 21
10126.534583
 31
0.0
  0
ARC
  8
7
  6
CONTINUOUS
 62
     4
  5
2C4
 10
50029.237548
 20
9844.534583
 30
0.0
 40
18.0
 50
180.0
 51
270.0
  0
LINE
  8
7
  6
CONTINUOUS
 62
     4
  5
2C5
 10
50011.237548
 20
9929.734583
 30
0.0
 11
50011.237548
 21
9844.534583
 31
0.0
  0
LINE
  8
7
  6
CONTINUOUS
 62
     4
  5
2C6
 10
50011.237548
 20
10079.734583
 30
0.0
 11
50011.237548
 21
9994.534583
 31
0.0
  0
LINE
  8
7
  6
CONTINUOUS
 62
     4
  5
2C7
 10
50029.237548
 20
10097.734583
 30
0.0
 11
50114.437548
 21
10097.734583
 31
0.0
  0
ARC
  8
7
  6
CONTINUOUS
 62
     4
  5
2C8
 10
50179.237548
 20
10079.734583
 30
0.0
 40
18.0
 50
90.0
 51
180.0
  0
ARC
  8
7
  6
CONTINUOUS
 62
     4
  5
2C9
 10
50264.437548
 20
10079.734583
 30
0.0
 40
18.0
 50
0.0
 51
90.0
  0
LINE
  8
7
  6
CONTINUOUS
 62
     4
  5
2CA
 10
50179.237548
 20
10097.734583
 30
0.0
 11
50264.437548
 21
10097.734583
 31
0.0
  0
ARC
  8
7
  6
CONTINUOUS
 62
     4
  5
2CB
 10
50114.437548
 20
10079.734583
 30
0.0
 40
18.0
 50
0.0
 51
90.0
  0
ARC
  8
7
  6
CONTINUOUS
 62
     4
  5
2CC
 10
50029.237548
 20
9929.734583
 30
0.0
 40
18.0
 50
90.0
 51
180.0
  0
ARC
  8
7
  6
CONTINUOUS
 62
     4
  5
2CD
 10
50029.237548
 20
9994.534583
 30
0.0
 40
18.0
 50
180.0
 51
270.0
  0
ARC
  8
7
  6
CONTINUOUS
 62
     4
  5
2CE
 10
50022.337548
 20
9931.834583
 30
0.0
 40
7.7
 50
30.0
 51
210.0
  0
ARC
  8
7
  6
CONTINUOUS
 62
     4
  5
2CF
 10
50022.337548
 20
9931.834583
 30
0.0
 40
6.8
 50
30.0
 51
210.0
  0
LINE
  8
7
  6
CONTINUOUS
 62
     4
  5
2D0
 10
50032.437548
 20
9929.534583
 30
0.0
 11
50028.937548
 21
9935.634583
 31
0.0
  0
LINE
  8
7
  6
CONTINUOUS
 62
     4
  5
2D1
 10
50028.137548
 20
9935.134583
 30
0.0
 11
50031.337548
 21
9929.734583
 31
0.0
  0
ARC
  8
7
  6
CONTINUOUS
 62
     4
  5
2D2
 10
50004.837548
 20
9962.134583
 30
0.0
 40
41.8
 50
290.63
 51
309.02
  0
LINE
  8
7
  6
CONTINUOUS
 62
     4
  5
2D3
 10
50016.437548
 20
9928.434583
 30
0.0
 11
50019.537548
 21
9923.034583
 31
0.0
  0
LINE
  8
7
  6
CONTINUOUS
 62
     4
  5
2D4
 10
50019.137548
 20
9921.934583
 30
0.0
 11
50015.637548
 21
9927.934583
 31
0.0
  0
ARC
  8
7
  6
CONTINUOUS
 62
     4
  5
2D5
 10
49969.837548
 20
9962.134583
 30
0.0
 40
7.7
 50
270.0
 51
90.0
  0
ARC
  8
7
  6
CONTINUOUS
 62
     4
  5
2D6
 10
49969.837548
 20
9962.134583
 30
0.0
 40
6.8
 50
270.0
 51
90.0
  0
LINE
  8
7
  6
CONTINUOUS
 62
     4
  5
2D7
 10
49962.837548
 20
9954.534583
 30
0.0
 11
49969.837548
 21
9954.534583
 31
0.0
  0
LINE
  8
7
  6
CONTINUOUS
 62
     4
  5
2D8
 10
49969.837548
 20
9955.434583
 30
0.0
 11
49963.537548
 21
9955.434583
 31
0.0
  0
ARC
  8
7
  6
CONTINUOUS
 62
     4
  5
2D9
 10
50004.837548
 20
9962.134583
 30
0.0
 40
41.8
 50
170.63
 51
189.02
  0
LINE
  8
7
  6
CONTINUOUS
 62
     4
  5
2DA
 10
49969.837548
 20
9968.934583
 30
0.0
 11
49963.637548
 21
9968.934583
 31
0.0
  0
LINE
  8
7
  6
CONTINUOUS
 62
     4
  5
2DB
 10
49962.837548
 20
9969.834583
 30
0.0
 11
49969.837548
 21
9969.834583
 31
0.0
  0
ARC
  8
7
  6
CONTINUOUS
 62
     4
  5
2DC
 10
50022.337548
 20
9992.434583
 30
0.0
 40
7.7
 50
150.0
 51
330.0
  0
ARC
  8
7
  6
CONTINUOUS
 62
     4
  5
2DD
 10
50022.337548
 20
9992.434583
 30
0.0
 40
6.8
 50
150.0
 51
330.0
  0
LINE
  8
7
  6
CONTINUOUS
 62
     4
  5
2DE
 10
50019.237548
 20
10002.334583
 30
0.0
 11
50015.737548
 21
9996.234583
 31
0.0
  0
LINE
  8
7
  6
CONTINUOUS
 62
     4
  5
2DF
 10
50016.537548
 20
9995.834583
 30
0.0
 11
50019.637548
 21
10001.234583
 31
0.0
  0
ARC
  8
7
  6
CONTINUOUS
 62
     4
  5
2E0
 10
50004.837548
 20
9962.134583
 30
0.0
 40
41.8
 50
50.63
 51
69.02
  0
LINE
  8
7
  6
CONTINUOUS
 62
     4
  5
2E1
 10
50028.237548
 20
9989.034583
 30
0.0
 11
50031.337548
 21
9994.434583
 31
0.0
  0
LINE
  8
7
  6
CONTINUOUS
 62
     4
  5
2E2
 10
50032.537548
 20
9994.634583
 30
0.0
 11
50029.037548
 21
9988.634583
 31
0.0
  0
ARC
  8
7
  6
CONTINUOUS
 62
     4
  5
2E3
 10
50004.837548
 20
9962.134583
 30
0.0
 40
45.0
 50
18.68
 51
81.82
  0
ARC
  8
7
  6
DIVIDE
 62
     4
  5
2E4
 10
50004.837548
 20
9962.134583
 30
0.0
 40
42.7
 50
19.71
 51
81.38
  0
ARC
  8
7
  6
DIVIDE
 62
     4
  5
2E5
 10
50004.837548
 20
9962.134583
 30
0.0
 40
42.7
 50
121.61
 51
238.39
  0
ARC
  8
7
  6
DIVIDE
 62
     4
  5
2E6
 10
50004.837548
 20
9962.134583
 30
0.0
 40
42.7
 50
278.62
 51
340.29
  0
ARC
  8
7
  6
CONTINUOUS
 62
     4
  5
2E7
 10
50004.837548
 20
9962.134583
 30
0.0
 40
45.0
 50
119.87
 51
240.13
  0
ARC
  8
7
  6
CONTINUOUS
 62
     4
  5
2E8
 10
50004.837548
 20
9962.134583
 30
0.0
 40
45.0
 50
278.18
 51
341.32
  0
CIRCLE
  8
7
  6
CONTINUOUS
 62
     4
  5
2E9
 10
50022.337548
 20
9992.434583
 30
0.0
 40
4.4
  0
CIRCLE
  8
7
  6
CONTINUOUS
 62
     4
  5
2EA
 10
50022.337548
 20
9992.434583
 30
0.0
 40
4.0
  0
CIRCLE
  8
7
  6
CONTINUOUS
 62
     4
  5
2EB
 10
50022.337548
 20
9931.834583
 30
0.0
 40
4.0
  0
CIRCLE
  8
7
  6
CONTINUOUS
 62
     4
  5
2EC
 10
50022.337548
 20
9931.834583
 30
0.0
 40
4.4
  0
CIRCLE
  8
7
  6
CONTINUOUS
 62
     4
  5
2ED
 10
49969.837548
 20
9962.134583
 30
0.0
 40
4.0
  0
CIRCLE
  8
7
  6
CONTINUOUS
 62
     4
  5
2EE
 10
49969.837548
 20
9962.134583
 30
0.0
 40
4.4
  0
LINE
  8
7
  6
CONTINUOUS
 62
     4
  5
2EF
 10
50329.237548
 20
9526.534583
 30
0.0
 11
50414.437548
 21
9526.534583
 31
0.0
  0
ARC
  8
7
  6
CONTINUOUS
 62
     4
  5
2F0
 10
50473.837548
 20
9662.134583
 30
0.0
 40
7.7
 50
90.0
 51
270.0
  0
ARC
  8
7
  6
CONTINUOUS
 62
     4
  5
2F1
 10
50473.837548
 20
9662.134583
 30
0.0
 40
6.8
 50
90.0
 51
270.0
  0
LINE
  8
7
  6
CONTINUOUS
 62
     4
  5
2F2
 10
50480.837548
 20
9669.734583
 30
0.0
 11
50473.837548
 21
9669.734583
 31
0.0
  0
LINE
  8
7
  6
CONTINUOUS
 62
     4
  5
2F3
 10
50473.837548
 20
9668.834583
 30
0.0
 11
50480.137548
 21
9668.834583
 31
0.0
  0
ARC
  8
7
  6
CONTINUOUS
 62
     4
  5
2F4
 10
50438.837548
 20
9662.134583
 30
0.0
 40
41.8
 50
350.63
 51
9.02
  0
LINE
  8
7
  6
CONTINUOUS
 62
     4
  5
2F5
 10
50473.837548
 20
9655.334583
 30
0.0
 11
50480.037548
 21
9655.334583
 31
0.0
  0
LINE
  8
7
  6
CONTINUOUS
 62
     4
  5
2F6
 10
50480.837548
 20
9654.434583
 30
0.0
 11
50473.837548
 21
9654.434583
 31
0.0
  0
ARC
  8
7
  6
DIVIDE
 62
     4
  5
2F7
 10
50438.837548
 20
9662.134583
 30
0.0
 40
42.7
 50
301.61
 51
58.39
  0
ARC
  8
7
  6
CONTINUOUS
 62
     4
  5
2F8
 10
50438.837548
 20
9662.134583
 30
0.0
 40
45.0
 50
299.87
 51
60.13
  0
CIRCLE
  8
7
  6
CONTINUOUS
 62
     4
  5
2F9
 10
50473.837548
 20
9662.134583
 30
0.0
 40
4.0
  0
CIRCLE
  8
7
  6
CONTINUOUS
 62
     4
  5
2FA
 10
50473.837548
 20
9662.134583
 30
0.0
 40
4.4
  0
ARC
  8
7
  6
CONTINUOUS
 62
     4
  5
2FB
 10
50414.437548
 20
10079.734583
 30
0.0
 40
18.0
 50
0.0
 51
90.0
  0
LINE
  8
7
  6
CONTINUOUS
 62
     4
  5
2FC
 10
50414.437548
 20
10097.734583
 30
0.0
 11
50329.237548
 21
10097.734583
 31
0.0
  0
ARC
  8
7
  6
CONTINUOUS
 62
     4
  5
2FD
 10
50473.837548
 20
9962.134583
 30
0.0
 40
7.7
 50
90.0
 51
270.0
  0
ARC
  8
7
  6
CONTINUOUS
 62
     4
  5
2FE
 10
50473.837548
 20
9962.134583
 30
0.0
 40
6.8
 50
90.0
 51
270.0
  0
LINE
  8
7
  6
CONTINUOUS
 62
     4
  5
2FF
 10
50480.837548
 20
9969.734583
 30
0.0
 11
50473.837548
 21
9969.734583
 31
0.0
  0
LINE
  8
7
  6
CONTINUOUS
 62
     4
  5
300
 10
50473.837548
 20
9968.834583
 30
0.0
 11
50480.137548
 21
9968.834583
 31
0.0
  0
ARC
  8
7
  6
CONTINUOUS
 62
     4
  5
301
 10
50438.837548
 20
9962.134583
 30
0.0
 40
41.8
 50
350.63
 51
9.02
  0
LINE
  8
7
  6
CONTINUOUS
 62
     4
  5
302
 10
50473.837548
 20
9955.334583
 30
0.0
 11
50480.037548
 21
9955.334583
 31
0.0
  0
LINE
  8
7
  6
CONTINUOUS
 62
     4
  5
303
 10
50480.837548
 20
9954.434583
 30
0.0
 11
50473.837548
 21
9954.434583
 31
0.0
  0
ARC
  8
7
  6
CONTINUOUS
 62
     4
  5
304
 10
50438.837548
 20
9962.134583
 30
0.0
 40
45.0
 50
299.87
 51
60.13
  0
ARC
  8
7
  6
DIVIDE
 62
     4
  5
305
 10
50438.837548
 20
9962.134583
 30
0.0
 40
42.7
 50
301.61
 51
58.39
  0
CIRCLE
  8
7
  6
CONTINUOUS
 62
     4
  5
306
 10
50473.837548
 20
9962.134583
 30
0.0
 40
4.0
  0
CIRCLE
  8
7
  6
CONTINUOUS
 62
     4
  5
307
 10
50473.837548
 20
9962.134583
 30
0.0
 40
4.4
  0
ARC
  8
7
  6
CONTINUOUS
 62
     4
  5
308
 10
50329.237548
 20
10079.734583
 30
0.0
 40
18.0
 50
90.0
 51
180.0
  0
LINE
  8
7
  6
CONTINUOUS
 62
     4
  5
309
 10
50114.437548
 20
9526.534583
 30
0.0
 11
50029.237548
 21
9526.534583
 31
0.0
  0
ARC
  8
7
  6
CONTINUOUS
 62
     4
  5
30A
 10
50029.237548
 20
9544.534583
 30
0.0
 40
18.0
 50
180.0
 51
270.0
  0
LINE
  8
7
  6
CONTINUOUS
 62
     4
  5
30B
 10
50011.237548
 20
9629.734583
 30
0.0
 11
50011.237548
 21
9544.534583
 31
0.0
  0
LINE
  8
7
  6
CONTINUOUS
 62
     4
  5
30C
 10
50011.237548
 20
9779.734583
 30
0.0
 11
50011.237548
 21
9694.534583
 31
0.0
  0
ARC
  8
7
  6
CONTINUOUS
 62
     4
  5
30D
 10
50029.237548
 20
9629.734583
 30
0.0
 40
18.0
 50
90.0
 51
180.0
  0
ARC
  8
7
  6
CONTINUOUS
 62
     4
  5
30E
 10
50029.237548
 20
9694.534583
 30
0.0
 40
18.0
 50
180.0
 51
270.0
  0
ARC
  8
7
  6
CONTINUOUS
 62
     4
  5
30F
 10
50022.337548
 20
9631.834583
 30
0.0
 40
7.7
 50
30.0
 51
210.0
  0
ARC
  8
7
  6
CONTINUOUS
 62
     4
  5
310
 10
50022.337548
 20
9631.834583
 30
0.0
 40
6.8
 50
30.0
 51
210.0
  0
LINE
  8
7
  6
CONTINUOUS
 62
     4
  5
311
 10
50032.437548
 20
9629.534583
 30
0.0
 11
50028.937548
 21
9635.634583
 31
0.0
  0
LINE
  8
7
  6
CONTINUOUS
 62
     4
  5
312
 10
50028.137548
 20
9635.134583
 30
0.0
 11
50031.337548
 21
9629.734583
 31
0.0
  0
ARC
  8
7
  6
CONTINUOUS
 62
     4
  5
313
 10
50004.837548
 20
9662.134583
 30
0.0
 40
41.8
 50
290.63
 51
309.02
  0
LINE
  8
7
  6
CONTINUOUS
 62
     4
  5
314
 10
50016.437548
 20
9628.434583
 30
0.0
 11
50019.537548
 21
9623.034583
 31
0.0
  0
LINE
  8
7
  6
CONTINUOUS
 62
     4
  5
315
 10
50019.137548
 20
9621.934583
 30
0.0
 11
50015.637548
 21
9627.934583
 31
0.0
  0
ARC
  8
7
  6
CONTINUOUS
 62
     4
  5
316
 10
49969.837548
 20
9662.134583
 30
0.0
 40
7.7
 50
270.0
 51
90.0
  0
ARC
  8
7
  6
CONTINUOUS
 62
     4
  5
317
 10
49969.837548
 20
9662.134583
 30
0.0
 40
6.8
 50
270.0
 51
90.0
  0
LINE
  8
7
  6
CONTINUOUS
 62
     4
  5
318
 10
49962.837548
 20
9654.534583
 30
0.0
 11
49969.837548
 21
9654.534583
 31
0.0
  0
LINE
  8
7
  6
CONTINUOUS
 62
     4
  5
319
 10
49969.837548
 20
9655.434583
 30
0.0
 11
49963.537548
 21
9655.434583
 31
0.0
  0
ARC
  8
7
  6
CONTINUOUS
 62
     4
  5
31A
 10
50004.837548
 20
9662.134583
 30
0.0
 40
41.8
 50
170.63
 51
189.02
  0
LINE
  8
7
  6
CONTINUOUS
 62
     4
  5
31B
 10
49969.837548
 20
9668.934583
 30
0.0
 11
49963.637548
 21
9668.934583
 31
0.0
  0
LINE
  8
7
  6
CONTINUOUS
 62
     4
  5
31C
 10
49962.837548
 20
9669.834583
 30
0.0
 11
49969.837548
 21
9669.834583
 31
0.0
  0
ARC
  8
7
  6
CONTINUOUS
 62
     4
  5
31D
 10
50022.337548
 20
9692.434583
 30
0.0
 40
7.7
 50
150.0
 51
330.0
  0
ARC
  8
7
  6
CONTINUOUS
 62
     4
  5
31E
 10
50022.337548
 20
9692.434583
 30
0.0
 40
6.8
 50
150.0
 51
330.0
  0
LINE
  8
7
  6
CONTINUOUS
 62
     4
  5
31F
 10
50019.237548
 20
9702.334583
 30
0.0
 11
50015.737548
 21
9696.234583
 31
0.0
  0
LINE
  8
7
  6
CONTINUOUS
 62
     4
  5
320
 10
50016.537548
 20
9695.834583
 30
0.0
 11
50019.637548
 21
9701.234583
 31
0.0
  0
ARC
  8
7
  6
CONTINUOUS
 62
     4
  5
321
 10
50004.837548
 20
9662.134583
 30
0.0
 40
41.8
 50
50.63
 51
69.02
  0
LINE
  8
7
  6
CONTINUOUS
 62
     4
  5
322
 10
50028.237548
 20
9689.034583
 30
0.0
 11
50031.337548
 21
9694.434583
 31
0.0
  0
LINE
  8
7
  6
CONTINUOUS
 62
     4
  5
323
 10
50032.537548
 20
9694.634583
 30
0.0
 11
50029.037548
 21
9688.634583
 31
0.0
  0
ARC
  8
7
  6
DIVIDE
 62
     4
  5
324
 10
50004.837548
 20
9662.134583
 30
0.0
 40
42.7
 50
19.71
 51
81.38
  0
ARC
  8
7
  6
CONTINUOUS
 62
     4
  5
325
 10
50004.837548
 20
9662.134583
 30
0.0
 40
45.0
 50
18.68
 51
81.82
  0
ARC
  8
7
  6
CONTINUOUS
 62
     4
  5
326
 10
50004.837548
 20
9662.134583
 30
0.0
 40
45.0
 50
119.87
 51
240.13
  0
ARC
  8
7
  6
CONTINUOUS
 62
     4
  5
327
 10
50004.837548
 20
9662.134583
 30
0.0
 40
45.0
 50
278.18
 51
341.32
  0
ARC
  8
7
  6
DIVIDE
 62
     4
  5
328
 10
50004.837548
 20
9662.134583
 30
0.0
 40
42.7
 50
121.61
 51
238.39
  0
ARC
  8
7
  6
DIVIDE
 62
     4
  5
329
 10
50004.837548
 20
9662.134583
 30
0.0
 40
42.7
 50
278.62
 51
340.29
  0
CIRCLE
  8
7
  6
CONTINUOUS
 62
     4
  5
32A
 10
50022.337548
 20
9692.434583
 30
0.0
 40
4.4
  0
CIRCLE
  8
7
  6
CONTINUOUS
 62
     4
  5
32B
 10
50022.337548
 20
9692.434583
 30
0.0
 40
4.0
  0
CIRCLE
  8
7
  6
CONTINUOUS
 62
     4
  5
32C
 10
50022.337548
 20
9631.834583
 30
0.0
 40
4.0
  0
CIRCLE
  8
7
  6
CONTINUOUS
 62
     4
  5
32D
 10
50022.337548
 20
9631.834583
 30
0.0
 40
4.4
  0
CIRCLE
  8
7
  6
CONTINUOUS
 62
     4
  5
32E
 10
49969.837548
 20
9662.134583
 30
0.0
 40
4.0
  0
CIRCLE
  8
7
  6
CONTINUOUS
 62
     4
  5
32F
 10
49969.837548
 20
9662.134583
 30
0.0
 40
4.4
  0
ARC
  8
7
  6
CONTINUOUS
 62
     4
  5
330
 10
50029.237548
 20
9779.734583
 30
0.0
 40
18.0
 50
90.0
 51
180.0
  0
LINE
  8
7
  6
CONTINUOUS
 62
     4
  5
331
 10
50264.437548
 20
9526.534583
 30
0.0
 11
50179.237548
 21
9526.534583
 31
0.0
  0
LINE
  8
7
  6
CENTER
 62
     3
  5
332
 10
50146.837548
 20
10112.134583
 30
0.0
 11
50146.837548
 21
9512.134583
 31
0.0
  0
LINE
  8
7
  6
CENTER
 62
     3
  5
333
 10
50296.837548
 20
10112.134583
 30
0.0
 11
50296.837548
 21
9512.134583
 31
0.0
  0
LINE
  8
7
  6
CENTER
 62
     3
  5
334
 10
50446.837548
 20
9962.134583
 30
0.0
 11
49996.837548
 21
9962.134583
 31
0.0
  0
LINE
  8
7
  6
CENTER
 62
     3
  5
335
 10
50446.837548
 20
9812.134583
 30
0.0
 11
49996.837548
 21
9812.134583
 31
0.0
  0
LINE
  8
7
  6
CENTER
 62
     3
  5
336
 10
50446.837548
 20
9662.134583
 30
0.0
 11
49996.837548
 21
9662.134583
 31
0.0
  0
LINE
  8
2
  6
CONTINUOUS
 62
     1
  5
337
 10
49519.663548
 20
9246.487083
 30
0.0
 11
49520.031548
 21
9242.207283
 31
0.0
  0
LINE
  8
2
  6
CONTINUOUS
 62
     1
  5
338
 10
49588.987548
 20
9388.323883
 30
0.0
 11
49539.381548
 21
9391.972983
 31
0.0
  0
LINE
  8
2
  6
CONTINUOUS
 62
     1
  5
339
 10
49703.924548
 20
9377.702883
 30
0.0
 11
49619.985548
 21
9385.625783
 31
0.0
  0
LINE
  8
2
  6
CONTINUOUS
 62
     1
  5
33A
 10
49615.680548
 20
9382.183983
 30
0.0
 11
49592.279548
 21
9384.093783
 31
0.0
  0
LINE
  8
2
  6
CONTINUOUS
 62
     1
  5
33B
 10
49910.955548
 20
9270.135083
 30
0.0
 11
49936.680548
 21
9270.355483
 31
0.0
  0
LINE
  8
2
  6
CONTINUOUS
 62
     1
  5
33C
 10
49936.680548
 20
9270.355483
 30
0.0
 11
49951.572548
 21
9270.685383
 31
0.0
  0
LINE
  8
2
  6
CONTINUOUS
 62
     1
  5
33D
 10
49486.331548
 20
9719.616883
 30
0.0
 11
49486.330548
 21
9719.616883
 31
0.0
  0
LINE
  8
2
  6
CONTINUOUS
 62
     1
  5
33E
 10
49486.331548
 20
9719.616883
 30
0.0
 11
49486.330548
 21
9719.616883
 31
0.0
  0
LINE
  8
2
  6
CONTINUOUS
 62
     1
  5
33F
 10
49902.866548
 20
8883.814083
 30
0.0
 11
49902.701548
 21
8894.777183
 31
0.0
  0
LINE
  8
2
  6
CONTINUOUS
 62
     1
  5
340
 10
49903.015548
 20
8862.134583
 30
0.0
 11
49902.866548
 21
8883.814083
 31
0.0
  0
LINE
  8
2
  6
CONTINUOUS
 62
     1
  5
341
 10
49558.016548
 20
9233.134783
 30
0.0
 11
49660.515548
 21
9233.134783
 31
0.0
  0
LINE
  8
2
  6
CONTINUOUS
 62
     1
  5
342
 10
49540.015548
 20
9233.134783
 30
0.0
 11
49558.016548
 21
9233.134783
 31
0.0
  0
LINE
  8
2
  6
CONTINUOUS
 62
     1
  5
343
 10
49660.515548
 20
9233.134783
 30
0.0
 11
49718.224548
 21
9233.134783
 31
0.0
  0
LINE
  8
2
  6
CONTINUOUS
 62
     1
  5
344
 10
49532.977548
 20
9233.134783
 30
0.0
 11
49540.015548
 21
9233.134783
 31
0.0
  0
LINE
  8
2
  6
CONTINUOUS
 62
     1
  5
345
 10
49532.977548
 20
9233.134783
 30
0.0
 11
49529.988548
 21
9233.134783
 31
0.0
  0
LINE
  8
2
  6
CONTINUOUS
 62
     1
  5
346
 10
49534.015548
 20
9232.134783
 30
0.0
 11
49532.977548
 21
9233.134783
 31
0.0
  0
LINE
  8
2
  6
CONTINUOUS
 62
     1
  5
347
 10
49660.515548
 20
9232.134783
 30
0.0
 11
49558.016548
 21
9232.134783
 31
0.0
  0
LINE
  8
2
  6
CONTINUOUS
 62
     1
  5
348
 10
49660.515548
 20
9232.134783
 30
0.0
 11
49660.515548
 21
9233.134783
 31
0.0
  0
LINE
  8
2
  6
CONTINUOUS
 62
     1
  5
349
 10
49540.015548
 20
9232.134783
 30
0.0
 11
49534.015548
 21
9232.134783
 31
0.0
  0
LINE
  8
2
  6
CONTINUOUS
 62
     1
  5
34A
 10
49540.015548
 20
9232.134783
 30
0.0
 11
49540.015548
 21
9233.134783
 31
0.0
  0
LINE
  8
2
  6
CONTINUOUS
 62
     1
  5
34B
 10
49558.016548
 20
9232.134783
 30
0.0
 11
49558.016548
 21
9233.134783
 31
0.0
  0
LINE
  8
2
  6
CONTINUOUS
 62
     1
  5
34C
 10
49518.029548
 20
9248.121383
 30
0.0
 11
49519.663548
 21
9246.487083
 31
0.0
  0
LINE
  8
2
  6
CONTINUOUS
 62
     1
  5
34D
 10
49687.917548
 20
9354.848483
 30
0.0
 11
49686.780548
 21
9371.937383
 31
0.0
  0
LINE
  8
2
  6
CONTINUOUS
 62
     1
  5
34E
 10
49592.279548
 20
9384.093783
 30
0.0
 11
49591.618548
 21
9386.221483
 31
0.0
  0
LINE
  8
2
  6
CONTINUOUS
 62
     1
  5
34F
 10
49535.738548
 20
9390.139183
 30
0.0
 11
49521.617548
 21
9368.074883
 31
0.0
  0
LINE
  8
2
  6
CONTINUOUS
 62
     1
  5
350
 10
49520.988548
 20
9366.018883
 30
0.0
 11
49519.065548
 21
9289.438283
 31
0.0
  0
LINE
  8
2
  6
CONTINUOUS
 62
     1
  5
351
 10
49521.448548
 20
9361.335683
 30
0.0
 11
49535.738548
 21
9383.663383
 31
0.0
  0
LINE
  8
2
  6
CONTINUOUS
 62
     1
  5
352
 10
49685.430548
 20
9373.672283
 30
0.0
 11
49698.442548
 21
9370.871783
 31
0.0
  0
LINE
  8
2
  6
CONTINUOUS
 62
     1
  5
353
 10
49745.714548
 20
9237.134683
 30
0.0
 11
49907.406548
 21
9237.134683
 31
0.0
  0
LINE
  8
2
  6
CONTINUOUS
 62
     1
  5
354
 10
49729.384548
 20
9247.135383
 30
0.0
 11
49988.351548
 21
9247.135383
 31
0.0
  0
LINE
  8
2
  6
CONTINUOUS
 62
     1
  5
355
 10
49745.714548
 20
9247.135383
 30
0.0
 11
49745.714548
 21
9237.134683
 31
0.0
  0
LINE
  8
2
  6
CONTINUOUS
 62
     1
  5
356
 10
49934.122548
 20
9237.134683
 30
0.0
 11
49984.131548
 21
9237.134683
 31
0.0
  0
LINE
  8
2
  6
CONTINUOUS
 62
     1
  5
357
 10
49907.406548
 20
9247.135383
 30
0.0
 11
49907.406548
 21
9237.134683
 31
0.0
  0
LINE
  8
2
  6
CONTINUOUS
 62
     1
  5
358
 10
49934.122548
 20
9242.134583
 30
0.0
 11
49934.122548
 21
9237.134683
 31
0.0
  0
LINE
  8
2
  6
CONTINUOUS
 62
     1
  5
359
 10
50045.016548
 20
9247.135383
 30
0.0
 11
49988.351548
 21
9247.135383
 31
0.0
  0
LINE
  8
2
  6
CONTINUOUS
 62
     1
  5
35A
 10
49907.406548
 20
9237.134683
 30
0.0
 11
49907.399548
 21
9236.166183
 31
0.0
  0
LINE
  8
2
  6
CONTINUOUS
 62
     1
  5
35B
 10
49911.399548
 20
9232.134783
 30
0.0
 11
49930.114548
 21
9232.134783
 31
0.0
  0
LINE
  8
2
  6
CONTINUOUS
 62
     1
  5
35C
 10
49934.114548
 20
9236.104083
 30
0.0
 11
49934.122548
 21
9237.134683
 31
0.0
  0
LINE
  8
2
  6
CONTINUOUS
 62
     1
  5
35D
 10
49725.305548
 20
9232.134783
 30
0.0
 11
49741.714548
 21
9232.134783
 31
0.0
  0
LINE
  8
2
  6
CONTINUOUS
 62
     1
  5
35E
 10
49932.662548
 20
9283.121683
 30
0.0
 11
49934.843548
 21
9273.008983
 31
0.0
  0
LINE
  8
2
  6
CONTINUOUS
 62
     1
  5
35F
 10
49699.542548
 20
9370.634683
 30
0.0
 11
49698.442548
 21
9370.871783
 31
0.0
  0
LINE
  8
2
  6
CONTINUOUS
 62
     1
  5
360
 10
49518.289548
 20
9258.468583
 30
0.0
 11
49518.029548
 21
9248.121383
 31
0.0
  0
LINE
  8
2
  6
CONTINUOUS
 62
     1
  5
361
 10
49519.065548
 20
9289.438283
 30
0.0
 11
49518.289548
 21
9258.468583
 31
0.0
  0
LINE
  8
2
  6
CONTINUOUS
 62
     1
  5
362
 10
49952.984548
 20
9273.032683
 30
0.0
 11
49955.168548
 21
9282.490083
 31
0.0
  0
LINE
  8
2
  6
CONTINUOUS
 62
     1
  5
363
 10
49745.714548
 20
9237.134683
 30
0.0
 11
49745.714548
 21
9236.134683
 31
0.0
  0
LINE
  8
2
  6
CONTINUOUS
 62
     1
  5
364
 10
49489.182548
 20
9677.134583
 30
0.0
 11
49491.015548
 21
9677.134583
 31
0.0
  0
LINE
  8
2
  6
CONTINUOUS
 62
     1
  5
365
 10
49278.844548
 20
9677.134583
 30
0.0
 11
49489.182548
 21
9677.134583
 31
0.0
  0
LINE
  8
2
  6
CONTINUOUS
 62
     1
  5
366
 10
49274.195548
 20
9673.134683
 30
0.0
 11
49493.792548
 21
9673.134683
 31
0.0
  0
LINE
  8
2
  6
CONTINUOUS
 62
     1
  5
367
 10
49294.974548
 20
9242.134583
 30
0.0
 11
49478.202548
 21
9242.134583
 31
0.0
  0
LINE
  8
2
  6
CONTINUOUS
 62
     1
  5
368
 10
49278.325548
 20
9361.650583
 30
0.0
 11
49274.015548
 21
9666.134783
 31
0.0
  0
LINE
  8
2
  6
CONTINUOUS
 62
     1
  5
369
 10
49274.015548
 20
9672.306183
 30
0.0
 11
49274.015548
 21
9666.134783
 31
0.0
  0
LINE
  8
2
  6
CONTINUOUS
 62
     1
  5
36A
 10
49493.960548
 20
9672.309683
 30
0.0
 11
49489.642548
 21
9296.614883
 31
0.0
  0
LINE
  8
2
  6
CONTINUOUS
 62
     1
  5
36B
 10
49278.844548
 20
9677.134583
 30
0.0
 11
49320.087548
 21
9677.134583
 31
0.0
  0
LINE
  8
2
  6
CONTINUOUS
 62
     1
  5
36C
 10
49489.182548
 20
9677.134583
 30
0.0
 11
49473.485548
 21
9677.134583
 31
0.0
  0
LINE
  8
2
  6
CONTINUOUS
 62
     1
  5
36D
 10
49274.601548
 20
9673.720783
 30
0.0
 11
49277.430548
 21
9676.548383
 31
0.0
  0
LINE
  8
2
  6
CONTINUOUS
 62
     1
  5
36E
 10
49493.381548
 20
9673.740083
 30
0.0
 11
49490.602548
 21
9676.542283
 31
0.0
  0
LINE
  8
2
  6
CONTINUOUS
 62
     1
  5
36F
 10
49488.015548
 20
9677.134583
 30
0.0
 11
49460.541548
 21
9677.134583
 31
0.0
  0
LINE
  8
2
  6
CONTINUOUS
 62
     1
  5
370
 10
49357.932548
 20
9677.134583
 30
0.0
 11
49280.015548
 21
9677.134583
 31
0.0
  0
LINE
  8
2
  6
CONTINUOUS
 62
     1
  5
371
 10
49277.015548
 20
9677.134583
 30
0.0
 11
49278.844548
 21
9677.134583
 31
0.0
  0
LINE
  8
2
  6
CONTINUOUS
 62
     1
  5
372
 10
49274.015548
 20
9680.134583
 30
0.0
 11
49274.015548
 21
9710.712383
 31
0.0
  0
LINE
  8
2
  6
CONTINUOUS
 62
     1
  5
373
 10
49286.958548
 20
9718.437483
 30
0.0
 11
49480.432548
 21
9718.437483
 31
0.0
  0
LINE
  8
2
  6
CONTINUOUS
 62
     1
  5
374
 10
49494.015548
 20
9680.134583
 30
0.0
 11
49494.015548
 21
9710.712383
 31
0.0
  0
LINE
  8
2
  6
CONTINUOUS
 62
     1
  5
375
 10
49902.746548
 20
8894.992383
 30
0.0
 11
49902.746548
 21
8900.634483
 31
0.0
  0
LINE
  8
2
  6
CONTINUOUS
 62
     1
  5
376
 10
49341.016548
 20
9238.134683
 30
0.0
 11
49341.016548
 21
9210.134283
 31
0.0
  0
LINE
  8
2
  6
CONTINUOUS
 62
     1
  5
377
 10
49341.016548
 20
9210.134283
 30
0.0
 11
49341.016548
 21
9172.135783
 31
0.0
  0
LINE
  8
2
  6
CONTINUOUS
 62
     1
  5
378
 10
49341.016548
 20
9241.134683
 30
0.0
 11
49341.016548
 21
9238.134683
 31
0.0
  0
LINE
  8
2
  6
CONTINUOUS
 62
     1
  5
379
 10
49902.746548
 20
8900.634483
 30
0.0
 11
49903.660548
 21
8899.263483
 31
0.0
  0
LINE
  8
2
  6
CONTINUOUS
 62
     1
  5
37A
 10
49903.660548
 20
8885.005683
 30
0.0
 11
49902.866548
 21
8883.814083
 31
0.0
  0
LINE
  8
2
  6
CONTINUOUS
 62
     1
  5
37B
 10
49902.746548
 20
8894.984483
 30
0.0
 11
49902.746548
 21
8894.992383
 31
0.0
  0
LINE
  8
2
  6
CONTINUOUS
 62
     1
  5
37C
 10
49902.746548
 20
8892.134983
 30
0.0
 11
49902.746548
 21
8894.984483
 31
0.0
  0
LINE
  8
2
  6
CONTINUOUS
 62
     1
  5
37D
 10
49476.015548
 20
9238.134683
 30
0.0
 11
49449.016548
 21
9238.134683
 31
0.0
  0
LINE
  8
2
  6
CONTINUOUS
 62
     1
  5
37E
 10
50031.016548
 20
9232.134783
 30
0.0
 11
49930.114548
 21
9232.134783
 31
0.0
  0
LINE
  8
2
  6
CONTINUOUS
 62
     1
  5
37F
 10
49351.016548
 20
9241.134683
 30
0.0
 11
49351.016548
 21
9238.134683
 31
0.0
  0
LINE
  8
2
  6
CONTINUOUS
 62
     1
  5
380
 10
49439.015548
 20
9238.134683
 30
0.0
 11
49351.016548
 21
9238.134683
 31
0.0
  0
LINE
  8
2
  6
CONTINUOUS
 62
     1
  5
381
 10
49341.016548
 20
9238.134683
 30
0.0
 11
49351.016548
 21
9238.134683
 31
0.0
  0
LINE
  8
2
  6
CONTINUOUS
 62
     1
  5
382
 10
49342.016548
 20
9242.134583
 30
0.0
 11
49350.016548
 21
9242.134583
 31
0.0
  0
LINE
  8
2
  6
CONTINUOUS
 62
     1
  5
383
 10
49476.015548
 20
9238.134683
 30
0.0
 11
49476.015548
 21
9237.134683
 31
0.0
  0
LINE
  8
2
  6
CONTINUOUS
 62
     1
  5
384
 10
49449.016548
 20
9241.134683
 30
0.0
 11
49449.016548
 21
9238.134683
 31
0.0
  0
LINE
  8
2
  6
CONTINUOUS
 62
     1
  5
385
 10
49439.015548
 20
9241.134683
 30
0.0
 11
49439.015548
 21
9238.134683
 31
0.0
  0
LINE
  8
2
  6
CONTINUOUS
 62
     1
  5
386
 10
49439.015548
 20
9238.134683
 30
0.0
 11
49449.016548
 21
9238.134683
 31
0.0
  0
LINE
  8
2
  6
CONTINUOUS
 62
     1
  5
387
 10
49440.015548
 20
9242.134583
 30
0.0
 11
49448.016548
 21
9242.134583
 31
0.0
  0
LINE
  8
2
  6
CONTINUOUS
 62
     1
  5
388
 10
49382.015548
 20
8933.134383
 30
0.0
 11
49379.015548
 21
8935.634783
 31
0.0
  0
LINE
  8
2
  6
CONTINUOUS
 62
     1
  5
389
 10
49379.015548
 20
8935.634783
 30
0.0
 11
49354.016548
 21
8935.634783
 31
0.0
  0
LINE
  8
2
  6
CONTINUOUS
 62
     1
  5
38A
 10
49354.016548
 20
8935.634783
 30
0.0
 11
49351.016548
 21
8933.634783
 31
0.0
  0
LINE
  8
2
  6
CONTINUOUS
 62
     1
  5
38B
 10
49379.015548
 20
9028.634983
 30
0.0
 11
49354.016548
 21
9028.634983
 31
0.0
  0
LINE
  8
2
  6
CONTINUOUS
 62
     1
  5
38C
 10
49382.015548
 20
9031.134483
 30
0.0
 11
49379.015548
 21
9028.634983
 31
0.0
  0
LINE
  8
2
  6
CONTINUOUS
 62
     1
  5
38D
 10
49354.016548
 20
9028.634983
 30
0.0
 11
49351.016548
 21
9030.634983
 31
0.0
  0
LINE
  8
2
  6
CONTINUOUS
 62
     1
  5
38E
 10
49351.016548
 20
9030.634983
 30
0.0
 11
49344.016548
 21
9030.634983
 31
0.0
  0
LINE
  8
2
  6
CONTINUOUS
 62
     1
  5
38F
 10
49351.016548
 20
8933.634783
 30
0.0
 11
49344.016548
 21
8933.634783
 31
0.0
  0
LINE
  8
2
  6
CONTINUOUS
 62
     1
  5
390
 10
49344.016548
 20
9030.634983
 30
0.0
 11
49344.016548
 21
8933.634783
 31
0.0
  0
LINE
  8
2
  6
CONTINUOUS
 62
     1
  5
391
 10
49384.975548
 20
8933.134383
 30
0.0
 11
49382.015548
 21
8933.134383
 31
0.0
  0
LINE
  8
2
  6
CONTINUOUS
 62
     1
  5
392
 10
49384.975548
 20
8933.134383
 30
0.0
 11
49382.015548
 21
8862.134583
 31
0.0
  0
LINE
  8
2
  6
CONTINUOUS
 62
     1
  5
393
 10
49382.015548
 20
9031.134483
 30
0.0
 11
49384.516548
 21
9031.134483
 31
0.0
  0
LINE
  8
2
  6
CONTINUOUS
 62
     1
  5
394
 10
49341.965548
 20
9167.882983
 30
0.0
 11
49347.016548
 21
9157.134283
 31
0.0
  0
LINE
  8
2
  6
CONTINUOUS
 62
     1
  5
395
 10
49382.015548
 20
9080.134583
 30
0.0
 11
49384.516548
 21
9031.134483
 31
0.0
  0
LINE
  8
2
  6
CONTINUOUS
 62
     1
  5
396
 10
49347.016548
 20
9157.134283
 30
0.0
 11
49382.015548
 21
9080.134583
 31
0.0
  0
LINE
  8
2
  6
CONTINUOUS
 62
     1
  5
397
 10
49389.772548
 20
8887.134183
 30
0.0
 11
49495.015548
 21
8887.134183
 31
0.0
  0
LINE
  8
2
  6
CONTINUOUS
 62
     1
  5
398
 10
49620.935548
 20
9065.134883
 30
0.0
 11
49544.015548
 21
9065.134883
 31
0.0
  0
LINE
  8
2
  6
CONTINUOUS
 62
     1
  5
399
 10
49617.598548
 20
9167.134983
 30
0.0
 11
49605.052548
 21
9167.134983
 31
0.0
  0
LINE
  8
2
  6
CONTINUOUS
 62
     1
  5
39A
 10
49434.364548
 20
9207.135183
 30
0.0
 11
49344.020548
 21
9207.135183
 31
0.0
  0
LINE
  8
2
  6
CONTINUOUS
 62
     1
  5
39B
 10
49460.905548
 20
9193.486283
 30
0.0
 11
49439.327548
 21
9205.817583
 31
0.0
  0
LINE
  8
2
  6
CONTINUOUS
 62
     1
  5
39C
 10
49605.052548
 20
9167.134983
 30
0.0
 11
49560.134548
 21
9167.134983
 31
0.0
  0
LINE
  8
2
  6
CONTINUOUS
 62
     1
  5
39D
 10
49499.016548
 20
8891.135083
 30
0.0
 11
49499.016548
 21
9020.134683
 31
0.0
  0
LINE
  8
2
  6
CONTINUOUS
 62
     1
  5
39E
 10
49397.443548
 20
8956.134883
 30
0.0
 11
49487.015548
 21
8956.134883
 31
0.0
  0
LINE
  8
2
  6
CONTINUOUS
 62
     1
  5
39F
 10
49396.192548
 20
8926.134483
 30
0.0
 11
49499.016548
 21
8926.134483
 31
0.0
  0
LINE
  8
2
  6
CONTINUOUS
 62
     1
  5
3A0
 10
49385.454548
 20
8944.650383
 30
0.0
 11
49384.975548
 21
8933.134383
 31
0.0
  0
LINE
  8
2
  6
CONTINUOUS
 62
     1
  5
3A1
 10
49725.305548
 20
9232.134783
 30
0.0
 11
49660.515548
 21
9232.134783
 31
0.0
  0
LINE
  8
2
  6
CONTINUOUS
 62
     1
  5
3A2
 10
49911.399548
 20
9232.134783
 30
0.0
 11
49741.714548
 21
9232.134783
 31
0.0
  0
LINE
  8
2
  6
CONTINUOUS
 62
     1
  5
3A3
 10
49558.016548
 20
9232.134783
 30
0.0
 11
49540.015548
 21
9232.134783
 31
0.0
  0
LINE
  8
2
  6
CONTINUOUS
 62
     1
  5
3A4
 10
49534.015548
 20
9232.134783
 30
0.0
 11
49481.015548
 21
9232.134783
 31
0.0
  0
ARC
  8
2
  6
CONTINUOUS
 62
     1
  5
3A5
 10
49529.988548
 20
9243.134583
 30
0.0
 40
10.0
 50
185.32104
 51
270.0
  0
ARC
  8
2
  6
CONTINUOUS
 62
     1
  5
3A6
 10
49588.753548
 20
9385.333483
 30
0.0
 40
3.0
 50
17.233306
 51
85.507446
  0
ARC
  8
2
  6
CONTINUOUS
 62
     1
  5
3A7
 10
49715.862548
 20
9344.695483
 30
0.0
 40
7.999999
 50
6.785797
 51
85.367263
  0
ARC
  8
2
  6
CONTINUOUS
 62
     1
  5
3A8
 10
49524.987548
 20
9365.919183
 30
0.0
 40
3.999999
 50
147.38075
 51
178.5625
  0
ARC
  8
2
  6
CONTINUOUS
 62
     1
  5
3A9
 10
49539.107548
 20
9387.982683
 30
0.0
 40
3.999999
 50
86.077438
 51
147.38075
  0
ARC
  8
2
  6
CONTINUOUS
 62
     1
  5
3AA
 10
49539.107548
 20
9381.507683
 30
0.0
 40
3.999999
 50
86.077438
 51
147.38075
  0
ARC
  8
2
  6
CONTINUOUS
 62
     1
  5
3AB
 10
49939.122548
 20
9242.134583
 30
0.0
 40
5.0
 50
90.0
 51
180.0
  0
ARC
  8
2
  6
CONTINUOUS
 62
     1
  5
3AC
 10
49984.131548
 20
9239.134683
 30
0.0
 40
2.0
 50
270.0
 51
354.54862
  0
ARC
  8
2
  6
CONTINUOUS
 62
     1
  5
3AD
 10
49911.399548
 20
9236.134683
 30
0.0
 40
3.999999
 50
179.55761
 51
270.0
  0
ARC
  8
2
  6
CONTINUOUS
 62
     1
  5
3AE
 10
49930.114548
 20
9236.134683
 30
0.0
 40
3.999999
 50
270.0
 51
359.55761
  0
ARC
  8
2
  6
CONTINUOUS
 62
     1
  5
3AF
 10
49741.714548
 20
9236.134683
 30
0.0
 40
3.999999
 50
270.0
 51
360.0
  0
ARC
  8
2
  6
CONTINUOUS
 62
     1
  5
3B0
 10
49351.016548
 20
9172.135783
 30
0.0
 40
10.0
 50
180.0
 51
205.16876
  0
ARC
  8
2
  6
CONTINUOUS
 62
     1
  5
3B1
 10
49902.828548
 20
8898.708883
 30
0.0
 40
1.0
 50
15.897888
 51
33.690063
  0
ARC
  8
2
  6
CONTINUOUS
 62
     1
  5
3B2
 10
49902.828548
 20
8885.560283
 30
0.0
 40
1.0
 50
326.30992
 51
344.10209
  0
ARC
  8
2
  6
CONTINUOUS
 62
     1
  5
3B3
 10
49718.224548
 20
9243.134583
 30
0.0
 40
10.0
 50
270.0
 51
292.20564
  0
ARC
  8
2
  6
CONTINUOUS
 62
     1
  5
3B4
 10
49725.305548
 20
9236.134683
 30
0.0
 40
3.999999
 50
214.37336
 51
270.0
  0
ARC
  8
2
  6
CONTINUOUS
 62
     1
  5
3B5
 10
49718.224548
 20
9243.134583
 30
0.0
 40
10.0
 50
292.20564
 51
346.60905
  0
ARC
  8
2
  6
CONTINUOUS
 62
     1
  5
3B6
 10
49197.341548
 20
4397.212083
 30
0.0
 40
4999.9993
 50
84.397979
 51
86.077438
  0
ARC
  8
2
  6
CONTINUOUS
 62
     1
  5
3B7
 10
49474.203548
 20
6362.470983
 30
0.0
 40
2999.9996
 50
85.367263
 51
88.956573
  0
ARC
  8
2
  6
CONTINUOUS
 62
     1
  5
3B8
 10
49711.015548
 20
9257.135283
 30
0.0
 40
19.999999
 50
348.97944
 51
360.0
  0
ARC
  8
2
  6
CONTINUOUS
 62
     1
  5
3B9
 10
49436.120548
 20
9310.294483
 30
0.0
 40
299.98851
 50
346.60905
 51
349.05012
  0
ARC
  8
2
  6
CONTINUOUS
 62
     1
  5
3BA
 10
49528.687548
 20
9353.974483
 30
0.0
 40
7.999999
 50
88.956573
 51
178.5625
  0
ARC
  8
2
  6
CONTINUOUS
 62
     1
  5
3BB
 10
49685.283548
 20
9371.838583
 30
0.0
 40
1.5
 50
3.806564
 51
84.397979
  0
ARC
  8
2
  6
CONTINUOUS
 62
     1
  5
3BC
 10
48532.213548
 20
9203.850883
 30
0.0
 40
1199.9999
 50
5.342072
 51
6.785797
  0
ARC
  8
2
  6
CONTINUOUS
 62
     1
  5
3BD
 10
49524.817548
 20
9359.179083
 30
0.0
 40
3.999999
 50
147.38075
 51
178.5625
  0
ARC
  8
2
  6
CONTINUOUS
 62
     1
  5
3BE
 10
49994.940548
 20
12668.277883
 30
0.0
 40
3399.9999
 50
265.52874
 51
267.46653
  0
ARC
  8
2
  6
CONTINUOUS
 62
     1
  5
3BF
 10
50045.016548
 20
9248.135383
 30
0.0
 40
1.0
 50
270.0
 51
360.0
  0
ARC
  8
2
  6
CONTINUOUS
 62
     1
  5
3C0
 10
50045.016548
 20
9248.135383
 30
0.0
 40
1.0
 50
0.0
 51
9.548859
  0
ARC
  8
2
  6
CONTINUOUS
 62
     1
  5
3C1
 10
50033.628548
 20
9266.135083
 30
0.0
 40
9.0
 50
10.971603
 51
96.652542
  0
ARC
  8
2
  6
CONTINUOUS
 62
     1
  5
3C2
 10
49257.086548
 20
9115.589883
 30
0.0
 40
799.99998
 50
9.548859
 51
10.971603
  0
ARC
  8
2
  6
CONTINUOUS
 62
     1
  5
3C3
 10
50011.009548
 20
9236.570383
 30
0.0
 40
24.999999
 50
155.00109
 51
174.54862
  0
ARC
  8
2
  6
CONTINUOUS
 62
     1
  5
3C4
 10
49910.955548
 20
10770.134483
 30
0.0
 40
1499.9998
 50
267.46653
 51
270.0
  0
ARC
  8
2
  6
CONTINUOUS
 62
     1
  5
3C5
 10
49969.167548
 20
10182.380783
 30
0.0
 40
899.9999
 50
267.67546
 51
269.10877
  0
ARC
  8
2
  6
CONTINUOUS
 62
     1
  5
3C6
 10
50135.407548
 20
10300.083183
 30
0.0
 40
999.99992
 50
254.94192
 51
264.1177
  0
ARC
  8
2
  6
CONTINUOUS
 62
     1
  5
3C7
 10
49258.937548
 20
9110.961783
 30
0.0
 40
799.99998
 50
12.658905
 51
13.692199
  0
ARC
  8
2
  6
CONTINUOUS
 62
     1
  5
3C8
 10
50027.458548
 20
9298.196683
 30
0.0
 40
9.0
 50
13.692199
 51
71.338836
  0
ARC
  8
2
  6
CONTINUOUS
 62
     1
  5
3C9
 10
49550.382548
 20
7885.582203
 30
0.0
 40
1499.9998
 50
71.338836
 51
84.124816
  0
ARC
  8
2
  6
CONTINUOUS
 62
     1
  5
3CA
 10
50038.515548
 20
9286.060383
 30
0.0
 40
1.0
 50
274.4242
 51
12.658905
  0
ARC
  8
2
  6
CONTINUOUS
 62
     1
  5
3CB
 10
49485.912548
 20
7885.925593
 30
0.0
 40
1499.9998
 50
74.941925
 51
81.812103
  0
ARC
  8
2
  6
CONTINUOUS
 62
     1
  5
3CC
 10
49969.167548
 20
10182.380783
 30
0.0
 40
899.9999
 50
269.10877
 51
274.4242
  0
ARC
  8
2
  6
CONTINUOUS
 62
     1
  5
3CD
 10
49939.153548
 20
9274.030883
 30
0.0
 40
4.430167
 50
193.33193
 51
236.0588
  0
ARC
  8
2
  6
CONTINUOUS
 62
     1
  5
3CE
 10
49619.643548
 20
9381.640683
 30
0.0
 40
3.999999
 50
85.090972
 51
172.19293
  0
ARC
  8
2
  6
CONTINUOUS
 62
     1
  5
3CF
 10
49910.955548
 20
10770.134483
 30
0.0
 40
1499.9998
 50
271.55162
 51
274.65101
  0
ARC
  8
2
  6
CONTINUOUS
 62
     1
  5
3D0
 10
49969.167548
 20
10182.380783
 30
0.0
 40
899.9999
 50
254.39086
 51
267.67546
  0
ARC
  8
2
  6
CONTINUOUS
 62
     1
  5
3D1
 10
49948.667548
 20
9274.029983
 30
0.0
 40
4.430192
 50
310.97377
 51
346.99649
  0
ARC
  8
2
  6
CONTINUOUS
 62
     1
  5
3D2
 10
48532.213548
 20
9203.850883
 30
0.0
 40
1199.9999
 50
2.55928
 51
3.57251
  0
ARC
  8
2
  6
CONTINUOUS
 62
     1
  5
3D3
 10
48532.213548
 20
9203.850883
 30
0.0
 40
1199.9999
 50
3.57251
 51
5.342072
  0
ARC
  8
2
  6
CONTINUOUS
 62
     1
  5
3D4
 10
49384.015548
 20
9027.134583
 30
0.0
 40
699.99985
 50
81.595245
 51
90.0
  0
ARC
  8
2
  6
CONTINUOUS
 62
     1
  5
3D5
 10
49384.015548
 20
9027.134583
 30
0.0
 40
699.99985
 50
90.0
 51
98.404739
  0
ARC
  8
2
  6
CONTINUOUS
 62
     1
  5
3D6
 10
49485.015548
 20
9710.713183
 30
0.0
 40
9.000289
 50
359.99784
 51
81.593673
  0
ARC
  8
2
  6
CONTINUOUS
 62
     1
  5
3D7
 10
49478.202548
 20
9249.135383
 30
0.0
 40
7.000002
 50
269.99996
 51
349.98782
  0
ARC
  8
2
  6
CONTINUOUS
 62
     1
  5
3D8
 10
49294.974548
 20
9249.135383
 30
0.0
 40
7.000007
 50
188.99142
 51
270.00007
  0
ARC
  8
2
  6
CONTINUOUS
 62
     1
  5
3D9
 10
50078.244548
 20
9372.972383
 30
0.0
 40
799.99998
 50
180.81085
 51
188.98431
  0
ARC
  8
2
  6
CONTINUOUS
 62
     1
  5
3DA
 10
49189.661548
 20
9300.063683
 30
0.0
 40
300.00015
 50
349.99005
 51
359.3413
  0
ARC
  8
2
  6
CONTINUOUS
 62
     1
  5
3DB
 10
49278.844548
 20
9675.134583
 30
0.0
 40
2.000273
 50
89.981094
 51
134.99729
  0
ARC
  8
2
  6
CONTINUOUS
 62
     1
  5
3DC
 10
49276.015548
 20
9672.306183
 30
0.0
 40
1.99992
 50
134.99038
 51
179.99444
  0
ARC
  8
2
  6
CONTINUOUS
 62
     1
  5
3DD
 10
49489.182548
 20
9675.134583
 30
0.0
 40
2.000035
 50
44.753265
 51
90.00241
  0
ARC
  8
2
  6
CONTINUOUS
 62
     1
  5
3DE
 10
49491.960548
 20
9672.332383
 30
0.0
 40
2.000016
 50
359.3422
 51
44.753982
  0
ARC
  8
2
  6
CONTINUOUS
 62
     1
  5
3DF
 10
49491.015548
 20
9680.134583
 30
0.0
 40
3.0
 50
270.0
 51
360.0
  0
ARC
  8
2
  6
CONTINUOUS
 62
     1
  5
3E0
 10
49277.015548
 20
9680.134583
 30
0.0
 40
3.0
 50
180.0
 51
270.0
  0
ARC
  8
2
  6
CONTINUOUS
 62
     1
  5
3E1
 10
49283.016548
 20
9710.713183
 30
0.0
 40
9.000363
 50
98.410049
 51
180.00267
  0
ARC
  8
2
  6
CONTINUOUS
 62
     1
  5
3E2
 10
49902.228548
 20
8894.988883
 30
0.0
 40
0.518105
 50
335.86433
 51
0.44928
  0
ARC
  8
2
  6
CONTINUOUS
 62
     1
  5
3E3
 10
49879.746548
 20
8892.134983
 30
0.0
 40
24.999999
 50
344.10209
 51
15.897888
  0
ARC
  8
2
  6
CONTINUOUS
 62
     1
  5
3E4
 10
50031.016548
 20
9224.134883
 30
0.0
 40
7.999971
 50
349.99963
 51
89.999816
  0
ARC
  8
2
  6
CONTINUOUS
 62
     1
  5
3E5
 10
49945.016548
 20
9040.135283
 30
0.0
 40
49.999749
 50
116.53939
 51
185.06451
  0
ARC
  8
2
  6
CONTINUOUS
 62
     1
  5
3E6
 10
49810.972548
 20
9308.522883
 30
0.0
 40
249.99946
 50
296.53947
 51
323.3225
  0
ARC
  8
2
  6
CONTINUOUS
 62
     1
  5
3E7
 10
49891.172548
 20
9248.792383
 30
0.0
 40
150.00029
 50
323.32234
 51
350.00015
  0
ARC
  8
2
  6
CONTINUOUS
 62
     1
  5
3E8
 10
49350.016548
 20
9241.134683
 30
0.0
 40
1.0
 50
0.0
 51
90.0
  0
ARC
  8
2
  6
CONTINUOUS
 62
     1
  5
3E9
 10
49342.016548
 20
9241.134683
 30
0.0
 40
1.0
 50
90.0
 51
180.0
  0
ARC
  8
2
  6
CONTINUOUS
 62
     1
  5
3EA
 10
47903.008548
 20
8859.188883
 30
0.0
 40
2000.0092
 50
1.019562
 51
5.063858
  0
ARC
  8
2
  6
CONTINUOUS
 62
     1
  5
3EB
 10
49481.015548
 20
9237.135583
 30
0.0
 40
5.000128
 50
180.00144
 51
269.99853
  0
ARC
  8
2
  6
CONTINUOUS
 62
     1
  5
3EC
 10
49448.016548
 20
9241.134683
 30
0.0
 40
1.0
 50
0.0
 51
90.0
  0
ARC
  8
2
  6
CONTINUOUS
 62
     1
  5
3ED
 10
49440.015548
 20
9241.134683
 30
0.0
 40
1.0
 50
90.0
 51
180.0
  0
ARC
  8
2
  6
CONTINUOUS
 62
     1
  5
3EE
 10
49620.935548
 20
9077.134683
 30
0.0
 40
12.000091
 50
269.99971
 51
23.546249
  0
ARC
  8
2
  6
CONTINUOUS
 62
     1
  5
3EF
 10
49344.017548
 20
9210.136883
 30
0.0
 40
3.002011
 50
180.05706
 51
270.05706
  0
ARC
  8
2
  6
CONTINUOUS
 62
     1
  5
3F0
 10
50173.981548
 20
9318.134283
 30
0.0
 40
591.27457
 50
194.79609
 51
203.54603
  0
ARC
  8
2
  6
CONTINUOUS
 62
     1
  5
3F1
 10
49560.134548
 20
9367.135183
 30
0.0
 40
200.00028
 50
240.25494
 51
269.99986
  0
ARC
  8
2
  6
CONTINUOUS
 62
     1
  5
3F2
 10
49434.365548
 20
9197.134483
 30
0.0
 40
10.000138
 50
60.254959
 51
90.00296
  0
ARC
  8
2
  6
CONTINUOUS
 62
     1
  5
3F3
 10
49389.772548
 20
8880.135183
 30
0.0
 40
6.999546
 50
90.00386
 51
177.6128
  0
ARC
  8
2
  6
CONTINUOUS
 62
     1
  5
3F4
 10
49495.015548
 20
8891.135083
 30
0.0
 40
3.999999
 50
270.0
 51
360.0
  0
ARC
  8
2
  6
CONTINUOUS
 62
     1
  5
3F5
 10
49544.015548
 20
9020.134683
 30
0.0
 40
44.999994
 50
90.0
 51
180.0
  0
ARC
  8
2
  6
CONTINUOUS
 62
     1
  5
3F6
 10
49396.192548
 20
8914.134683
 30
0.0
 40
11.999709
 50
90.001434
 51
177.61329
  0
ARC
  8
2
  6
CONTINUOUS
 62
     1
  5
3F7
 10
49397.443548
 20
8944.135083
 30
0.0
 40
11.999709
 50
90.001434
 51
177.61329
  0
ARC
  8
2
  6
CONTINUOUS
 62
     1
  5
3F8
 10
49487.015548
 20
8968.134683
 30
0.0
 40
11.999998
 50
270.0
 51
360.0
  0
LINE
  8
2
  6
CONTINUOUS
 62
     1
  5
3F9
 10
49279.536548
 20
11512.134683
 30
0.0
 11
49279.536548
 21
9833.134583
 31
0.0
  0
LINE
  8
2
  6
CONTINUOUS
 62
     1
  5
3FA
 10
49258.536548
 20
11512.134683
 30
0.0
 11
49258.536548
 21
9812.134483
 31
0.0
  0
LINE
  8
2
  6
CONTINUOUS
 62
     1
  5
3FB
 10
49299.846548
 20
11512.134683
 30
0.0
 11
49839.851548
 21
11512.134683
 31
0.0
  0
LINE
  8
2
  6
CONTINUOUS
 62
     1
  5
3FC
 10
49299.846548
 20
11512.134683
 30
0.0
 11
49299.846548
 21
9850.383383
 31
0.0
  0
LINE
  8
2
  6
CONTINUOUS
 62
     1
  5
3FD
 10
49334.844548
 20
11512.134683
 30
0.0
 11
49334.844548
 21
9850.383383
 31
0.0
  0
LINE
  8
2
  6
CONTINUOUS
 62
     1
  5
3FE
 10
49334.844548
 20
11477.136183
 30
0.0
 11
49804.853548
 21
11477.136183
 31
0.0
  0
LINE
  8
2
  6
CENTER1
 62
     1
  5
3FF
 10
49334.844548
 20
9925.381383
 30
0.0
 11
49804.853548
 21
11477.136183
 31
0.0
  0
LINE
  8
2
  6
CONTINUOUS
 62
     1
  5
400
 10
49334.844548
 20
9925.381383
 30
0.0
 11
49804.853548
 21
9925.381383
 31
0.0
  0
LINE
  8
2
  6
CONTINUOUS
 62
     1
  5
401
 10
49299.846548
 20
9850.383383
 30
0.0
 11
49839.851548
 21
9850.383383
 31
0.0
  0
LINE
  8
2
  6
CONTINUOUS
 62
     1
  5
402
 10
49839.851548
 20
11512.134683
 30
0.0
 11
49839.851548
 21
9850.383383
 31
0.0
  0
LINE
  8
2
  6
CONTINUOUS
 62
     1
  5
403
 10
49279.536548
 20
9833.134583
 30
0.0
 11
49854.037548
 21
9833.134583
 31
0.0
  0
LINE
  8
2
  6
CONTINUOUS
 62
     1
  5
404
 10
49854.037548
 20
11512.134683
 30
0.0
 11
49854.037548
 21
9833.134583
 31
0.0
  0
LINE
  8
2
  6
CONTINUOUS
 62
     1
  5
405
 10
49241.836548
 20
9812.134483
 30
0.0
 11
49875.037548
 21
9812.134483
 31
0.0
  0
LINE
  8
2
  6
CONTINUOUS
 62
     1
  5
406
 10
49875.037548
 20
11512.134683
 30
0.0
 11
49875.037548
 21
9812.134483
 31
0.0
  0
LINE
  8
2
  6
CENTER1
 62
     1
  5
407
 10
49569.848548
 20
10661.758783
 30
0.0
 11
49804.853548
 21
9925.381383
 31
0.0
  0
LINE
  8
2
  6
CONTINUOUS
 62
     1
  5
408
 10
49241.836548
 20
9836.340223
 30
0.0
 11
49241.836548
 21
9781.870913
 31
0.0
  0
LINE
  8
2
  6
CONTINUOUS
 62
     1
  5
409
 10
49682.534404
 20
11512.134683
 30
0.0
 11
49532.534404
 21
11512.134683
 31
0.0
  0
LINE
  8
2
  6
CONTINUOUS
 62
     1
  5
40A
 10
49682.534404
 20
9812.16531
 30
0.0
 11
49532.534404
 21
9812.16531
 31
0.0
  0
LINE
  8
2
  6
CONTINUOUS
 62
     1
  5
40B
 10
49804.853548
 20
11512.134683
 30
0.0
 11
49804.853548
 21
9850.383383
 31
0.0
  0
LINE
  8
40
  6
DOT
 62
     3
  5
40C
 10
50425.662214
 20
15561.939073
 30
0.0
 11
50440.662234
 21
15561.939073
 31
0.0
  0
LINE
  8
40
  6
DOT
 62
     3
  5
40D
 10
50425.662214
 20
15561.939073
 30
0.0
 11
50425.662214
 21
15567.939193
 31
0.0
  0
LINE
  8
40
  6
DOT
 62
     3
  5
40E
 10
50440.662234
 20
15561.939073
 30
0.0
 11
50440.662234
 21
15567.939193
 31
0.0
  0
LINE
  8
40
  6
CONTINUOUS
 62
     4
  5
40F
 10
50447.162154
 20
15567.939053
 30
0.0
 11
50447.162154
 21
15590.523386
 31
0.0
  0
LINE
  8
40
  6
CONTINUOUS
 62
     4
  5
410
 10
50447.162154
 20
15567.939193
 30
0.0
 11
50419.162154
 21
15567.939193
 31
0.0
  0
LINE
  8
40
  6
CONTINUOUS
 62
     4
  5
411
 10
50448.623054
 20
15597.939303
 30
0.0
 11
50417.800514
 21
15597.939303
 31
0.0
  0
LINE
  8
40
  6
CONTINUOUS
 62
     4
  5
412
 10
50411.557074
 20
15599.939273
 30
0.0
 11
50454.838074
 21
15599.939273
 31
0.0
  0
LINE
  8
40
  6
CONTINUOUS
 62
     4
  5
413
 10
50388.162234
 20
15617.939283
 30
0.0
 11
50388.162234
 21
15607.452373
 31
0.0
  0
LINE
  8
40
  6
CONTINUOUS
 62
     4
  5
414
 10
50478.162214
 20
15617.939283
 30
0.0
 11
50478.162214
 21
15607.423743
 31
0.0
  0
LINE
  8
40
  6
CONTINUOUS
 62
     4
  5
415
 10
50477.416154
 20
15605.939323
 30
0.0
 11
50388.951694
 21
15605.939323
 31
0.0
  0
LINE
  8
1
  6
CONTINUOUS
 62
     4
  5
416
 10
50400.851274
 20
15625.125343
 30
0.0
 11
50404.851354
 21
15625.820373
 31
0.0
  0
LINE
  8
1
  6
CONTINUOUS
 62
     4
  5
417
 10
50400.851274
 20
15628.161663
 30
0.0
 11
50404.851354
 21
15628.870903
 31
0.0
  0
LINE
  8
1
  6
CONTINUOUS
 62
     4
  5
418
 10
50400.851274
 20
15631.214783
 30
0.0
 11
50404.851354
 21
15631.924023
 31
0.0
  0
LINE
  8
1
  6
CONTINUOUS
 62
     4
  5
419
 10
50400.851274
 20
15634.267903
 30
0.0
 11
50404.851354
 21
15634.977073
 31
0.0
  0
LINE
  8
1
  6
CONTINUOUS
 62
     4
  5
41A
 10
50400.851274
 20
15637.318363
 30
0.0
 11
50404.851354
 21
15638.013323
 31
0.0
  0
LINE
  8
1
  6
CONTINUOUS
 62
     4
  5
41B
 10
50400.851274
 20
15640.354473
 30
0.0
 11
50404.851354
 21
15641.063713
 31
0.0
  0
LINE
  8
1
  6
CONTINUOUS
 62
     4
  5
41C
 10
50404.456134
 20
15624.230183
 30
0.0
 11
50401.246494
 21
15623.662553
 31
0.0
  0
LINE
  8
1
  6
CONTINUOUS
 62
     4
  5
41D
 10
50404.456134
 20
15627.263633
 30
0.0
 11
50401.246494
 21
15626.696073
 31
0.0
  0
LINE
  8
1
  6
CONTINUOUS
 62
     4
  5
41E
 10
50404.456134
 20
15630.316753
 30
0.0
 11
50401.246494
 21
15629.749193
 31
0.0
  0
LINE
  8
1
  6
CONTINUOUS
 62
     4
  5
41F
 10
50404.456134
 20
15633.369873
 30
0.0
 11
50401.246494
 21
15632.802383
 31
0.0
  0
LINE
  8
1
  6
CONTINUOUS
 62
     4
  5
420
 10
50404.456134
 20
15636.423063
 30
0.0
 11
50401.246494
 21
15635.855503
 31
0.0
  0
LINE
  8
1
  6
CONTINUOUS
 62
     4
  5
421
 10
50404.456134
 20
15639.456583
 30
0.0
 11
50401.246494
 21
15638.889023
 31
0.0
  0
LINE
  8
1
  6
CONTINUOUS
 62
     4
  5
422
 10
50404.456134
 20
15642.509703
 30
0.0
 11
50401.246494
 21
15641.942073
 31
0.0
  0
LINE
  8
1
  6
CONTINUOUS
 62
     4
  5
423
 10
50400.851274
 20
15622.073973
 30
0.0
 11
50404.851354
 21
15622.778173
 31
0.0
  0
LINE
  8
1
  6
CONTINUOUS
 62
     4
  5
424
 10
50402.851314
 20
15611.939303
 30
0.0
 11
50398.601334
 21
15611.939303
 31
0.0
  0
LINE
  8
1
  6
CONTINUOUS
 62
     4
  5
425
 10
50400.851274
 20
15616.027443
 30
0.0
 11
50404.851354
 21
15616.736683
 31
0.0
  0
LINE
  8
1
  6
CONTINUOUS
 62
     4
  5
426
 10
50400.851274
 20
15619.041293
 30
0.0
 11
50404.851354
 21
15619.750533
 31
0.0
  0
LINE
  8
1
  6
CONTINUOUS
 62
     4
  5
427
 10
50404.456134
 20
15615.149013
 30
0.0
 11
50401.246494
 21
15614.581453
 31
0.0
  0
LINE
  8
1
  6
CONTINUOUS
 62
     4
  5
428
 10
50404.456134
 20
15618.162933
 30
0.0
 11
50401.246494
 21
15617.595373
 31
0.0
  0
LINE
  8
1
  6
CONTINUOUS
 62
     4
  5
429
 10
50404.456134
 20
15621.196523
 30
0.0
 11
50401.246494
 21
15620.628963
 31
0.0
  0
LINE
  8
1
  6
CONTINUOUS
 62
     4
  5
42A
 10
50400.248294
 20
15611.939303
 30
0.0
 11
50401.451314
 21
15613.142253
 31
0.0
  0
LINE
  8
1
  6
CONTINUOUS
 62
     4
  5
42B
 10
50400.248294
 20
15611.939303
 30
0.0
 11
50398.601334
 21
15611.939303
 31
0.0
  0
LINE
  8
1
  6
CONTINUOUS
 62
     4
  5
42C
 10
50405.454334
 20
15611.939303
 30
0.0
 11
50404.251314
 21
15613.142253
 31
0.0
  0
LINE
  8
1
  6
CONTINUOUS
 62
     4
  5
42D
 10
50405.454334
 20
15611.939303
 30
0.0
 11
50407.101294
 21
15611.939303
 31
0.0
  0
LINE
  8
1
  6
CONTINUOUS
 62
     4
  5
42E
 10
50404.456134
 20
15613.622453
 30
0.0
 11
50401.246494
 21
15613.054963
 31
0.0
  0
LINE
  8
1
  6
CONTINUOUS
 62
     4
  5
42F
 10
50402.244554
 20
15608.448263
 30
0.0
 11
50403.458074
 21
15608.448263
 31
0.0
  0
LINE
  8
1
  6
CONTINUOUS
 62
     4
  5
430
 10
50402.244554
 20
15607.939293
 30
0.0
 11
50402.244554
 21
15608.448263
 31
0.0
  0
LINE
  8
1
  6
CONTINUOUS
 62
     4
  5
431
 10
50403.458074
 20
15607.939293
 30
0.0
 11
50403.458074
 21
15608.448263
 31
0.0
  0
LINE
  8
1
  6
CONTINUOUS
 62
     4
  5
432
 10
50402.244554
 20
15607.939293
 30
0.0
 11
50403.458074
 21
15607.939293
 31
0.0
  0
LINE
  8
1
  6
CONTINUOUS
 62
     4
  5
433
 10
50400.851274
 20
15643.407593
 30
0.0
 11
50404.851354
 21
15644.116833
 31
0.0
  0
LINE
  8
1
  6
CONTINUOUS
 62
     4
  5
434
 10
50404.242634
 20
15647.062013
 30
0.0
 11
50401.357654
 21
15646.550453
 31
0.0
  0
LINE
  8
1
  6
CONTINUOUS
 62
     4
  5
435
 10
50404.456134
 20
15645.562753
 30
0.0
 11
50401.246494
 21
15644.995193
 31
0.0
  0
LINE
  8
1
  6
CONTINUOUS
 62
     4
  5
436
 10
50403.949754
 20
15648.526273
 30
0.0
 11
50401.672374
 21
15648.123633
 31
0.0
  0
LINE
  8
1
  6
CONTINUOUS
 62
     4
  5
437
 10
50461.473094
 20
15625.125343
 30
0.0
 11
50465.473034
 21
15625.820373
 31
0.0
  0
LINE
  8
1
  6
CONTINUOUS
 62
     4
  5
438
 10
50461.473094
 20
15628.161663
 30
0.0
 11
50465.473034
 21
15628.870903
 31
0.0
  0
LINE
  8
1
  6
CONTINUOUS
 62
     4
  5
439
 10
50461.473094
 20
15631.214783
 30
0.0
 11
50465.473034
 21
15631.924023
 31
0.0
  0
LINE
  8
1
  6
CONTINUOUS
 62
     4
  5
43A
 10
50461.473094
 20
15634.267903
 30
0.0
 11
50465.473034
 21
15634.977073
 31
0.0
  0
LINE
  8
1
  6
CONTINUOUS
 62
     4
  5
43B
 10
50461.473094
 20
15637.318363
 30
0.0
 11
50465.473034
 21
15638.013323
 31
0.0
  0
LINE
  8
1
  6
CONTINUOUS
 62
     4
  5
43C
 10
50461.473094
 20
15640.354473
 30
0.0
 11
50465.473034
 21
15641.063713
 31
0.0
  0
LINE
  8
1
  6
CONTINUOUS
 62
     4
  5
43D
 10
50465.077954
 20
15624.230183
 30
0.0
 11
50461.868174
 21
15623.662553
 31
0.0
  0
LINE
  8
1
  6
CONTINUOUS
 62
     4
  5
43E
 10
50465.077954
 20
15627.263633
 30
0.0
 11
50461.868174
 21
15626.696073
 31
0.0
  0
LINE
  8
1
  6
CONTINUOUS
 62
     4
  5
43F
 10
50465.077954
 20
15630.316753
 30
0.0
 11
50461.868174
 21
15629.749193
 31
0.0
  0
LINE
  8
1
  6
CONTINUOUS
 62
     4
  5
440
 10
50465.077954
 20
15633.369873
 30
0.0
 11
50461.868174
 21
15632.802383
 31
0.0
  0
LINE
  8
1
  6
CONTINUOUS
 62
     4
  5
441
 10
50465.077954
 20
15636.423063
 30
0.0
 11
50461.868174
 21
15635.855503
 31
0.0
  0
LINE
  8
1
  6
CONTINUOUS
 62
     4
  5
442
 10
50465.077954
 20
15639.456583
 30
0.0
 11
50461.868174
 21
15638.889023
 31
0.0
  0
LINE
  8
1
  6
CONTINUOUS
 62
     4
  5
443
 10
50465.077954
 20
15642.509703
 30
0.0
 11
50461.868174
 21
15641.942073
 31
0.0
  0
LINE
  8
1
  6
CONTINUOUS
 62
     4
  5
444
 10
50461.473094
 20
15622.073973
 30
0.0
 11
50465.473034
 21
15622.778173
 31
0.0
  0
LINE
  8
1
  6
CONTINUOUS
 62
     4
  5
445
 10
50463.473134
 20
15611.939303
 30
0.0
 11
50459.223014
 21
15611.939303
 31
0.0
  0
LINE
  8
1
  6
CONTINUOUS
 62
     4
  5
446
 10
50461.473094
 20
15616.027443
 30
0.0
 11
50465.473034
 21
15616.736683
 31
0.0
  0
LINE
  8
1
  6
CONTINUOUS
 62
     4
  5
447
 10
50461.473094
 20
15619.041293
 30
0.0
 11
50465.473034
 21
15619.750533
 31
0.0
  0
LINE
  8
1
  6
CONTINUOUS
 62
     4
  5
448
 10
50465.077954
 20
15615.149013
 30
0.0
 11
50461.868174
 21
15614.581453
 31
0.0
  0
LINE
  8
1
  6
CONTINUOUS
 62
     4
  5
449
 10
50465.077954
 20
15618.162933
 30
0.0
 11
50461.868174
 21
15617.595373
 31
0.0
  0
LINE
  8
1
  6
CONTINUOUS
 62
     4
  5
44A
 10
50465.077954
 20
15621.196523
 30
0.0
 11
50461.868174
 21
15620.628963
 31
0.0
  0
LINE
  8
1
  6
CONTINUOUS
 62
     4
  5
44B
 10
50460.870114
 20
15611.939303
 30
0.0
 11
50462.073134
 21
15613.142253
 31
0.0
  0
LINE
  8
1
  6
CONTINUOUS
 62
     4
  5
44C
 10
50460.870114
 20
15611.939303
 30
0.0
 11
50459.223014
 21
15611.939303
 31
0.0
  0
LINE
  8
1
  6
CONTINUOUS
 62
     4
  5
44D
 10
50466.076014
 20
15611.939303
 30
0.0
 11
50464.873134
 21
15613.142253
 31
0.0
  0
LINE
  8
1
  6
CONTINUOUS
 62
     4
  5
44E
 10
50466.076014
 20
15611.939303
 30
0.0
 11
50467.723114
 21
15611.939303
 31
0.0
  0
LINE
  8
1
  6
CONTINUOUS
 62
     4
  5
44F
 10
50465.077954
 20
15613.622453
 30
0.0
 11
50461.868174
 21
15613.054963
 31
0.0
  0
LINE
  8
1
  6
CONTINUOUS
 62
     4
  5
450
 10
50462.866374
 20
15608.448263
 30
0.0
 11
50464.079754
 21
15608.448263
 31
0.0
  0
LINE
  8
1
  6
CONTINUOUS
 62
     4
  5
451
 10
50462.866374
 20
15607.939293
 30
0.0
 11
50462.866374
 21
15608.448263
 31
0.0
  0
LINE
  8
1
  6
CONTINUOUS
 62
     4
  5
452
 10
50464.079754
 20
15607.939293
 30
0.0
 11
50464.079754
 21
15608.448263
 31
0.0
  0
LINE
  8
1
  6
CONTINUOUS
 62
     4
  5
453
 10
50462.866374
 20
15607.939293
 30
0.0
 11
50464.079754
 21
15607.939293
 31
0.0
  0
LINE
  8
1
  6
CONTINUOUS
 62
     4
  5
454
 10
50461.473094
 20
15643.407593
 30
0.0
 11
50465.473034
 21
15644.116833
 31
0.0
  0
LINE
  8
1
  6
CONTINUOUS
 62
     4
  5
455
 10
50464.864314
 20
15647.062013
 30
0.0
 11
50461.979474
 21
15646.550453
 31
0.0
  0
LINE
  8
1
  6
CONTINUOUS
 62
     4
  5
456
 10
50465.077954
 20
15645.562753
 30
0.0
 11
50461.868174
 21
15644.995193
 31
0.0
  0
LINE
  8
1
  6
CONTINUOUS
 62
     4
  5
457
 10
50464.571574
 20
15648.526273
 30
0.0
 11
50462.294054
 21
15648.123633
 31
0.0
  0
LINE
  8
40
  6
CONTINUOUS
 62
     4
  5
458
 10
50478.137154
 20
15617.939283
 30
0.0
 11
50478.137154
 21
15607.423743
 31
0.0
  0
LINE
  8
40
  6
CONTINUOUS
 62
     4
  5
459
 10
50475.637174
 20
15605.306803
 30
0.0
 11
50475.637174
 21
15612.939323
 31
0.0
  0
LINE
  8
40
  6
CONTINUOUS
 62
     4
  5
45A
 10
50415.432134
 20
15598.939323
 30
0.0
 11
50450.963154
 21
15598.939323
 31
0.0
  0
LINE
  8
40
  6
CONTINUOUS
 62
     4
  5
45B
 10
50419.162154
 20
15597.939303
 30
0.0
 11
50447.162154
 21
15597.939303
 31
0.0
  0
LINE
  8
40
  6
CONTINUOUS
 62
     4
  5
45C
 10
50447.746514
 20
15596.939283
 30
0.0
 11
50418.646114
 21
15596.939283
 31
0.0
  0
LINE
  8
40
  6
CONTINUOUS
 62
     4
  5
45D
 10
50447.308174
 20
15595.939193
 30
0.0
 11
50419.043014
 21
15595.939193
 31
0.0
  0
LINE
  8
12
  6
CONTINUOUS
 62
     4
  5
45E
 10
50456.549154
 20
15612.939323
 30
0.0
 11
50478.162214
 21
15612.939323
 31
0.0
  0
LINE
  8
12
  6
CONTINUOUS
 62
     4
  5
45F
 10
50390.662214
 20
15605.331583
 30
0.0
 11
50390.662214
 21
15612.939323
 31
0.0
  0
LINE
  8
12
  6
CONTINUOUS
 62
     4
  5
460
 10
50411.511574
 20
15599.951103
 30
0.0
 11
50411.511574
 21
15599.921563
 31
0.0
  0
LINE
  8
12
  6
CONTINUOUS
 62
     4
  5
461
 10
50409.793634
 20
15600.394343
 30
0.0
 11
50409.793634
 21
15612.939323
 31
0.0
  0
LINE
  8
12
  6
CONTINUOUS
 62
     4
  5
462
 10
50411.505414
 20
15600.046583
 30
0.0
 11
50409.880714
 21
15613.044603
 31
0.0
  0
LINE
  8
12
  6
CONTINUOUS
 62
     4
  5
463
 10
50454.831354
 20
15599.845683
 30
0.0
 11
50454.831354
 21
15599.816213
 31
0.0
  0
LINE
  8
12
  6
CONTINUOUS
 62
     4
  5
464
 10
50456.549154
 20
15600.288993
 30
0.0
 11
50456.549154
 21
15612.834043
 31
0.0
  0
LINE
  8
12
  6
CONTINUOUS
 62
     4
  5
465
 10
50454.837514
 20
15599.941303
 30
0.0
 11
50456.462214
 21
15612.939323
 31
0.0
  0
LINE
  8
12
  6
CONTINUOUS
 62
     4
  5
466
 10
50409.893874
 20
15612.939323
 30
0.0
 11
50390.662214
 21
15612.939323
 31
0.0
  0
LINE
  8
12
  6
CONTINUOUS
 62
     4
  5
467
 10
50409.893874
 20
15611.939303
 30
0.0
 11
50390.662214
 21
15611.939303
 31
0.0
  0
LINE
  8
12
  6
CONTINUOUS
 62
     4
  5
468
 10
50456.549154
 20
15611.939303
 30
0.0
 11
50478.162214
 21
15611.939303
 31
0.0
  0
LINE
  8
12
  6
CONTINUOUS
 62
     4
  5
469
 10
50407.101294
 20
15611.939303
 30
0.0
 11
50398.601334
 21
15611.939303
 31
0.0
  0
LINE
  8
12
  6
CONTINUOUS
 62
     4
  5
46A
 10
50398.601334
 20
15611.939303
 30
0.0
 11
50398.601334
 21
15608.939313
 31
0.0
  0
LINE
  8
12
  6
CONTINUOUS
 62
     4
  5
46B
 10
50407.101294
 20
15611.939303
 30
0.0
 11
50407.101294
 21
15608.939313
 31
0.0
  0
LINE
  8
12
  6
CONTINUOUS
 62
     4
  5
46C
 10
50407.101294
 20
15608.939313
 30
0.0
 11
50407.101294
 21
15611.939303
 31
0.0
  0
LINE
  8
12
  6
CONTINUOUS
 62
     4
  5
46D
 10
50398.601334
 20
15608.939313
 30
0.0
 11
50398.601334
 21
15611.939303
 31
0.0
  0
LINE
  8
12
  6
CONTINUOUS
 62
     4
  5
46E
 10
50398.601334
 20
15608.939313
 30
0.0
 11
50407.101294
 21
15608.939313
 31
0.0
  0
ARC
  8
12
  6
CONTINUOUS
 62
     4
  5
46F
 10
50402.851314
 20
15617.470563
 30
0.0
 40
9.53134
 50
243.51896
 51
296.48104
  0
LINE
  8
12
  6
CONTINUOUS
 62
     4
  5
470
 10
50404.251314
 20
15611.939303
 30
0.0
 11
50404.251314
 21
15642.939293
 31
0.0
  0
LINE
  8
12
  6
CONTINUOUS
 62
     4
  5
471
 10
50401.451314
 20
15611.939303
 30
0.0
 11
50401.451314
 21
15642.939293
 31
0.0
  0
LINE
  8
12
  6
CONTINUOUS
 62
     4
  5
472
 10
50404.251314
 20
15642.939293
 30
0.0
 11
50401.451314
 21
15642.939293
 31
0.0
  0
LINE
  8
12
  6
CONTINUOUS
 62
     4
  5
473
 10
50402.851314
 20
15649.939293
 30
0.0
 11
50401.451314
 21
15642.939293
 31
0.0
  0
LINE
  8
12
  6
CONTINUOUS
 62
     4
  5
474
 10
50402.851314
 20
15649.939293
 30
0.0
 11
50404.251314
 21
15642.939293
 31
0.0
  0
LINE
  8
12
  6
CENTER
 62
     4
  5
475
 10
50402.851314
 20
15608.939313
 30
0.0
 11
50402.851314
 21
15649.939293
 31
0.0
  0
LINE
  8
12
  6
CENTER
 62
     4
  5
476
 10
50402.851314
 20
15649.939293
 30
0.0
 11
50402.851314
 21
15610.432273
 31
0.0
  0
LINE
  8
12
  6
CONTINUOUS
 62
     4
  5
477
 10
50467.723114
 20
15611.939303
 30
0.0
 11
50459.223014
 21
15611.939303
 31
0.0
  0
LINE
  8
12
  6
CONTINUOUS
 62
     4
  5
478
 10
50459.223014
 20
15611.939303
 30
0.0
 11
50459.223014
 21
15608.939313
 31
0.0
  0
LINE
  8
12
  6
CONTINUOUS
 62
     4
  5
479
 10
50467.723114
 20
15611.939303
 30
0.0
 11
50467.723114
 21
15608.939313
 31
0.0
  0
LINE
  8
12
  6
CONTINUOUS
 62
     4
  5
47A
 10
50467.723114
 20
15608.939313
 30
0.0
 11
50467.723114
 21
15611.939303
 31
0.0
  0
LINE
  8
12
  6
CONTINUOUS
 62
     4
  5
47B
 10
50459.223014
 20
15608.939313
 30
0.0
 11
50459.223014
 21
15611.939303
 31
0.0
  0
LINE
  8
12
  6
CONTINUOUS
 62
     4
  5
47C
 10
50459.223014
 20
15608.939313
 30
0.0
 11
50467.723114
 21
15608.939313
 31
0.0
  0
ARC
  8
12
  6
CONTINUOUS
 62
     4
  5
47D
 10
50463.473134
 20
15617.470563
 30
0.0
 40
9.53134
 50
243.51896
 51
296.48104
  0
LINE
  8
12
  6
CONTINUOUS
 62
     4
  5
47E
 10
50464.873134
 20
15611.939303
 30
0.0
 11
50464.873134
 21
15642.939293
 31
0.0
  0
LINE
  8
12
  6
CONTINUOUS
 62
     4
  5
47F
 10
50462.073134
 20
15611.939303
 30
0.0
 11
50462.073134
 21
15642.939293
 31
0.0
  0
LINE
  8
12
  6
CONTINUOUS
 62
     4
  5
480
 10
50464.873134
 20
15642.939293
 30
0.0
 11
50462.073134
 21
15642.939293
 31
0.0
  0
LINE
  8
12
  6
CONTINUOUS
 62
     4
  5
481
 10
50463.473134
 20
15649.939293
 30
0.0
 11
50462.073134
 21
15642.939293
 31
0.0
  0
LINE
  8
12
  6
CONTINUOUS
 62
     4
  5
482
 10
50463.473134
 20
15649.939293
 30
0.0
 11
50464.873134
 21
15642.939293
 31
0.0
  0
LINE
  8
12
  6
CENTER
 62
     4
  5
483
 10
50463.473134
 20
15608.939313
 30
0.0
 11
50463.473134
 21
15649.939293
 31
0.0
  0
LINE
  8
12
  6
CENTER
 62
     4
  5
484
 10
50463.473134
 20
15649.939293
 30
0.0
 11
50463.473134
 21
15610.432273
 31
0.0
  0
LINE
  8
12
  6
CONTINUOUS
 62
     4
  5
485
 10
50408.559814
 20
15612.186543
 30
0.0
 11
50397.059794
 21
15612.186543
 31
0.0
  0
LINE
  8
12
  6
CONTINUOUS
 62
     4
  5
486
 10
50408.559814
 20
15612.986433
 30
0.0
 11
50397.059794
 21
15612.986433
 31
0.0
  0
LINE
  8
12
  6
CONTINUOUS
 62
     4
  5
487
 10
50408.559814
 20
15612.186543
 30
0.0
 11
50408.559814
 21
15612.986433
 31
0.0
  0
LINE
  8
12
  6
CONTINUOUS
 62
     4
  5
488
 10
50405.559894
 20
15612.186543
 30
0.0
 11
50405.559894
 21
15612.986433
 31
0.0
  0
LINE
  8
12
  6
CONTINUOUS
 62
     4
  5
489
 10
50400.059854
 20
15612.186543
 30
0.0
 11
50400.059854
 21
15612.986433
 31
0.0
  0
LINE
  8
12
  6
CONTINUOUS
 62
     4
  5
48A
 10
50397.059794
 20
15612.186543
 30
0.0
 11
50397.059794
 21
15612.986433
 31
0.0
  0
LINE
  8
12
  6
CONTINUOUS
 62
     4
  5
48B
 10
50469.177994
 20
15612.186543
 30
0.0
 11
50457.677974
 21
15612.186543
 31
0.0
  0
LINE
  8
12
  6
CONTINUOUS
 62
     4
  5
48C
 10
50469.177994
 20
15612.986433
 30
0.0
 11
50457.677974
 21
15612.986433
 31
0.0
  0
LINE
  8
12
  6
CONTINUOUS
 62
     4
  5
48D
 10
50469.177994
 20
15612.186543
 30
0.0
 11
50469.177994
 21
15612.986433
 31
0.0
  0
LINE
  8
12
  6
CONTINUOUS
 62
     4
  5
48E
 10
50466.177934
 20
15612.186543
 30
0.0
 11
50466.177934
 21
15612.986433
 31
0.0
  0
LINE
  8
12
  6
CONTINUOUS
 62
     4
  5
48F
 10
50460.677894
 20
15612.186543
 30
0.0
 11
50460.677894
 21
15612.986433
 31
0.0
  0
LINE
  8
12
  6
CONTINUOUS
 62
     4
  5
490
 10
50457.677974
 20
15612.186543
 30
0.0
 11
50457.677974
 21
15612.986433
 31
0.0
  0
ARC
  8
8
  6
CONTINUOUS
 62
     4
  5
491
 10
50415.194414
 20
15594.903333
 30
0.0
 40
4.00008
 50
0.0
 51
75.529706
  0
LINE
  8
50
  6
CENTER
 62
     4
  5
492
 10
50402.809874
 20
15612.186543
 30
0.0
 11
50402.809874
 21
15614.308523
 31
0.0
  0
LINE
  8
50
  6
CENTER
 62
     4
  5
493
 10
50463.427914
 20
15612.186543
 30
0.0
 11
50463.427914
 21
15614.308523
 31
0.0
  0
ARC
  8
8
  6
CONTINUOUS
 62
     4
  5
494
 10
50451.156634
 20
15594.852443
 30
0.0
 40
4.00008
 50
104.470294
 51
180.0
  0
LINE
  8
40
  6
CONTINUOUS
 62
     4
  5
495
 10
50419.162154
 20
15567.939053
 30
0.0
 11
50419.162154
 21
15590.523386
 31
0.0
  0
LINE
  8
40
  6
DOT
 62
     3
  5
496
 10
49994.895687
 20
15561.939213
 30
0.0
 11
50009.895707
 21
15561.939213
 31
0.0
  0
LINE
  8
40
  6
DOT
 62
     3
  5
497
 10
49994.895687
 20
15561.939213
 30
0.0
 11
49994.895687
 21
15567.939333
 31
0.0
  0
LINE
  8
40
  6
DOT
 62
     3
  5
498
 10
50009.895707
 20
15561.939213
 30
0.0
 11
50009.895707
 21
15567.939333
 31
0.0
  0
LINE
  8
40
  6
CONTINUOUS
 62
     4
  5
499
 10
50016.395627
 20
15567.939193
 30
0.0
 11
50016.395627
 21
15590.523526
 31
0.0
  0
LINE
  8
40
  6
CONTINUOUS
 62
     4
  5
49A
 10
50016.395627
 20
15567.939333
 30
0.0
 11
49988.395627
 21
15567.939333
 31
0.0
  0
LINE
  8
40
  6
CONTINUOUS
 62
     4
  5
49B
 10
50017.856527
 20
15597.939443
 30
0.0
 11
49987.033987
 21
15597.939443
 31
0.0
  0
LINE
  8
40
  6
CONTINUOUS
 62
     4
  5
49C
 10
49980.790547
 20
15599.939413
 30
0.0
 11
50024.071547
 21
15599.939413
 31
0.0
  0
LINE
  8
40
  6
CONTINUOUS
 62
     4
  5
49D
 10
49957.395707
 20
15617.939423
 30
0.0
 11
49957.395707
 21
15607.452513
 31
0.0
  0
LINE
  8
40
  6
CONTINUOUS
 62
     4
  5
49E
 10
50047.395687
 20
15617.939423
 30
0.0
 11
50047.395687
 21
15607.423883
 31
0.0
  0
LINE
  8
40
  6
CONTINUOUS
 62
     4
  5
49F
 10
50046.649627
 20
15605.939463
 30
0.0
 11
49958.185167
 21
15605.939463
 31
0.0
  0
ARC
  8
40
  6
CONTINUOUS
 62
     4
  5
4A0
 10
49959.395607
 20
15607.555203
 30
0.0
 40
2.00004
 50
180.0
 51
255.529705
  0
ARC
  8
40
  6
CONTINUOUS
 62
     4
  5
4A1
 10
50045.393967
 20
15607.512153
 30
0.0
 40
2.00004
 50
284.069648
 51
0.0
  0
LINE
  8
1
  6
CONTINUOUS
 62
     4
  5
4A2
 10
49970.084747
 20
15625.125483
 30
0.0
 11
49974.084827
 21
15625.820513
 31
0.0
  0
LINE
  8
1
  6
CONTINUOUS
 62
     4
  5
4A3
 10
49970.084747
 20
15628.161803
 30
0.0
 11
49974.084827
 21
15628.871043
 31
0.0
  0
LINE
  8
1
  6
CONTINUOUS
 62
     4
  5
4A4
 10
49970.084747
 20
15631.214923
 30
0.0
 11
49974.084827
 21
15631.924163
 31
0.0
  0
LINE
  8
1
  6
CONTINUOUS
 62
     4
  5
4A5
 10
49970.084747
 20
15634.268043
 30
0.0
 11
49974.084827
 21
15634.977213
 31
0.0
  0
LINE
  8
1
  6
CONTINUOUS
 62
     4
  5
4A6
 10
49970.084747
 20
15637.318503
 30
0.0
 11
49974.084827
 21
15638.013463
 31
0.0
  0
LINE
  8
1
  6
CONTINUOUS
 62
     4
  5
4A7
 10
49970.084747
 20
15640.354613
 30
0.0
 11
49974.084827
 21
15641.063853
 31
0.0
  0
LINE
  8
1
  6
CONTINUOUS
 62
     4
  5
4A8
 10
49973.689607
 20
15624.230323
 30
0.0
 11
49970.479967
 21
15623.662693
 31
0.0
  0
LINE
  8
1
  6
CONTINUOUS
 62
     4
  5
4A9
 10
49973.689607
 20
15627.263773
 30
0.0
 11
49970.479967
 21
15626.696213
 31
0.0
  0
LINE
  8
1
  6
CONTINUOUS
 62
     4
  5
4AA
 10
49973.689607
 20
15630.316893
 30
0.0
 11
49970.479967
 21
15629.749333
 31
0.0
  0
LINE
  8
1
  6
CONTINUOUS
 62
     4
  5
4AB
 10
49973.689607
 20
15633.370013
 30
0.0
 11
49970.479967
 21
15632.802523
 31
0.0
  0
LINE
  8
1
  6
CONTINUOUS
 62
     4
  5
4AC
 10
49973.689607
 20
15636.423203
 30
0.0
 11
49970.479967
 21
15635.855643
 31
0.0
  0
LINE
  8
1
  6
CONTINUOUS
 62
     4
  5
4AD
 10
49973.689607
 20
15639.456723
 30
0.0
 11
49970.479967
 21
15638.889163
 31
0.0
  0
LINE
  8
1
  6
CONTINUOUS
 62
     4
  5
4AE
 10
49973.689607
 20
15642.509843
 30
0.0
 11
49970.479967
 21
15641.942213
 31
0.0
  0
LINE
  8
1
  6
CONTINUOUS
 62
     4
  5
4AF
 10
49970.084747
 20
15622.074113
 30
0.0
 11
49974.084827
 21
15622.778313
 31
0.0
  0
LINE
  8
1
  6
CONTINUOUS
 62
     4
  5
4B0
 10
49972.084787
 20
15611.939443
 30
0.0
 11
49967.834807
 21
15611.939443
 31
0.0
  0
LINE
  8
1
  6
CONTINUOUS
 62
     4
  5
4B1
 10
49970.084747
 20
15616.027583
 30
0.0
 11
49974.084827
 21
15616.736823
 31
0.0
  0
LINE
  8
1
  6
CONTINUOUS
 62
     4
  5
4B2
 10
49970.084747
 20
15619.041433
 30
0.0
 11
49974.084827
 21
15619.750673
 31
0.0
  0
LINE
  8
1
  6
CONTINUOUS
 62
     4
  5
4B3
 10
49973.689607
 20
15615.149153
 30
0.0
 11
49970.479967
 21
15614.581593
 31
0.0
  0
LINE
  8
1
  6
CONTINUOUS
 62
     4
  5
4B4
 10
49973.689607
 20
15618.163073
 30
0.0
 11
49970.479967
 21
15617.595513
 31
0.0
  0
LINE
  8
1
  6
CONTINUOUS
 62
     4
  5
4B5
 10
49973.689607
 20
15621.196663
 30
0.0
 11
49970.479967
 21
15620.629103
 31
0.0
  0
LINE
  8
1
  6
CONTINUOUS
 62
     4
  5
4B6
 10
49969.481767
 20
15611.939443
 30
0.0
 11
49970.684787
 21
15613.142393
 31
0.0
  0
LINE
  8
1
  6
CONTINUOUS
 62
     4
  5
4B7
 10
49969.481767
 20
15611.939443
 30
0.0
 11
49967.834807
 21
15611.939443
 31
0.0
  0
LINE
  8
1
  6
CONTINUOUS
 62
     4
  5
4B8
 10
49974.687807
 20
15611.939443
 30
0.0
 11
49973.484787
 21
15613.142393
 31
0.0
  0
LINE
  8
1
  6
CONTINUOUS
 62
     4
  5
4B9
 10
49974.687807
 20
15611.939443
 30
0.0
 11
49976.334767
 21
15611.939443
 31
0.0
  0
LINE
  8
1
  6
CONTINUOUS
 62
     4
  5
4BA
 10
49973.689607
 20
15613.622593
 30
0.0
 11
49970.479967
 21
15613.055103
 31
0.0
  0
LINE
  8
1
  6
CONTINUOUS
 62
     4
  5
4BB
 10
49971.478027
 20
15608.448403
 30
0.0
 11
49972.691547
 21
15608.448403
 31
0.0
  0
LINE
  8
1
  6
CONTINUOUS
 62
     4
  5
4BC
 10
49971.478027
 20
15607.939433
 30
0.0
 11
49971.478027
 21
15608.448403
 31
0.0
  0
LINE
  8
1
  6
CONTINUOUS
 62
     4
  5
4BD
 10
49972.691547
 20
15607.939433
 30
0.0
 11
49972.691547
 21
15608.448403
 31
0.0
  0
LINE
  8
1
  6
CONTINUOUS
 62
     4
  5
4BE
 10
49971.478027
 20
15607.939433
 30
0.0
 11
49972.691547
 21
15607.939433
 31
0.0
  0
LINE
  8
1
  6
CONTINUOUS
 62
     4
  5
4BF
 10
49970.084747
 20
15643.407733
 30
0.0
 11
49974.084827
 21
15644.116973
 31
0.0
  0
LINE
  8
1
  6
CONTINUOUS
 62
     4
  5
4C0
 10
49973.476107
 20
15647.062153
 30
0.0
 11
49970.591127
 21
15646.550593
 31
0.0
  0
LINE
  8
1
  6
CONTINUOUS
 62
     4
  5
4C1
 10
49973.689607
 20
15645.562893
 30
0.0
 11
49970.479967
 21
15644.995333
 31
0.0
  0
LINE
  8
1
  6
CONTINUOUS
 62
     4
  5
4C2
 10
49973.183227
 20
15648.526413
 30
0.0
 11
49970.905847
 21
15648.123773
 31
0.0
  0
LINE
  8
1
  6
CONTINUOUS
 62
     4
  5
4C3
 10
50030.706567
 20
15625.125483
 30
0.0
 11
50034.706507
 21
15625.820513
 31
0.0
  0
LINE
  8
1
  6
CONTINUOUS
 62
     4
  5
4C4
 10
50030.706567
 20
15628.161803
 30
0.0
 11
50034.706507
 21
15628.871043
 31
0.0
  0
LINE
  8
1
  6
CONTINUOUS
 62
     4
  5
4C5
 10
50030.706567
 20
15631.214923
 30
0.0
 11
50034.706507
 21
15631.924163
 31
0.0
  0
LINE
  8
1
  6
CONTINUOUS
 62
     4
  5
4C6
 10
50030.706567
 20
15634.268043
 30
0.0
 11
50034.706507
 21
15634.977213
 31
0.0
  0
LINE
  8
1
  6
CONTINUOUS
 62
     4
  5
4C7
 10
50030.706567
 20
15637.318503
 30
0.0
 11
50034.706507
 21
15638.013463
 31
0.0
  0
LINE
  8
1
  6
CONTINUOUS
 62
     4
  5
4C8
 10
50030.706567
 20
15640.354613
 30
0.0
 11
50034.706507
 21
15641.063853
 31
0.0
  0
LINE
  8
1
  6
CONTINUOUS
 62
     4
  5
4C9
 10
50034.311427
 20
15624.230323
 30
0.0
 11
50031.101647
 21
15623.662693
 31
0.0
  0
LINE
  8
1
  6
CONTINUOUS
 62
     4
  5
4CA
 10
50034.311427
 20
15627.263773
 30
0.0
 11
50031.101647
 21
15626.696213
 31
0.0
  0
LINE
  8
1
  6
CONTINUOUS
 62
     4
  5
4CB
 10
50034.311427
 20
15630.316893
 30
0.0
 11
50031.101647
 21
15629.749333
 31
0.0
  0
LINE
  8
1
  6
CONTINUOUS
 62
     4
  5
4CC
 10
50034.311427
 20
15633.370013
 30
0.0
 11
50031.101647
 21
15632.802523
 31
0.0
  0
LINE
  8
1
  6
CONTINUOUS
 62
     4
  5
4CD
 10
50034.311427
 20
15636.423203
 30
0.0
 11
50031.101647
 21
15635.855643
 31
0.0
  0
LINE
  8
1
  6
CONTINUOUS
 62
     4
  5
4CE
 10
50034.311427
 20
15639.456723
 30
0.0
 11
50031.101647
 21
15638.889163
 31
0.0
  0
LINE
  8
1
  6
CONTINUOUS
 62
     4
  5
4CF
 10
50034.311427
 20
15642.509843
 30
0.0
 11
50031.101647
 21
15641.942213
 31
0.0
  0
LINE
  8
1
  6
CONTINUOUS
 62
     4
  5
4D0
 10
50030.706567
 20
15622.074113
 30
0.0
 11
50034.706507
 21
15622.778313
 31
0.0
  0
LINE
  8
1
  6
CONTINUOUS
 62
     4
  5
4D1
 10
50032.706607
 20
15611.939443
 30
0.0
 11
50028.456487
 21
15611.939443
 31
0.0
  0
LINE
  8
1
  6
CONTINUOUS
 62
     4
  5
4D2
 10
50030.706567
 20
15616.027583
 30
0.0
 11
50034.706507
 21
15616.736823
 31
0.0
  0
LINE
  8
1
  6
CONTINUOUS
 62
     4
  5
4D3
 10
50030.706567
 20
15619.041433
 30
0.0
 11
50034.706507
 21
15619.750673
 31
0.0
  0
LINE
  8
1
  6
CONTINUOUS
 62
     4
  5
4D4
 10
50034.311427
 20
15615.149153
 30
0.0
 11
50031.101647
 21
15614.581593
 31
0.0
  0
LINE
  8
1
  6
CONTINUOUS
 62
     4
  5
4D5
 10
50034.311427
 20
15618.163073
 30
0.0
 11
50031.101647
 21
15617.595513
 31
0.0
  0
LINE
  8
1
  6
CONTINUOUS
 62
     4
  5
4D6
 10
50034.311427
 20
15621.196663
 30
0.0
 11
50031.101647
 21
15620.629103
 31
0.0
  0
LINE
  8
1
  6
CONTINUOUS
 62
     4
  5
4D7
 10
50030.103587
 20
15611.939443
 30
0.0
 11
50031.306607
 21
15613.142393
 31
0.0
  0
LINE
  8
1
  6
CONTINUOUS
 62
     4
  5
4D8
 10
50030.103587
 20
15611.939443
 30
0.0
 11
50028.456487
 21
15611.939443
 31
0.0
  0
LINE
  8
1
  6
CONTINUOUS
 62
     4
  5
4D9
 10
50035.309487
 20
15611.939443
 30
0.0
 11
50034.106607
 21
15613.142393
 31
0.0
  0
LINE
  8
1
  6
CONTINUOUS
 62
     4
  5
4DA
 10
50035.309487
 20
15611.939443
 30
0.0
 11
50036.956587
 21
15611.939443
 31
0.0
  0
LINE
  8
1
  6
CONTINUOUS
 62
     4
  5
4DB
 10
50034.311427
 20
15613.622593
 30
0.0
 11
50031.101647
 21
15613.055103
 31
0.0
  0
LINE
  8
1
  6
CONTINUOUS
 62
     4
  5
4DC
 10
50032.099847
 20
15608.448403
 30
0.0
 11
50033.313227
 21
15608.448403
 31
0.0
  0
LINE
  8
1
  6
CONTINUOUS
 62
     4
  5
4DD
 10
50032.099847
 20
15607.939433
 30
0.0
 11
50032.099847
 21
15608.448403
 31
0.0
  0
LINE
  8
1
  6
CONTINUOUS
 62
     4
  5
4DE
 10
50033.313227
 20
15607.939433
 30
0.0
 11
50033.313227
 21
15608.448403
 31
0.0
  0
LINE
  8
1
  6
CONTINUOUS
 62
     4
  5
4DF
 10
50032.099847
 20
15607.939433
 30
0.0
 11
50033.313227
 21
15607.939433
 31
0.0
  0
LINE
  8
1
  6
CONTINUOUS
 62
     4
  5
4E0
 10
50030.706567
 20
15643.407733
 30
0.0
 11
50034.706507
 21
15644.116973
 31
0.0
  0
LINE
  8
1
  6
CONTINUOUS
 62
     4
  5
4E1
 10
50034.097787
 20
15647.062153
 30
0.0
 11
50031.212947
 21
15646.550593
 31
0.0
  0
LINE
  8
1
  6
CONTINUOUS
 62
     4
  5
4E2
 10
50034.311427
 20
15645.562893
 30
0.0
 11
50031.101647
 21
15644.995333
 31
0.0
  0
LINE
  8
1
  6
CONTINUOUS
 62
     4
  5
4E3
 10
50033.805047
 20
15648.526413
 30
0.0
 11
50031.527527
 21
15648.123773
 31
0.0
  0
LINE
  8
40
  6
CONTINUOUS
 62
     4
  5
4E4
 10
50047.370627
 20
15617.939423
 30
0.0
 11
50047.370627
 21
15607.423883
 31
0.0
  0
LINE
  8
40
  6
CONTINUOUS
 62
     4
  5
4E5
 10
50044.870647
 20
15605.306943
 30
0.0
 11
50044.870647
 21
15612.939463
 31
0.0
  0
LINE
  8
40
  6
CONTINUOUS
 62
     4
  5
4E6
 10
49984.665607
 20
15598.939463
 30
0.0
 11
50020.196627
 21
15598.939463
 31
0.0
  0
LINE
  8
40
  6
CONTINUOUS
 62
     4
  5
4E7
 10
49988.395627
 20
15597.939443
 30
0.0
 11
50016.395627
 21
15597.939443
 31
0.0
  0
LINE
  8
40
  6
CONTINUOUS
 62
     4
  5
4E8
 10
50016.979987
 20
15596.939423
 30
0.0
 11
49987.879587
 21
15596.939423
 31
0.0
  0
LINE
  8
40
  6
CONTINUOUS
 62
     4
  5
4E9
 10
50016.541647
 20
15595.939333
 30
0.0
 11
49988.276487
 21
15595.939333
 31
0.0
  0
LINE
  8
12
  6
CONTINUOUS
 62
     4
  5
4EA
 10
50025.782627
 20
15612.939463
 30
0.0
 11
50047.395687
 21
15612.939463
 31
0.0
  0
LINE
  8
12
  6
CONTINUOUS
 62
     4
  5
4EB
 10
49959.895687
 20
15605.331723
 30
0.0
 11
49959.895687
 21
15612.939463
 31
0.0
  0
LINE
  8
12
  6
CONTINUOUS
 62
     4
  5
4EC
 10
49980.745047
 20
15599.951243
 30
0.0
 11
49980.745047
 21
15599.921703
 31
0.0
  0
LINE
  8
12
  6
CONTINUOUS
 62
     4
  5
4ED
 10
49979.027107
 20
15600.394483
 30
0.0
 11
49979.027107
 21
15612.939463
 31
0.0
  0
LINE
  8
12
  6
CONTINUOUS
 62
     4
  5
4EE
 10
49980.738887
 20
15600.046723
 30
0.0
 11
49979.114187
 21
15613.044743
 31
0.0
  0
LINE
  8
12
  6
CONTINUOUS
 62
     4
  5
4EF
 10
50024.064827
 20
15599.845823
 30
0.0
 11
50024.064827
 21
15599.816353
 31
0.0
  0
LINE
  8
12
  6
CONTINUOUS
 62
     4
  5
4F0
 10
50025.782627
 20
15600.289133
 30
0.0
 11
50025.782627
 21
15612.834183
 31
0.0
  0
LINE
  8
12
  6
CONTINUOUS
 62
     4
  5
4F1
 10
50024.070987
 20
15599.941443
 30
0.0
 11
50025.695687
 21
15612.939463
 31
0.0
  0
LINE
  8
12
  6
CONTINUOUS
 62
     4
  5
4F2
 10
49979.127347
 20
15612.939463
 30
0.0
 11
49959.895687
 21
15612.939463
 31
0.0
  0
LINE
  8
12
  6
CONTINUOUS
 62
     4
  5
4F3
 10
49979.127347
 20
15611.939443
 30
0.0
 11
49959.895687
 21
15611.939443
 31
0.0
  0
LINE
  8
12
  6
CONTINUOUS
 62
     4
  5
4F4
 10
50025.782627
 20
15611.939443
 30
0.0
 11
50047.395687
 21
15611.939443
 31
0.0
  0
LINE
  8
12
  6
CONTINUOUS
 62
     4
  5
4F5
 10
49976.334767
 20
15611.939443
 30
0.0
 11
49967.834807
 21
15611.939443
 31
0.0
  0
LINE
  8
12
  6
CONTINUOUS
 62
     4
  5
4F6
 10
49967.834807
 20
15611.939443
 30
0.0
 11
49967.834807
 21
15608.939453
 31
0.0
  0
LINE
  8
12
  6
CONTINUOUS
 62
     4
  5
4F7
 10
49976.334767
 20
15611.939443
 30
0.0
 11
49976.334767
 21
15608.939453
 31
0.0
  0
LINE
  8
12
  6
CONTINUOUS
 62
     4
  5
4F8
 10
49976.334767
 20
15608.939453
 30
0.0
 11
49976.334767
 21
15611.939443
 31
0.0
  0
LINE
  8
12
  6
CONTINUOUS
 62
     4
  5
4F9
 10
49967.834807
 20
15608.939453
 30
0.0
 11
49967.834807
 21
15611.939443
 31
0.0
  0
LINE
  8
12
  6
CONTINUOUS
 62
     4
  5
4FA
 10
49967.834807
 20
15608.939453
 30
0.0
 11
49976.334767
 21
15608.939453
 31
0.0
  0
ARC
  8
12
  6
CONTINUOUS
 62
     4
  5
4FB
 10
49972.084787
 20
15617.470703
 30
0.0
 40
9.53134
 50
243.51896
 51
296.48104
  0
LINE
  8
12
  6
CONTINUOUS
 62
     4
  5
4FC
 10
49973.484787
 20
15611.939443
 30
0.0
 11
49973.484787
 21
15642.939433
 31
0.0
  0
LINE
  8
12
  6
CONTINUOUS
 62
     4
  5
4FD
 10
49970.684787
 20
15611.939443
 30
0.0
 11
49970.684787
 21
15642.939433
 31
0.0
  0
LINE
  8
12
  6
CONTINUOUS
 62
     4
  5
4FE
 10
49973.484787
 20
15642.939433
 30
0.0
 11
49970.684787
 21
15642.939433
 31
0.0
  0
LINE
  8
12
  6
CONTINUOUS
 62
     4
  5
4FF
 10
49972.084787
 20
15649.939433
 30
0.0
 11
49970.684787
 21
15642.939433
 31
0.0
  0
LINE
  8
12
  6
CONTINUOUS
 62
     4
  5
500
 10
49972.084787
 20
15649.939433
 30
0.0
 11
49973.484787
 21
15642.939433
 31
0.0
  0
LINE
  8
12
  6
CENTER
 62
     4
  5
501
 10
49972.084787
 20
15608.939453
 30
0.0
 11
49972.084787
 21
15649.939433
 31
0.0
  0
LINE
  8
12
  6
CENTER
 62
     4
  5
502
 10
49972.084787
 20
15649.939433
 30
0.0
 11
49972.084787
 21
15610.432413
 31
0.0
  0
LINE
  8
12
  6
CONTINUOUS
 62
     4
  5
503
 10
50036.956587
 20
15611.939443
 30
0.0
 11
50028.456487
 21
15611.939443
 31
0.0
  0
LINE
  8
12
  6
CONTINUOUS
 62
     4
  5
504
 10
50028.456487
 20
15611.939443
 30
0.0
 11
50028.456487
 21
15608.939453
 31
0.0
  0
LINE
  8
12
  6
CONTINUOUS
 62
     4
  5
505
 10
50036.956587
 20
15611.939443
 30
0.0
 11
50036.956587
 21
15608.939453
 31
0.0
  0
LINE
  8
12
  6
CONTINUOUS
 62
     4
  5
506
 10
50036.956587
 20
15608.939453
 30
0.0
 11
50036.956587
 21
15611.939443
 31
0.0
  0
LINE
  8
12
  6
CONTINUOUS
 62
     4
  5
507
 10
50028.456487
 20
15608.939453
 30
0.0
 11
50028.456487
 21
15611.939443
 31
0.0
  0
LINE
  8
12
  6
CONTINUOUS
 62
     4
  5
508
 10
50028.456487
 20
15608.939453
 30
0.0
 11
50036.956587
 21
15608.939453
 31
0.0
  0
ARC
  8
12
  6
CONTINUOUS
 62
     4
  5
509
 10
50032.706607
 20
15617.470703
 30
0.0
 40
9.53134
 50
243.51896
 51
296.48104
  0
LINE
  8
12
  6
CONTINUOUS
 62
     4
  5
50A
 10
50034.106607
 20
15611.939443
 30
0.0
 11
50034.106607
 21
15642.939433
 31
0.0
  0
LINE
  8
12
  6
CONTINUOUS
 62
     4
  5
50B
 10
50031.306607
 20
15611.939443
 30
0.0
 11
50031.306607
 21
15642.939433
 31
0.0
  0
LINE
  8
12
  6
CONTINUOUS
 62
     4
  5
50C
 10
50034.106607
 20
15642.939433
 30
0.0
 11
50031.306607
 21
15642.939433
 31
0.0
  0
LINE
  8
12
  6
CONTINUOUS
 62
     4
  5
50D
 10
50032.706607
 20
15649.939433
 30
0.0
 11
50031.306607
 21
15642.939433
 31
0.0
  0
LINE
  8
12
  6
CONTINUOUS
 62
     4
  5
50E
 10
50032.706607
 20
15649.939433
 30
0.0
 11
50034.106607
 21
15642.939433
 31
0.0
  0
LINE
  8
12
  6
CENTER
 62
     4
  5
50F
 10
50032.706607
 20
15608.939453
 30
0.0
 11
50032.706607
 21
15649.939433
 31
0.0
  0
LINE
  8
12
  6
CENTER
 62
     4
  5
510
 10
50032.706607
 20
15649.939433
 30
0.0
 11
50032.706607
 21
15610.432413
 31
0.0
  0
LINE
  8
12
  6
CONTINUOUS
 62
     4
  5
511
 10
49977.793287
 20
15612.186683
 30
0.0
 11
49966.293267
 21
15612.186683
 31
0.0
  0
LINE
  8
12
  6
CONTINUOUS
 62
     4
  5
512
 10
49977.793287
 20
15612.986573
 30
0.0
 11
49966.293267
 21
15612.986573
 31
0.0
  0
LINE
  8
12
  6
CONTINUOUS
 62
     4
  5
513
 10
49977.793287
 20
15612.186683
 30
0.0
 11
49977.793287
 21
15612.986573
 31
0.0
  0
LINE
  8
12
  6
CONTINUOUS
 62
     4
  5
514
 10
49974.793367
 20
15612.186683
 30
0.0
 11
49974.793367
 21
15612.986573
 31
0.0
  0
LINE
  8
12
  6
CONTINUOUS
 62
     4
  5
515
 10
49969.293327
 20
15612.186683
 30
0.0
 11
49969.293327
 21
15612.986573
 31
0.0
  0
LINE
  8
12
  6
CONTINUOUS
 62
     4
  5
516
 10
49966.293267
 20
15612.186683
 30
0.0
 11
49966.293267
 21
15612.986573
 31
0.0
  0
LINE
  8
12
  6
CONTINUOUS
 62
     4
  5
517
 10
50038.411467
 20
15612.186683
 30
0.0
 11
50026.911447
 21
15612.186683
 31
0.0
  0
LINE
  8
12
  6
CONTINUOUS
 62
     4
  5
518
 10
50038.411467
 20
15612.986573
 30
0.0
 11
50026.911447
 21
15612.986573
 31
0.0
  0
LINE
  8
12
  6
CONTINUOUS
 62
     4
  5
519
 10
50038.411467
 20
15612.186683
 30
0.0
 11
50038.411467
 21
15612.986573
 31
0.0
  0
LINE
  8
12
  6
CONTINUOUS
 62
     4
  5
51A
 10
50035.411407
 20
15612.186683
 30
0.0
 11
50035.411407
 21
15612.986573
 31
0.0
  0
LINE
  8
12
  6
CONTINUOUS
 62
     4
  5
51B
 10
50029.911367
 20
15612.186683
 30
0.0
 11
50029.911367
 21
15612.986573
 31
0.0
  0
LINE
  8
12
  6
CONTINUOUS
 62
     4
  5
51C
 10
50026.911447
 20
15612.186683
 30
0.0
 11
50026.911447
 21
15612.986573
 31
0.0
  0
LINE
  8
8
  6
CONTINUOUS
 62
     4
  5
51D
 10
50019.396107
 20
15598.732823
 30
0.0
 11
50045.891667
 21
15605.570353
 31
0.0
  0
LINE
  8
8
  6
CONTINUOUS
 62
     4
  5
51E
 10
49985.583867
 20
15598.702373
 30
0.0
 11
49958.852827
 21
15605.600733
 31
0.0
  0
ARC
  8
8
  6
CONTINUOUS
 62
     4
  5
51F
 10
49984.427887
 20
15594.903473
 30
0.0
 40
4.00008
 50
0.0
 51
75.529706
  0
LINE
  8
50
  6
CENTER
 62
     4
  5
520
 10
49972.043347
 20
15612.186683
 30
0.0
 11
49972.043347
 21
15614.308663
 31
0.0
  0
LINE
  8
50
  6
CENTER
 62
     4
  5
521
 10
50032.661387
 20
15612.186683
 30
0.0
 11
50032.661387
 21
15614.308663
 31
0.0
  0
ARC
  8
8
  6
CONTINUOUS
 62
     4
  5
522
 10
50020.390107
 20
15594.852583
 30
0.0
 40
4.00008
 50
104.470294
 51
180.0
  0
LINE
  8
40
  6
CONTINUOUS
 62
     4
  5
523
 10
49988.395627
 20
15567.939193
 30
0.0
 11
49988.395627
 21
15590.523526
 31
0.0
  0
LINE
  8
8
  6
CONTINUOUS
 62
     4
  5
524
 10
49978.378891
 20
15567.939193
 30
0.0
 11
50457.178891
 21
15567.939193
 31
0.0
  0
LINE
  8
8
  6
CONTINUOUS
 62
     4
  5
525
 10
50457.178891
 20
15552.914088
 30
0.0
 11
50457.178891
 21
15567.939193
 31
0.0
  0
ARC
  8
8
  6
CONTINUOUS
 62
     4
  5
526
 10
50447.162154
 20
15552.914088
 30
0.0
 40
10.016736
 50
270.0
 51
0.0
  0
LINE
  8
8
  6
CONTINUOUS
 62
     4
  5
527
 10
49988.395627
 20
15542.897352
 30
0.0
 11
50447.162154
 21
15542.897352
 31
0.0
  0
ARC
  8
8
  6
CONTINUOUS
 62
     4
  5
528
 10
49988.395627
 20
15552.914088
 30
0.0
 40
10.016736
 50
180.0
 51
270.0
  0
LINE
  8
8
  6
CONTINUOUS
 62
     4
  5
529
 10
49978.378891
 20
15552.914088
 30
0.0
 11
49978.378891
 21
15567.939193
 31
0.0
  0
ARC
  8
40
  6
CONTINUOUS
 62
     4
  5
52A
 10
50390.162134
 20
15607.555063
 30
0.0
 40
2.00004
 50
180.0
 51
255.529705
  0
LINE
  8
8
  6
CONTINUOUS
 62
     4
  5
52B
 10
50416.350394
 20
15598.702233
 30
0.0
 11
50389.619354
 21
15605.600593
 31
0.0
  0
LINE
  8
8
  6
CONTINUOUS
 62
     4
  5
52C
 10
50450.162634
 20
15598.732683
 30
0.0
 11
50476.658194
 21
15605.570213
 31
0.0
  0
ARC
  8
40
  6
CONTINUOUS
 62
     4
  5
52D
 10
50476.160494
 20
15607.512013
 30
0.0
 40
2.00004
 50
284.069648
 51
0.0
  0
TEXT
  8
5
  6
CONTINUOUS
 62
     3
  5
52E
 10
49993.463326
 20
15317.897352
 30
0.0
 40
90.0
  1
テスリックス
 41
0.837
  7

 72
     5
 11
50533.463326
 21
15317.897352
 31
0.0
  0
LINE
  8
5
  6
CONTINUOUS
 62
     3
  5
52F
 10
50048.367136
 20
15542.897352
 30
0.0
 11
49918.463326
 21
15317.897352
 31
0.0
  0
LINE
  8
5
  6
CONTINUOUS
 62
     3
  5
530
 10
49918.463326
 20
15317.897352
 30
0.0
 11
50533.463326
 21
15317.897352
 31
0.0
  0
TEXT
  8
5
  6
CONTINUOUS
 62
     3
  5
531
 10
50015.141386
 20
9347.734583
 30
0.0
 40
90.0
  1
テスリックス
 41
0.837
  7

 72
     5
 11
50555.141386
 21
9347.734583
 31
0.0
  0
LINE
  8
5
  6
CONTINUOUS
 62
     3
  5
532
 10
50026.743926
 20
9497.734583
 30
0.0
 11
49940.141386
 21
9347.734583
 31
0.0
  0
LINE
  8
5
  6
CONTINUOUS
 62
     3
  5
533
 10
49940.141386
 20
9347.734583
 30
0.0
 11
50555.141386
 21
9347.734583
 31
0.0
  0
LINE
  8
5
  6
CONTINUOUS
 62
     3
  5
534
 10
50446.837548
 20
10442.134583
 30
0.0
 11
50446.837548
 21
10142.134583
 31
0.0
  0
LINE
  8
5
  6
CONTINUOUS
 62
     3
  5
535
 10
49241.836548
 20
10442.134583
 30
0.0
 11
49241.836548
 21
10142.134583
 31
0.0
  0
LINE
  8
5
  6
CONTINUOUS
 62
     3
  5
536
 10
49996.837548
 20
10292.134583
 30
0.0
 11
49996.837548
 21
10142.134583
 31
0.0
  0
CIRCLE
  8
5
  6
CONTINUOUS
 62
     3
  5
537
 10
50446.837548
 20
10442.134583
 30
0.0
 40
7.5
  0
CIRCLE
  8
5
  6
CONTINUOUS
 62
     3
  5
538
 10
49241.836548
 20
10442.134583
 30
0.0
 40
7.5
  0
CIRCLE
  8
5
  6
CONTINUOUS
 62
     3
  5
539
 10
49241.836548
 20
10292.134583
 30
0.0
 40
7.5
  0
CIRCLE
  8
5
  6
CONTINUOUS
 62
     3
  5
53A
 10
49996.837548
 20
10292.134583
 30
0.0
 40
7.5
  0
CIRCLE
  8
5
  6
CONTINUOUS
 62
     3
  5
53B
 10
50446.837548
 20
10292.134583
 30
0.0
 40
7.5
  0
LINE
  8
5
  6
CONTINUOUS
 62
     3
  5
53C
 10
50446.837548
 20
10442.134583
 30
0.0
 11
49241.836548
 21
10442.134583
 31
0.0
  0
LINE
  8
5
  6
CONTINUOUS
 62
     3
  5
53D
 10
49241.836548
 20
10292.134583
 30
0.0
 11
49996.837548
 21
10292.134583
 31
0.0
  0
LINE
  8
5
  6
CONTINUOUS
 62
     3
  5
53E
 10
49996.837548
 20
10292.134583
 30
0.0
 11
50446.837548
 21
10292.134583
 31
0.0
  0
LINE
  8
5
  6
CONTINUOUS
 62
     3
  5
53F
 10
50896.837548
 20
8862.134583
 30
0.0
 11
50596.837548
 21
8862.134583
 31
0.0
  0
LINE
  8
5
  6
CONTINUOUS
 62
     3
  5
540
 10
50896.837548
 20
10112.134583
 30
0.0
 11
50596.837548
 21
10112.134583
 31
0.0
  0
LINE
  8
5
  6
CONTINUOUS
 62
     3
  5
541
 10
50746.837548
 20
9512.134583
 30
0.0
 11
50596.837548
 21
9512.134583
 31
0.0
  0
CIRCLE
  8
5
  6
CONTINUOUS
 62
     3
  5
542
 10
50896.837548
 20
8862.134583
 30
0.0
 40
7.5
  0
CIRCLE
  8
5
  6
CONTINUOUS
 62
     3
  5
543
 10
50896.837548
 20
10112.134583
 30
0.0
 40
7.5
  0
CIRCLE
  8
5
  6
CONTINUOUS
 62
     3
  5
544
 10
50746.837548
 20
8862.134583
 30
0.0
 40
7.5
  0
CIRCLE
  8
5
  6
CONTINUOUS
 62
     3
  5
545
 10
50746.837548
 20
9512.134583
 30
0.0
 40
7.5
  0
CIRCLE
  8
5
  6
CONTINUOUS
 62
     3
  5
546
 10
50746.837548
 20
10112.134583
 30
0.0
 40
7.5
  0
LINE
  8
5
  6
CONTINUOUS
 62
     3
  5
547
 10
50896.837548
 20
8862.134583
 30
0.0
 11
50896.837548
 21
10112.134583
 31
0.0
  0
LINE
  8
5
  6
CONTINUOUS
 62
     3
  5
548
 10
50746.837548
 20
8862.134583
 30
0.0
 11
50746.837548
 21
9512.134583
 31
0.0
  0
LINE
  8
5
  6
CONTINUOUS
 62
     3
  5
549
 10
50746.837548
 20
9512.134583
 30
0.0
 11
50746.837548
 21
10112.134583
 31
0.0
  0
LINE
  8
5
  6
CONTINUOUS
 62
     3
  5
54A
 10
48911.836548
 20
8862.134583
 30
0.0
 11
49211.836548
 21
8862.134583
 31
0.0
  0
LINE
  8
5
  6
CONTINUOUS
 62
     3
  5
54B
 10
48911.836548
 20
11512.134683
 30
0.0
 11
49211.836548
 21
11512.134683
 31
0.0
  0
CIRCLE
  8
5
  6
CONTINUOUS
 62
     3
  5
54C
 10
48911.836548
 20
8862.134583
 30
0.0
 40
7.5
  0
CIRCLE
  8
5
  6
CONTINUOUS
 62
     3
  5
54D
 10
48911.836548
 20
11512.134683
 30
0.0
 40
7.5
  0
LINE
  8
5
  6
CONTINUOUS
 62
     3
  5
54E
 10
48911.836548
 20
8862.134583
 30
0.0
 11
48911.836548
 21
11512.134683
 31
0.0
  0
TEXT
  8
5
  6
CONTINUOUS
 62
     3
  5
54F
 10
50859.335548
 20
13092.940162
 30
0.0
 40
90.0
  1
665
 50
90.0
 41
0.666667
  7

 72
     5
 11
50859.335548
 21
13272.940162
 31
0.0
  0
TEXT
  8
5
  6
CONTINUOUS
 62
     3
  5
550
 10
50859.335548
 20
12721.839162
 30
0.0
 40
90.0
  1
105
 50
90.0
 41
0.666667
  7

 72
     5
 11
50859.335548
 21
12901.839162
 31
0.0
  0
TEXT
  8
5
  6
CONTINUOUS
 62
     3
  5
551
 10
50859.335548
 20
14504.415081
 30
0.0
 40
90.0
  1
2,180
 50
90.0
 41
0.6
  7

 72
     5
 11
50859.335548
 21
14774.415081
 31
0.0
  0
TEXT
  8
5
  6
CONTINUOUS
 62
     3
  5
552
 10
50959.335548
 20
14135.514081
 30
0.0
 40
90.0
  1
2,950
 50
90.0
 41
0.6
  7

 72
     5
 11
50959.335548
 21
14405.514081
 31
0.0
  0
TEXT
  8
5
  6
CONTINUOUS
 62
     3
  5
553
 10
49709.337048
 20
10442.134583
 30
0.0
 40
90.0
  1
1,205
 41
0.6
  7

 72
     5
 11
49979.337048
 21
10442.134583
 31
0.0
  0
TEXT
  8
5
  6
CONTINUOUS
 62
     3
  5
554
 10
49529.337048
 20
10292.134583
 30
0.0
 40
90.0
  1
755
 41
0.666667
  7

 72
     5
 11
49709.337048
 21
10292.134583
 31
0.0
  0
TEXT
  8
5
  6
CONTINUOUS
 62
     3
  5
555
 10
50131.837548
 20
10292.134583
 30
0.0
 40
90.0
  1
450
 41
0.666667
  7

 72
     5
 11
50311.837548
 21
10292.134583
 31
0.0
  0
TEXT
  8
5
  6
CONTINUOUS
 62
     3
  5
556
 10
50896.837548
 20
9352.134583
 30
0.0
 40
90.0
  1
1,250
 50
90.0
 41
0.6
  7

 72
     5
 11
50896.837548
 21
9622.134583
 31
0.0
  0
TEXT
  8
5
  6
CONTINUOUS
 62
     3
  5
557
 10
50746.837548
 20
9097.134583
 30
0.0
 40
90.0
  1
650
 50
90.0
 41
0.666667
  7

 72
     5
 11
50746.837548
 21
9277.134583
 31
0.0
  0
TEXT
  8
5
  6
CONTINUOUS
 62
     3
  5
558
 10
50746.837548
 20
9722.134583
 30
0.0
 40
90.0
  1
600
 50
90.0
 41
0.666667
  7

 72
     5
 11
50746.837548
 21
9902.134583
 31
0.0
  0
TEXT
  8
5
  6
CONTINUOUS
 62
     3
  5
559
 10
48911.836548
 20
10052.134633
 30
0.0
 40
90.0
  1
2,650
 50
90.0
 41
0.6
  7

 72
     5
 11
48911.836548
 21
10322.134633
 31
0.0
  0
TEXT
  8
5
  6
CONTINUOUS
 62
     3
  5
55A
 10
49579.9473
 20
8497.156792
 30
0.0
 40
135.0
  1
テスリックス
 41
0.837
  7

 72
     5
 11
50389.9473
 21
8497.156792
 31
0.0
  0
TEXT
  8
5
  6
CONTINUOUS
 62
     3
  5
55B
 10
49579.9473
 20
8362.156792
 30
0.0
 40
135.0
  1
取付側展開図
 41
0.837
  7

 72
     5
 11
50389.9473
 21
8362.156792
 31
0.0
  0
LINE
  8
5
  6
CONTINUOUS
 62
     2
  5
55C
 10
49241.836548
 20
8922.134583
 30
0.0
 11
49384.516964
 21
8922.134583
 31
0.0
  0
LINE
  8
5
  6
CONTINUOUS
 62
     2
  5
55D
 10
49902.026967
 20
8922.134583
 30
0.0
 11
50566.837548
 21
8922.134583
 31
0.0
  0
CIRCLE
  8
5
  6
CONTINUOUS
 62
     3
  5
55E
 10
49141.836548
 20
16232.938273
 30
0.0
 40
11.25
  0
CIRCLE
  8
5
  6
CONTINUOUS
 62
     3
  5
55F
 10
49831.837325
 20
16082.938273
 30
0.0
 40
11.25
  0
CIRCLE
  8
5
  6
CONTINUOUS
 62
     3
  5
560
 10
49306.836874
 20
16082.938273
 30
0.0
 40
11.25
  0
LINE
  8
5
  6
CONTINUOUS
 62
     3
  5
561
 10
49831.837325
 20
16082.938273
 30
0.0
 11
49306.836874
 21
16082.938273
 31
0.0
  0
TEXT
  8
5
  6
CONTINUOUS
 62
     3
  5
562
 10
49486.630241
 20
16082.938273
 30
0.0
 40
90.0
  1
525
 41
0.666667
  7

 72
     5
 11
49666.630241
 21
16082.938273
 31
0.0
  0
CIRCLE
  8
5
  6
CONTINUOUS
 62
     3
  5
563
 10
50641.836548
 20
16082.938273
 30
0.0
 40
11.25
  0
CIRCLE
  8
5
  6
CONTINUOUS
 62
     3
  5
564
 10
49141.836548
 20
16082.938273
 30
0.0
 40
11.25
  0
LINE
  8
5
  6
CONTINUOUS
 62
     3
  5
565
 10
49306.836874
 20
16082.938273
 30
0.0
 11
49141.836548
 21
16082.938273
 31
0.0
  0
LINE
  8
5
  6
CONTINUOUS
 62
     3
  5
566
 10
49306.836874
 20
16082.938273
 30
0.0
 11
49306.836874
 21
15932.938273
 31
0.0
  0
TEXT
  8
5
  6
CONTINUOUS
 62
     3
  5
567
 10
49141.629853
 20
16082.938273
 30
0.0
 40
90.0
  1
165
 41
0.666667
  7

 72
     5
 11
49321.629853
 21
16082.938273
 31
0.0
  0
LINE
  8
5
  6
CONTINUOUS
 62
     3
  5
568
 10
49141.836548
 20
16232.938273
 30
0.0
 11
49141.836548
 21
15932.938273
 31
0.0
  0
LINE
  8
5
  6
CONTINUOUS
 62
     3
  5
569
 10
49831.837325
 20
16082.938273
 30
0.0
 11
49831.837325
 21
15932.938273
 31
0.0
  0
LINE
  8
5
  6
CONTINUOUS
 62
     3
  5
56A
 10
50641.836548
 20
16082.938273
 30
0.0
 11
49831.837325
 21
16082.938273
 31
0.0
  0
TEXT
  8
5
  6
CONTINUOUS
 62
     3
  5
56B
 10
50154.130079
 20
16082.938273
 30
0.0
 40
90.0
  1
810
 41
0.666667
  7

 72
     5
 11
50334.130079
 21
16082.938273
 31
0.0
  0
LINE
  8
5
  6
CONTINUOUS
 62
     3
  5
56C
 10
50641.836548
 20
16232.938273
 30
0.0
 11
50641.836548
 21
15932.938273
 31
0.0
  0
LINE
  8
5
  6
CONTINUOUS
 62
     3
  5
56D
 10
50641.836548
 20
16232.938273
 30
0.0
 11
49141.836548
 21
16232.938273
 31
0.0
  0
TEXT
  8
5
  6
CONTINUOUS
 62
     3
  5
56E
 10
49764.12969
 20
16232.938273
 30
0.0
 40
90.0
  1
1,500
 41
0.6
  7

 72
     5
 11
50034.12969
 21
16232.938273
 31
0.0
  0
LINE
  8
5
  6
CONTINUOUS
 62
     5
  5
56F
 10
49321.837071
 20
15722.938866
 30
0.0
 11
49261.836288
 21
15722.938866
 31
0.0
  0
LINE
  8
5
  6
CONTINUOUS
 62
     5
  5
570
 10
49261.836288
 20
15722.938866
 30
0.0
 11
49261.836288
 21
15617.938002
 31
0.0
  0
LINE
  8
5
  6
CONTINUOUS
 62
     5
  5
571
 10
49816.837128
 20
15722.938866
 30
0.0
 11
49876.83791
 21
15722.938866
 31
0.0
  0
LINE
  8
5
  6
CONTINUOUS
 62
     5
  5
572
 10
49876.83791
 20
15722.938866
 30
0.0
 11
49876.83791
 21
15617.94238
 31
0.0
  0
ENDSEC
  0
EOF
