  0
SECTION
  2
HEADER
  9
$ACADVER
  1
AC1009
  9
$INSBASE
 10
0.0
 20
0.0
 30
0.0
  9
$EXTMIN
 10
47831.839612
 20
8374.192667
 30
0.0
  9
$EXTMAX
 10
51893.041326
 20
13472.60619
 30
0.0
  9
$LIMMIN
 10
46732.395087
 20
7820.98695
  9
$LIMMAX
 10
50932.395087
 20
13760.98695
  9
$ORTHOMODE
 70
     0
  9
$REGENMODE
 70
     1
  9
$FILLMODE
 70
     1
  9
$QTEXTMODE
 70
     0
  9
$MIRRTEXT
 70
     1
  9
$DRAGMODE
 70
     2
  9
$LTSCALE
 40
20.0
  9
$OSMODE
 70
     0
  9
$ATTMODE
 70
     1
  9
$TEXTSIZE
 40
0.2
  9
$TRACEWID
 40
0.05
  9
$TEXTSTYLE
  7
STANDARD
  9
$CLAYER
  8
0
  9
$CELTYPE
  6
CONTINUOUS
  9
$CECOLOR
 62
   256
  9
$DIMSCALE
 40
1.0
  9
$DIMASZ
 40
0.18
  9
$DIMEXO
 40
0.0625
  9
$DIMDLI
 40
0.38
  9
$DIMRND
 40
0.0
  9
$DIMDLE
 40
0.0
  9
$DIMEXE
 40
0.18
  9
$DIMTP
 40
0.0
  9
$DIMTM
 40
0.0
  9
$DIMTXT
 40
0.18
  9
$DIMCEN
 40
0.09
  9
$DIMTSZ
 40
0.0
  9
$DIMTOL
 70
     0
  9
$DIMLIM
 70
     0
  9
$DIMTIH
 70
     1
  9
$DIMTOH
 70
     1
  9
$DIMSE1
 70
     0
  9
$DIMSE2
 70
     0
  9
$DIMTAD
 70
     0
  9
$DIMZIN
 70
     0
  9
$DIMBLK
  1

  9
$DIMASO
 70
     1
  9
$DIMSHO
 70
     1
  9
$DIMPOST
  1

  9
$DIMAPOST
  1

  9
$DIMALT
 70
     0
  9
$DIMALTD
 70
     2
  9
$DIMALTF
 40
25.4
  9
$DIMLFAC
 40
1.0
  9
$DIMTOFL
 70
     0
  9
$DIMTVP
 40
0.0
  9
$DIMTIX
 70
     0
  9
$DIMSOXD
 70
     0
  9
$DIMSAH
 70
     0
  9
$DIMBLK1
  1

  9
$DIMBLK2
  1

  9
$DIMSTYLE
  2
STANDARD
  9
$DIMCLRD
 70
     0
  9
$DIMCLRE
 70
     0
  9
$DIMCLRT
 70
     0
  9
$DIMTFAC
 40
1.0
  9
$DIMGAP
 40
0.09
  9
$LUNITS
 70
     2
  9
$LUPREC
 70
     4
  9
$AXISMODE
 70
     0
  9
$AXISUNIT
 10
0.0
 20
0.0
  9
$SKETCHINC
 40
0.1
  9
$FILLETRAD
 40
0.0
  9
$AUNITS
 70
     0
  9
$AUPREC
 70
     0
  9
$MENU
  1
acad
  9
$ELEVATION
 40
0.0
  9
$PELEVATION
 40
0.0
  9
$THICKNESS
 40
0.0
  9
$LIMCHECK
 70
     0
  9
$BLIPMODE
 70
     1
  9
$CHAMFERA
 40
0.0
  9
$CHAMFERB
 40
0.0
  9
$SKPOLY
 70
     0
  9
$TDCREATE
 40
0.000000000
  9
$TDUPDATE
 40
0.000000000
  9
$TDINDWG
 40
0.0000000000
  9
$TDUSRTIMER
 40
0.0000000000
  9
$USRTIMER
 70
     1
  9
$ANGBASE
 50
0.0
  9
$ANGDIR
 70
     0
  9
$PDMODE
 70
     0
  9
$PDSIZE
 40
0.0
  9
$PLINEWID
 40
0.0
  9
$COORDS
 70
     0
  9
$SPLFRAME
 70
     0
  9
$SPLINETYPE
 70
     6
  9
$SPLINESEGS
 70
     8
  9
$ATTDIA
 70
     0
  9
$ATTREQ
 70
     1
  9
$HANDLING
 70
     1
  9
$HANDSEED
  5
41C
  9
$SURFTAB1
 70
     6
  9
$SURFTAB2
 70
     6
  9
$SURFTYPE
 70
     6
  9
$SURFU
 70
     6
  9
$SURFV
 70
     6
  9
$UCSNAME
  2

  9
$UCSORG
 10
0.0
 20
0.0
 30
0.0
  9
$UCSXDIR
 10
1.0
 20
0.0
 30
0.0
  9
$UCSYDIR
 10
0.0
 20
1.0
 30
0.0
  9
$PUCSNAME
  2

  9
$PUCSORG
 10
0.0
 20
0.0
 30
0.0
  9
$PUCSXDIR
 10
1.0
 20
0.0
 30
0.0
  9
$PUCSYDIR
 10
0.0
 20
1.0
 30
0.0
  9
$USERI1
 70
     0
  9
$USERI2
 70
     0
  9
$USERI3
 70
     0
  9
$USERI4
 70
     0
  9
$USERI5
 70
     0
  9
$USERR1
 40
0.0
  9
$USERR2
 40
0.0
  9
$USERR3
 40
0.0
  9
$USERR4
 40
0.0
  9
$USERR5
 40
0.0
  9
$WORLDVIEW
 70
     1
  9
$SHADEDGE
 70
     3
  9
$SHADEDIF
 70
    70
  9
$TILEMODE
 70
     1
  9
$MAXACTVP
 70
    16
  9
$PINSBASE
 10
0.0
 20
0.0
 30
0.0
  9
$PLIMCHECK
 70
     0
  9
$PEXTMIN
 10
1.000000E+20
 20
1.000000E+20
 30
1.000000E+20
  9
$PEXTMAX
 10
-1.000000E+20
 20
-1.000000E+20
 30
-1.000000E+20
  9
$PLIMMIN
 10
0.0
 20
0.0
  9
$PLIMMAX
 10
12.0
 20
9.0
  9
$UNITMODE
 70
     0
  9
$VISRETAIN
 70
     0
  9
$PLINEGEN
 70
     1
  9
$PSLTSCALE
 70
     0
  9
$TREEDEPTH
 70
  3020
  9
$DWGCODEPAGE
  3
dos932
  0
ENDSEC
  0
SECTION
  2
TABLES
  0
TABLE
  2
VPORT
 70
     1
  0
VPORT
  2
*ACTIVE
 70
     0
 10
0.0
 20
0.0
 11
1.0
 21
1.0
 12
48832.395087
 22
10790.98695
 13
0.0
 23
0.0
 14
1000.0
 24
1000.0
 15
1000.0
 25
1000.0
 16
0.0
 26
0.0
 36
1.0
 17
0.0
 27
0.0
 37
0.0
 40
5940.0
 41
0.707071
 42
50.0
 43
0.0
 44
0.0
 50
0.0
 51
0.0
 71
     0
 72
   100
 73
     1
 74
     1
 75
     0
 76
     0
 77
     0
 78
     0
  0
ENDTAB
  0
TABLE
  2
LTYPE
 70
     9
  0
LTYPE
  2
CONTINUOUS
 70
    64
  3
Solid line
 72
    65
 73
     0
 40
0.0
  0
LTYPE
  2
HIDDEN
 70
    64
  3
__ __ __ __ __ __ __ __ __ __ __ __ __ __ __ __
 72
    65
 73
     5
 40
8.0
 49
1.0
 49
-2.0
 49
2.0
 49
-2.0
 49
1.0
  0
LTYPE
  2
DOT
 70
    64
  3
. . . . . . . . . . . . . . . . . . . . . . . .
 72
    65
 73
     3
 40
1.6
 49
0.4
 49
-0.8
 49
0.4
  0
LTYPE
  2
CENTER
 70
    64
  3
____ _ ____ _ ____ _ ____ _ ____ _ ____ _ ____ 
 72
    65
 73
     5
 40
12.0
 49
5.0
 49
-0.8
 49
0.4
 49
-0.8
 49
5.0
  0
LTYPE
  2
DIVIDE
 70
    64
  3
____ . . ____ . . ____ . . ____ . . ____ . . __
 72
    65
 73
     7
 40
13.2
 49
5.0
 49
-0.8
 49
0.4
 49
-0.8
 49
0.4
 49
-0.8
 49
5.0
  0
LTYPE
  2
DASHED1
 70
     0
  3
Solid Line
 72
    65
 73
     2
 40
2.5
 49
1.25
 49
-1.25
  0
LTYPE
  2
DASHED3
 70
     0
  3
Solid Line
 72
    65
 73
     2
 40
5.0
 49
3.75
 49
-1.25
  0
LTYPE
  2
CENTER1
 70
     0
  3
Solid Line
 72
    65
 73
     4
 40
10.0
 49
6.25
 49
-1.25
 49
1.25
 49
-1.25
  0
LTYPE
  2
PHANTOM1
 70
     0
  3
Solid Line
 72
    65
 73
     6
 40
9.5
 49
3.25
 49
-1.25
 49
1.25
 49
-1.25
 49
1.25
 49
-1.25
  0
ENDTAB
  0
TABLE
  2
LAYER
 70
    21
  0
LAYER
  2
0
 70
     0
 62
     7
  6
CONTINUOUS
  0
LAYER
  2
1
 70
     0
 62
     1
  6
CONTINUOUS
  0
LAYER
  2
2
 70
     0
 62
     1
  6
CONTINUOUS
  0
LAYER
  2
3
 70
     0
 62
     1
  6
CONTINUOUS
  0
LAYER
  2
4
 70
     0
 62
     1
  6
CONTINUOUS
  0
LAYER
  2
5
 70
     0
 62
     1
  6
CONTINUOUS
  0
LAYER
  2
6
 70
     0
 62
     1
  6
CONTINUOUS
  0
LAYER
  2
7
 70
     0
 62
     1
  6
CONTINUOUS
  0
LAYER
  2
8
 70
     0
 62
     1
  6
CONTINUOUS
  0
LAYER
  2
9
 70
     0
 62
     1
  6
CONTINUOUS
  0
LAYER
  2
10
 70
     0
 62
     1
  6
CONTINUOUS
  0
LAYER
  2
11
 70
     0
 62
     1
  6
CONTINUOUS
  0
LAYER
  2
12
 70
     0
 62
     1
  6
CONTINUOUS
  0
LAYER
  2
13
 70
     0
 62
     1
  6
CONTINUOUS
  0
LAYER
  2
14
 70
     0
 62
     1
  6
CONTINUOUS
  0
LAYER
  2
15
 70
     0
 62
     1
  6
CONTINUOUS
  0
LAYER
  2
16
 70
     0
 62
     1
  6
CONTINUOUS
  0
LAYER
  2
40
 70
     0
 62
     1
  6
CONTINUOUS
  0
LAYER
  2
50
 70
     0
 62
     1
  6
CONTINUOUS
  0
LAYER
  2
55
 70
     0
 62
     1
  6
CONTINUOUS
  0
LAYER
  2
100
 70
     0
 62
     1
  6
CONTINUOUS
  0
ENDTAB
  0
TABLE
  2
STYLE
 70
     3
  0
STYLE
  2
STANDARD
 70
     0
 40
0.0
 41
1.0
 50
0.0
 71
     0
 42
0.0
  3
txt
  4

  0
STYLE
  2

 70
     0
 40
1000.0
 41
1.0
 50
0.0
 71
     0
 42
1000.0
  3
txt
  4
extfont
  0
STYLE
  2

 70
     0
 40
1000.0
 41
1.0
 50
0.0
 71
     0
 42
1000.0
  3
txt
  4
extfont
  0
ENDTAB
  0
TABLE
  2
VIEW
 70
     0
  0
ENDTAB
  0
TABLE
  2
UCS
 70
     0
  0
ENDTAB
  0
TABLE
  2
APPID
 70
     1
  0
APPID
  2
ACAD
 70
     0
  0
ENDTAB
  0
TABLE
  2
DIMSTYLE
 70
     1
  0
DIMSTYLE
  2
STANDARD
 70
     0
  3

  4

  5

  6

  7

 40
1.0
 41
0.18
 42
0.0625
 43
0.38
 44
0.18
 45
0.0
 46
0.0
 47
0.0
 48
0.0
 71
     0
 72
     0
 73
     1
 74
     1
 75
     0
 76
     0
 77
     0
 78
     0
140
0.18
141
0.09
142
0.0
143
25.4
144
1.0
145
0.0
146
1.0
147
0.09
170
     0
171
     2
172
     0
173
     0
174
     0
175
     0
176
     0
177
     0
178
     0
  0
ENDTAB
  0
ENDSEC
  0
SECTION
  2
BLOCKS
  0
ENDSEC
  0
SECTION
  2
ENTITIES
  0
TEXT
  8
5
  6
CONTINUOUS
 62
     3
  5
102
 10
48642.478591
 20
8464.192667
 30
0.0
 40
90.0
  1
テスリックス
 41
0.837
  7

 72
     5
 11
49182.478591
 21
8464.192667
 31
0.0
  0
TEXT
  8
5
  6
CONTINUOUS
 62
     3
  5
103
 10
48642.478591
 20
8374.192667
 30
0.0
 40
90.0
  1
取付側展開図
 41
0.837
  7

 72
     5
 11
49182.478591
 21
8374.192667
 31
0.0
  0
TEXT
  8
5
  6
CONTINUOUS
 62
     3
  5
104
 10
48813.195577
 20
11295.638863
 30
0.0
 40
90.0
  1
平面図
 41
0.837
  7

 72
     5
 11
49083.195577
 21
11295.638863
 31
0.0
  0
CIRCLE
  8
55
  6
CONTINUOUS
 62
     2
  5
105
 10
51599.041326
 20
12005.112208
 30
0.0
 40
150.0
  0
LINE
  8
55
  6
CONTINUOUS
 62
     2
  5
106
 10
51599.041326
 20
12125.112208
 30
0.0
 11
51599.041326
 21
12205.112208
 31
0.0
  0
LINE
  8
55
  6
CONTINUOUS
 62
     2
  5
107
 10
51599.041326
 20
11885.112208
 30
0.0
 11
51599.041326
 21
11805.112208
 31
0.0
  0
LINE
  8
55
  6
CONTINUOUS
 62
     2
  5
108
 10
51719.041326
 20
12005.112208
 30
0.0
 11
51799.041326
 21
12005.112208
 31
0.0
  0
LINE
  8
55
  6
CONTINUOUS
 62
     2
  5
109
 10
51479.041326
 20
12005.112208
 30
0.0
 11
51399.041326
 21
12005.112208
 31
0.0
  0
TEXT
  8
55
  6
CONTINUOUS
 62
     2
  5
10A
 10
51565.041326
 20
11702.112208
 30
0.0
 40
90.0
  1
C
  7

 72
     5
 11
51655.041326
 21
11702.112208
 31
0.0
  0
TEXT
  8
55
  6
CONTINUOUS
 62
     2
  5
10B
 10
51554.041326
 20
12214.112208
 30
0.0
 40
90.0
  1
A
  7

 72
     5
 11
51644.041326
 21
12214.112208
 31
0.0
  0
TEXT
  8
55
  6
CONTINUOUS
 62
     2
  5
10C
 10
51301.041326
 20
11966.112208
 30
0.0
 40
90.0
  1
D
  7

 72
     5
 11
51391.041326
 21
11966.112208
 31
0.0
  0
TEXT
  8
55
  6
CONTINUOUS
 62
     2
  5
10D
 10
51803.041326
 20
11963.112208
 30
0.0
 40
90.0
  1
B
  7

 72
     5
 11
51893.041326
 21
11963.112208
 31
0.0
  0
LINE
  8
3
  6
CONTINUOUS
 62
     2
  5
10E
 10
47832.839612
 20
11900.60619
 30
0.0
 11
47832.839612
 21
13100.60619
 31
0.0
  0
LINE
  8
7
  6
CONTINUOUS
 62
     6
  5
10F
 10
50081.839612
 20
11665.60619
 30
0.0
 11
49981.839612
 21
11665.60619
 31
0.0
  0
LINE
  8
7
  6
CONTINUOUS
 62
     6
  5
110
 10
49981.839612
 20
11665.60619
 30
0.0
 11
49981.839612
 21
11640.60619
 31
0.0
  0
LINE
  8
7
  6
CONTINUOUS
 62
     6
  5
111
 10
50081.839612
 20
11665.60619
 30
0.0
 11
50081.839612
 21
11640.60619
 31
0.0
  0
LINE
  8
4
  6
CONTINUOUS
 62
     6
  5
112
 10
50076.839612
 20
13323.60619
 30
0.0
 11
49986.839612
 21
13323.60619
 31
0.0
  0
LINE
  8
4
  6
CONTINUOUS
 62
     6
  5
113
 10
49986.839612
 20
13323.60619
 30
0.0
 11
49986.839612
 21
13348.60619
 31
0.0
  0
LINE
  8
4
  6
CONTINUOUS
 62
     6
  5
114
 10
50076.839612
 20
13323.60619
 30
0.0
 11
50076.839612
 21
13348.60619
 31
0.0
  0
LINE
  8
4
  6
CONTINUOUS
 62
     6
  5
115
 10
50103.839612
 20
13325.60619
 30
0.0
 11
50103.839612
 21
13340.60619
 31
0.0
  0
LINE
  8
4
  6
CONTINUOUS
 62
     6
  5
116
 10
50103.839612
 20
13325.60619
 30
0.0
 11
50076.839612
 21
13325.60619
 31
0.0
  0
LINE
  8
4
  6
CONTINUOUS
 62
     6
  5
117
 10
49959.839612
 20
13325.60619
 30
0.0
 11
49959.839612
 21
13340.60619
 31
0.0
  0
LINE
  8
4
  6
CONTINUOUS
 62
     6
  5
118
 10
49959.839612
 20
13325.60619
 30
0.0
 11
49986.839612
 21
13325.60619
 31
0.0
  0
LINE
  8
4
  6
CONTINUOUS
 62
     6
  5
119
 10
50051.839612
 20
12423.60619
 30
0.0
 11
50051.839612
 21
12473.60619
 31
0.0
  0
LINE
  8
4
  6
CONTINUOUS
 62
     6
  5
11A
 10
50051.839612
 20
12473.60619
 30
0.0
 11
50103.839612
 21
12473.60619
 31
0.0
  0
LINE
  8
4
  6
CONTINUOUS
 62
     6
  5
11B
 10
50011.839612
 20
12423.60619
 30
0.0
 11
50011.839612
 21
12473.60619
 31
0.0
  0
LINE
  8
4
  6
CONTINUOUS
 62
     6
  5
11C
 10
49959.839612
 20
12448.60619
 30
0.0
 11
49959.839612
 21
12473.60619
 31
0.0
  0
LINE
  8
4
  6
CONTINUOUS
 62
     6
  5
11D
 10
49959.839612
 20
12473.60619
 30
0.0
 11
50011.839612
 21
12473.60619
 31
0.0
  0
LINE
  8
4
  6
CONTINUOUS
 62
     6
  5
11E
 10
50103.839612
 20
12448.60619
 30
0.0
 11
50103.839612
 21
12473.60619
 31
0.0
  0
LINE
  8
4
  6
CONTINUOUS
 62
     6
  5
11F
 10
50008.839612
 20
12423.60619
 30
0.0
 11
49986.839612
 21
12442.60619
 31
0.0
  0
LINE
  8
4
  6
CONTINUOUS
 62
     6
  5
120
 10
49979.839612
 20
12448.60619
 30
0.0
 11
49959.839612
 21
12465.60619
 31
0.0
  0
LINE
  8
4
  6
CONTINUOUS
 62
     6
  5
121
 10
50011.839612
 20
12440.60619
 30
0.0
 11
49973.839612
 21
12472.60619
 31
0.0
  0
LINE
  8
4
  6
CONTINUOUS
 62
     6
  5
122
 10
50011.839612
 20
12460.60619
 30
0.0
 11
49996.839612
 21
12473.60619
 31
0.0
  0
LINE
  8
4
  6
CONTINUOUS
 62
     6
  5
123
 10
50074.839612
 20
12423.60619
 30
0.0
 11
50050.839612
 21
12443.60619
 31
0.0
  0
LINE
  8
4
  6
CONTINUOUS
 62
     6
  5
124
 10
50075.839612
 20
12441.60619
 30
0.0
 11
50051.839612
 21
12462.60619
 31
0.0
  0
LINE
  8
4
  6
CONTINUOUS
 62
     6
  5
125
 10
50091.839612
 20
12448.60619
 30
0.0
 11
50061.839612
 21
12473.60619
 31
0.0
  0
LINE
  8
4
  6
CONTINUOUS
 62
     6
  5
126
 10
50103.839612
 20
12457.60619
 30
0.0
 11
50085.839612
 21
12473.60619
 31
0.0
  0
LINE
  8
14
  6
CONTINUOUS
 62
     6
  5
127
 10
49959.839612
 20
11682.60619
 30
0.0
 11
47973.839612
 21
11682.60619
 31
0.0
  0
LINE
  8
14
  6
CONTINUOUS
 62
     6
  5
128
 10
49109.839612
 20
11962.60619
 30
0.0
 11
49109.839612
 21
11682.60619
 31
0.0
  0
LINE
  8
14
  6
CONTINUOUS
 62
     6
  5
129
 10
49109.839612
 20
11962.60619
 30
0.0
 11
49293.839612
 21
11962.60619
 31
0.0
  0
LINE
  8
14
  6
CONTINUOUS
 62
     6
  5
12A
 10
49959.839612
 20
11962.60619
 30
0.0
 11
49790.839612
 21
11962.60619
 31
0.0
  0
ARC
  8
14
  6
CONTINUOUS
 62
     6
  5
12B
 10
49543.839612
 20
11860.60619
 30
0.0
 40
270.0
 50
22.08
 51
158.2
  0
LINE
  8
14
  6
CONTINUOUS
 62
     6
  5
12C
 10
49109.839612
 20
11962.60619
 30
0.0
 11
47973.839612
 21
11962.60619
 31
0.0
  0
CIRCLE
  8
14
  6
CONTINUOUS
 62
     6
  5
12D
 10
49543.839612
 20
11888.60619
 30
0.0
 40
20.0
  0
LINE
  8
14
  6
CONTINUOUS
 62
     6
  5
12E
 10
49528.839612
 20
11799.60619
 30
0.0
 11
49563.839612
 21
11799.60619
 31
0.0
  0
LINE
  8
14
  6
CONTINUOUS
 62
     6
  5
12F
 10
49528.839612
 20
11687.60619
 30
0.0
 11
49528.839612
 21
11799.60619
 31
0.0
  0
LINE
  8
14
  6
CONTINUOUS
 62
     6
  5
130
 10
49563.839612
 20
11799.60619
 30
0.0
 11
49563.839612
 21
11687.60619
 31
0.0
  0
LINE
  8
14
  6
CONTINUOUS
 62
     6
  5
131
 10
49563.839612
 20
11687.60619
 30
0.0
 11
49528.839612
 21
11687.60619
 31
0.0
  0
ARC
  8
14
  6
CONTINUOUS
 62
     6
  5
132
 10
49543.839612
 20
11888.60619
 30
0.0
 40
180.0
 50
275.71
 51
265.16
  0
LINE
  8
14
  6
CONTINUOUS
 62
     6
  5
133
 10
48421.839612
 20
12497.60619
 30
0.0
 11
48451.839612
 21
12497.60619
 31
0.0
  0
LINE
  8
14
  6
CONTINUOUS
 62
     6
  5
134
 10
48451.839612
 20
12497.60619
 30
0.0
 11
48481.839612
 21
12499.60619
 31
0.0
  0
LINE
  8
14
  6
CONTINUOUS
 62
     6
  5
135
 10
48481.839612
 20
12499.60619
 30
0.0
 11
48511.839612
 21
12502.60619
 31
0.0
  0
LINE
  8
14
  6
CONTINUOUS
 62
     6
  5
136
 10
48511.839612
 20
12502.60619
 30
0.0
 11
48540.839612
 21
12507.60619
 31
0.0
  0
LINE
  8
14
  6
CONTINUOUS
 62
     6
  5
137
 10
48540.839612
 20
12507.60619
 30
0.0
 11
48568.839612
 21
12514.60619
 31
0.0
  0
LINE
  8
14
  6
CONTINUOUS
 62
     6
  5
138
 10
48568.839612
 20
12514.60619
 30
0.0
 11
48596.839612
 21
12522.60619
 31
0.0
  0
LINE
  8
14
  6
CONTINUOUS
 62
     6
  5
139
 10
48596.839612
 20
12522.60619
 30
0.0
 11
48622.839612
 21
12531.60619
 31
0.0
  0
LINE
  8
14
  6
CONTINUOUS
 62
     6
  5
13A
 10
48622.839612
 20
12531.60619
 30
0.0
 11
48647.839612
 21
12542.60619
 31
0.0
  0
LINE
  8
14
  6
CONTINUOUS
 62
     6
  5
13B
 10
48647.839612
 20
12542.60619
 30
0.0
 11
48671.839612
 21
12554.60619
 31
0.0
  0
LINE
  8
14
  6
CONTINUOUS
 62
     6
  5
13C
 10
48671.839612
 20
12554.60619
 30
0.0
 11
48693.839612
 21
12568.60619
 31
0.0
  0
LINE
  8
14
  6
CONTINUOUS
 62
     6
  5
13D
 10
48732.839612
 20
12598.60619
 30
0.0
 11
48749.839612
 21
12615.60619
 31
0.0
  0
LINE
  8
14
  6
CONTINUOUS
 62
     6
  5
13E
 10
48749.839612
 20
12615.60619
 30
0.0
 11
48764.839612
 21
12632.60619
 31
0.0
  0
LINE
  8
14
  6
CONTINUOUS
 62
     6
  5
13F
 10
48764.839612
 20
12632.60619
 30
0.0
 11
48776.839612
 21
12650.60619
 31
0.0
  0
LINE
  8
14
  6
CONTINUOUS
 62
     6
  5
140
 10
48776.839612
 20
12650.60619
 30
0.0
 11
48786.839612
 21
12669.60619
 31
0.0
  0
LINE
  8
14
  6
CONTINUOUS
 62
     6
  5
141
 10
48786.839612
 20
12669.60619
 30
0.0
 11
48794.839612
 21
12688.60619
 31
0.0
  0
LINE
  8
14
  6
CONTINUOUS
 62
     6
  5
142
 10
48794.839612
 20
12688.60619
 30
0.0
 11
48800.839612
 21
12708.60619
 31
0.0
  0
LINE
  8
14
  6
CONTINUOUS
 62
     6
  5
143
 10
48800.839612
 20
12708.60619
 30
0.0
 11
48803.839612
 21
12728.60619
 31
0.0
  0
LINE
  8
14
  6
CONTINUOUS
 62
     6
  5
144
 10
48803.839612
 20
12728.60619
 30
0.0
 11
48803.839612
 21
12748.60619
 31
0.0
  0
LINE
  8
14
  6
CONTINUOUS
 62
     6
  5
145
 10
48803.839612
 20
12748.60619
 30
0.0
 11
48801.839612
 21
12768.60619
 31
0.0
  0
LINE
  8
14
  6
CONTINUOUS
 62
     6
  5
146
 10
48801.839612
 20
12768.60619
 30
0.0
 11
48797.839612
 21
12788.60619
 31
0.0
  0
LINE
  8
14
  6
CONTINUOUS
 62
     6
  5
147
 10
48797.839612
 20
12788.60619
 30
0.0
 11
48791.839612
 21
12807.60619
 31
0.0
  0
LINE
  8
14
  6
CONTINUOUS
 62
     6
  5
148
 10
48791.839612
 20
12807.60619
 30
0.0
 11
48782.839612
 21
12826.60619
 31
0.0
  0
LINE
  8
14
  6
CONTINUOUS
 62
     6
  5
149
 10
48782.839612
 20
12826.60619
 30
0.0
 11
48770.839612
 21
12845.60619
 31
0.0
  0
LINE
  8
14
  6
CONTINUOUS
 62
     6
  5
14A
 10
48770.839612
 20
12845.60619
 30
0.0
 11
48757.839612
 21
12863.60619
 31
0.0
  0
LINE
  8
14
  6
CONTINUOUS
 62
     6
  5
14B
 10
48757.839612
 20
12863.60619
 30
0.0
 11
48741.839612
 21
12880.60619
 31
0.0
  0
LINE
  8
14
  6
CONTINUOUS
 62
     6
  5
14C
 10
48741.839612
 20
12880.60619
 30
0.0
 11
48724.839612
 21
12896.60619
 31
0.0
  0
LINE
  8
14
  6
CONTINUOUS
 62
     6
  5
14D
 10
48724.839612
 20
12896.60619
 30
0.0
 11
48704.839612
 21
12911.60619
 31
0.0
  0
LINE
  8
14
  6
CONTINUOUS
 62
     6
  5
14E
 10
48704.839612
 20
12911.60619
 30
0.0
 11
48683.839612
 21
12925.60619
 31
0.0
  0
LINE
  8
14
  6
CONTINUOUS
 62
     6
  5
14F
 10
48683.839612
 20
12925.60619
 30
0.0
 11
48660.839612
 21
12938.60619
 31
0.0
  0
LINE
  8
14
  6
CONTINUOUS
 62
     6
  5
150
 10
48660.839612
 20
12938.60619
 30
0.0
 11
48635.839612
 21
12949.60619
 31
0.0
  0
LINE
  8
14
  6
CONTINUOUS
 62
     6
  5
151
 10
48635.839612
 20
12949.60619
 30
0.0
 11
48609.839612
 21
12960.60619
 31
0.0
  0
LINE
  8
14
  6
CONTINUOUS
 62
     6
  5
152
 10
48609.839612
 20
12960.60619
 30
0.0
 11
48582.839612
 21
12968.60619
 31
0.0
  0
LINE
  8
14
  6
CONTINUOUS
 62
     6
  5
153
 10
48582.839612
 20
12968.60619
 30
0.0
 11
48554.839612
 21
12976.60619
 31
0.0
  0
LINE
  8
14
  6
CONTINUOUS
 62
     6
  5
154
 10
48554.839612
 20
12976.60619
 30
0.0
 11
48526.839612
 21
12982.60619
 31
0.0
  0
LINE
  8
14
  6
CONTINUOUS
 62
     6
  5
155
 10
48526.839612
 20
12982.60619
 30
0.0
 11
48496.839612
 21
12986.60619
 31
0.0
  0
LINE
  8
14
  6
CONTINUOUS
 62
     6
  5
156
 10
48496.839612
 20
12986.60619
 30
0.0
 11
48454.839612
 21
12989.60619
 31
0.0
  0
LINE
  8
14
  6
CONTINUOUS
 62
     6
  5
157
 10
48693.839612
 20
12568.60619
 30
0.0
 11
48714.839612
 21
12584.60619
 31
0.0
  0
LINE
  8
14
  6
CONTINUOUS
 62
     6
  5
158
 10
48714.839612
 20
12584.60619
 30
0.0
 11
48732.839612
 21
12598.60619
 31
0.0
  0
ARC
  8
14
  6
CONTINUOUS
 62
     6
  5
159
 10
48406.839612
 20
13498.60619
 30
0.0
 40
1002.0
 50
250.93
 51
272.6
  0
ARC
  8
14
  6
CONTINUOUS
 62
     6
  5
15A
 10
48406.839612
 20
11986.60619
 30
0.0
 40
1002.0
 50
87.4
 51
109.07
  0
LINE
  8
14
  6
CONTINUOUS
 62
     6
  5
15B
 10
48221.839612
 20
12602.60619
 30
0.0
 11
48221.839612
 21
12884.60619
 31
0.0
  0
LINE
  8
14
  6
CONTINUOUS
 62
     6
  5
15C
 10
48171.839612
 20
12602.60619
 30
0.0
 11
48171.839612
 21
12524.60619
 31
0.0
  0
LINE
  8
14
  6
CONTINUOUS
 62
     6
  5
15D
 10
48171.839612
 20
12884.60619
 30
0.0
 11
48171.839612
 21
12962.60619
 31
0.0
  0
LINE
  8
14
  6
CONTINUOUS
 62
     6
  5
15E
 10
48221.839612
 20
12602.60619
 30
0.0
 11
48171.839612
 21
12602.60619
 31
0.0
  0
LINE
  8
14
  6
CONTINUOUS
 62
     6
  5
15F
 10
48221.839612
 20
12884.60619
 30
0.0
 11
48171.839612
 21
12884.60619
 31
0.0
  0
LINE
  8
14
  6
CONTINUOUS
 62
     6
  5
160
 10
47979.839612
 20
12667.60619
 30
0.0
 11
47979.839612
 21
12817.60619
 31
0.0
  0
LINE
  8
14
  6
CONTINUOUS
 62
     6
  5
161
 10
48028.839612
 20
12667.60619
 30
0.0
 11
47979.839612
 21
12667.60619
 31
0.0
  0
LINE
  8
14
  6
CONTINUOUS
 62
     6
  5
162
 10
48028.839612
 20
12817.60619
 30
0.0
 11
47979.839612
 21
12817.60619
 31
0.0
  0
LINE
  8
14
  6
CONTINUOUS
 62
     6
  5
163
 10
48028.839612
 20
12933.60619
 30
0.0
 11
48028.839612
 21
12551.60619
 31
0.0
  0
LINE
  8
14
  6
CONTINUOUS
 62
     6
  5
164
 10
48028.839612
 20
12551.60619
 30
0.0
 11
48079.839612
 21
12551.60619
 31
0.0
  0
LINE
  8
14
  6
CONTINUOUS
 62
     6
  5
165
 10
48028.839612
 20
12933.60619
 30
0.0
 11
48076.839612
 21
12933.60619
 31
0.0
  0
LINE
  8
14
  6
CONTINUOUS
 62
     6
  5
166
 10
48220.839612
 20
12513.60619
 30
0.0
 11
48227.839612
 21
12512.60619
 31
0.0
  0
LINE
  8
7
  6
CONTINUOUS
 62
     6
  5
167
 10
47973.839612
 20
11880.60619
 30
0.0
 11
47973.839612
 21
13120.60619
 31
0.0
  0
LINE
  8
7
  6
CONTINUOUS
 62
     6
  5
168
 10
49981.839612
 20
12448.60619
 30
0.0
 11
49981.839612
 21
11665.60619
 31
0.0
  0
LINE
  8
7
  6
CONTINUOUS
 62
     6
  5
169
 10
50081.839612
 20
12448.60619
 30
0.0
 11
50081.839612
 21
11665.60619
 31
0.0
  0
LINE
  8
7
  6
CONTINUOUS
 62
     2
  5
16A
 10
47842.839612
 20
12485.60619
 30
0.0
 11
47842.839612
 21
11903.60619
 31
0.0
  0
LINE
  8
7
  6
CONTINUOUS
 62
     2
  5
16B
 10
47852.839612
 20
12485.60619
 30
0.0
 11
47852.839612
 21
11903.60619
 31
0.0
  0
LINE
  8
7
  6
CONTINUOUS
 62
     2
  5
16C
 10
47862.839612
 20
12515.60619
 30
0.0
 11
47862.839612
 21
13098.60619
 31
0.0
  0
LINE
  8
7
  6
CONTINUOUS
 62
     2
  5
16D
 10
47872.839612
 20
12515.60619
 30
0.0
 11
47872.839612
 21
13098.60619
 31
0.0
  0
LINE
  8
7
  6
CONTINUOUS
 62
     2
  5
16E
 10
47872.839612
 20
13098.60619
 30
0.0
 11
47862.839612
 21
13098.60619
 31
0.0
  0
LINE
  8
7
  6
CONTINUOUS
 62
     2
  5
16F
 10
47864.839612
 20
13120.60619
 30
0.0
 11
47851.839612
 21
13131.60619
 31
0.0
  0
LINE
  8
7
  6
CONTINUOUS
 62
     2
  5
170
 10
47857.839612
 20
13145.60619
 30
0.0
 11
47887.839612
 21
13120.60619
 31
0.0
  0
LINE
  8
7
  6
CONTINUOUS
 62
     2
  5
171
 10
47881.839612
 20
13145.60619
 30
0.0
 11
47911.839612
 21
13120.60619
 31
0.0
  0
LINE
  8
7
  6
CONTINUOUS
 62
     2
  5
172
 10
47934.839612
 20
13120.60619
 30
0.0
 11
47903.839612
 21
13145.60619
 31
0.0
  0
LINE
  8
7
  6
CONTINUOUS
 62
     2
  5
173
 10
47951.839612
 20
13145.60619
 30
0.0
 11
47973.839612
 21
13126.60619
 31
0.0
  0
LINE
  8
7
  6
CONTINUOUS
 62
     6
  5
174
 10
47973.839612
 20
13145.60619
 30
0.0
 11
47973.839612
 21
13120.60619
 31
0.0
  0
LINE
  8
7
  6
CONTINUOUS
 62
     6
  5
175
 10
47973.839612
 20
13120.60619
 30
0.0
 11
47851.839612
 21
13120.60619
 31
0.0
  0
LINE
  8
7
  6
CONTINUOUS
 62
     6
  5
176
 10
47881.839612
 20
13100.60619
 30
0.0
 11
47881.839612
 21
13120.60619
 31
0.0
  0
LINE
  8
7
  6
CONTINUOUS
 62
     6
  5
177
 10
47831.839612
 20
13100.60619
 30
0.0
 11
47831.839612
 21
13120.60619
 31
0.0
  0
LINE
  8
7
  6
CONTINUOUS
 62
     6
  5
178
 10
47831.839612
 20
13120.60619
 30
0.0
 11
47881.839612
 21
13120.60619
 31
0.0
  0
LINE
  8
7
  6
CONTINUOUS
 62
     6
  5
179
 10
47881.839612
 20
13100.60619
 30
0.0
 11
47831.839612
 21
13100.60619
 31
0.0
  0
LINE
  8
7
  6
CONTINUOUS
 62
     2
  5
17A
 10
47957.839612
 20
13120.60619
 30
0.0
 11
47927.839612
 21
13145.60619
 31
0.0
  0
LINE
  8
7
  6
CONTINUOUS
 62
     6
  5
17B
 10
47837.839612
 20
12485.60619
 30
0.0
 11
47837.839612
 21
12515.60619
 31
0.0
  0
LINE
  8
7
  6
CONTINUOUS
 62
     6
  5
17C
 10
47837.839612
 20
12485.60619
 30
0.0
 11
47877.839612
 21
12485.60619
 31
0.0
  0
LINE
  8
7
  6
CONTINUOUS
 62
     6
  5
17D
 10
47837.839612
 20
12515.60619
 30
0.0
 11
47877.839612
 21
12515.60619
 31
0.0
  0
LINE
  8
7
  6
CONTINUOUS
 62
     6
  5
17E
 10
47877.839612
 20
12515.60619
 30
0.0
 11
47877.839612
 21
12485.60619
 31
0.0
  0
LINE
  8
7
  6
CONTINUOUS
 62
     6
  5
17F
 10
47831.839612
 20
11900.60619
 30
0.0
 11
47831.839612
 21
11880.60619
 31
0.0
  0
LINE
  8
7
  6
CONTINUOUS
 62
     6
  5
180
 10
47831.839612
 20
11880.60619
 30
0.0
 11
47881.839612
 21
11880.60619
 31
0.0
  0
LINE
  8
7
  6
CONTINUOUS
 62
     6
  5
181
 10
47881.839612
 20
11900.60619
 30
0.0
 11
47881.839612
 21
11880.60619
 31
0.0
  0
LINE
  8
7
  6
CONTINUOUS
 62
     6
  5
182
 10
47881.839612
 20
11900.60619
 30
0.0
 11
47831.839612
 21
11900.60619
 31
0.0
  0
LINE
  8
7
  6
CONTINUOUS
 62
     2
  5
183
 10
47852.839612
 20
11903.60619
 30
0.0
 11
47842.839612
 21
11903.60619
 31
0.0
  0
LINE
  8
7
  6
CONTINUOUS
 62
     2
  5
184
 10
47864.839612
 20
11880.60619
 30
0.0
 11
47851.839612
 21
11869.60619
 31
0.0
  0
LINE
  8
7
  6
CONTINUOUS
 62
     2
  5
185
 10
47857.839612
 20
11855.60619
 30
0.0
 11
47887.839612
 21
11880.60619
 31
0.0
  0
LINE
  8
7
  6
CONTINUOUS
 62
     2
  5
186
 10
47911.839612
 20
11880.60619
 30
0.0
 11
47881.839612
 21
11855.60619
 31
0.0
  0
LINE
  8
7
  6
CONTINUOUS
 62
     2
  5
187
 10
47957.839612
 20
11880.60619
 30
0.0
 11
47927.839612
 21
11855.60619
 31
0.0
  0
LINE
  8
7
  6
CONTINUOUS
 62
     2
  5
188
 10
47934.839612
 20
11880.60619
 30
0.0
 11
47903.839612
 21
11855.60619
 31
0.0
  0
LINE
  8
7
  6
CONTINUOUS
 62
     2
  5
189
 10
47951.839612
 20
11855.60619
 30
0.0
 11
47973.839612
 21
11874.60619
 31
0.0
  0
LINE
  8
7
  6
CONTINUOUS
 62
     6
  5
18A
 10
47973.839612
 20
11855.60619
 30
0.0
 11
47973.839612
 21
11880.60619
 31
0.0
  0
LINE
  8
7
  6
CONTINUOUS
 62
     6
  5
18B
 10
47973.839612
 20
11880.60619
 30
0.0
 11
47851.839612
 21
11880.60619
 31
0.0
  0
LINE
  8
3
  6
CONTINUOUS
 62
     2
  5
18C
 10
50021.839612
 20
13323.60619
 30
0.0
 11
50021.839612
 21
11665.60619
 31
0.0
  0
LINE
  8
3
  6
CONTINUOUS
 62
     2
  5
18D
 10
50041.839612
 20
13323.60619
 30
0.0
 11
50041.839612
 21
11665.60619
 31
0.0
  0
LINE
  8
14
  6
CONTINUOUS
 62
     1
  5
18E
 10
49959.839612
 20
12173.60619
 30
0.0
 11
49864.839612
 21
12173.60619
 31
0.0
  0
LINE
  8
14
  6
CONTINUOUS
 62
     1
  5
18F
 10
49959.839612
 20
12108.60619
 30
0.0
 11
49864.839612
 21
12108.60619
 31
0.0
  0
ARC
  8
14
  6
CONTINUOUS
 62
     1
  5
190
 10
49907.839612
 20
12141.60619
 30
0.0
 40
54.0
 50
142.59
 51
217.41
  0
LINE
  8
14
  6
CONTINUOUS
 62
     1
  5
191
 10
49907.839612
 20
12261.60619
 30
0.0
 11
49860.839612
 21
12261.60619
 31
0.0
  0
LINE
  8
14
  6
CONTINUOUS
 62
     1
  5
192
 10
49907.839612
 20
12021.60619
 30
0.0
 11
49860.839612
 21
12021.60619
 31
0.0
  0
LINE
  8
14
  6
CONTINUOUS
 62
     1
  5
193
 10
49860.839612
 20
12021.60619
 30
0.0
 11
49864.839612
 21
12108.60619
 31
0.0
  0
LINE
  8
14
  6
CONTINUOUS
 62
     1
  5
194
 10
49907.839612
 20
12021.60619
 30
0.0
 11
49898.839612
 21
12108.60619
 31
0.0
  0
LINE
  8
14
  6
CONTINUOUS
 62
     1
  5
195
 10
49860.839612
 20
12261.60619
 30
0.0
 11
49864.839612
 21
12173.60619
 31
0.0
  0
LINE
  8
14
  6
CONTINUOUS
 62
     1
  5
196
 10
49907.839612
 20
12261.60619
 30
0.0
 11
49898.839612
 21
12173.60619
 31
0.0
  0
LINE
  8
11
  6
CONTINUOUS
 62
     2
  5
197
 10
49893.839612
 20
13338.60619
 30
0.0
 11
49893.839612
 21
12261.60619
 31
0.0
  0
LINE
  8
11
  6
CONTINUOUS
 62
     2
  5
198
 10
49893.839612
 20
12021.60619
 30
0.0
 11
49893.839612
 21
11962.60619
 31
0.0
  0
LINE
  8
100
  6
CENTER
 62
     2
  5
199
 10
47901.839612
 20
11518.60619
 30
0.0
 11
47901.839612
 21
13472.60619
 31
0.0
  0
LINE
  8
100
  6
CENTER
 62
     2
  5
19A
 10
47839.839612
 20
13410.60619
 30
0.0
 11
50103.839612
 21
13410.60619
 31
0.0
  0
LINE
  8
100
  6
CENTER
 62
     2
  5
19B
 10
47839.839612
 20
11590.60619
 30
0.0
 11
50103.839612
 21
11590.60619
 31
0.0
  0
LINE
  8
100
  6
CENTER
 62
     2
  5
19C
 10
50031.839612
 20
13472.60619
 30
0.0
 11
50031.839612
 21
11518.60619
 31
0.0
  0
LINE
  8
4
  6
CONTINUOUS
 62
     6
  5
19D
 10
49979.839612
 20
10658.065247
 30
0.0
 11
49979.839612
 21
10673.065247
 31
0.0
  0
LINE
  8
14
  6
CONTINUOUS
 62
     6
  5
19E
 10
48003.839612
 20
9218.065247
 30
0.0
 11
48284.839612
 21
9218.065247
 31
0.0
  0
ARC
  8
14
  6
CONTINUOUS
 62
     6
  5
19F
 10
48418.839612
 20
9246.065247
 30
0.0
 40
137.0
 50
191.98
 51
250.87
  0
LINE
  8
14
  6
CONTINUOUS
 62
     6
  5
1A0
 10
48003.839612
 20
9218.065247
 30
0.0
 11
48003.839612
 21
8873.065247
 31
0.0
  0
LINE
  8
1
  6
CONTINUOUS
 62
     5
  5
1A1
 10
47973.839612
 20
8648.065247
 30
0.0
 11
50302.839612
 21
8648.065247
 31
0.0
  0
LINE
  8
1
  6
CONTINUOUS
 62
     5
  5
1A2
 10
47973.839612
 20
11048.065247
 30
0.0
 11
47973.839612
 21
8648.065247
 31
0.0
  0
LINE
  8
1
  6
CONTINUOUS
 62
     5
  5
1A3
 10
49979.839612
 20
11048.065247
 30
0.0
 11
47973.839612
 21
11048.065247
 31
0.0
  0
LINE
  8
7
  6
CENTER
 62
     3
  5
1A4
 10
48728.840612
 20
9898.065247
 30
0.0
 11
48728.840612
 21
9298.065247
 31
0.0
  0
LINE
  8
7
  6
CENTER
 62
     3
  5
1A5
 10
49178.840612
 20
9898.065247
 30
0.0
 11
48728.840612
 21
9898.065247
 31
0.0
  0
LINE
  8
7
  6
CENTER
 62
     3
  5
1A6
 10
49178.840612
 20
9298.065247
 30
0.0
 11
48728.840612
 21
9298.065247
 31
0.0
  0
LINE
  8
7
  6
CENTER
 62
     3
  5
1A7
 10
49178.840612
 20
9898.065247
 30
0.0
 11
49178.840612
 21
9298.065247
 31
0.0
  0
LINE
  8
7
  6
CONTINUOUS
 62
     4
  5
1A8
 10
48846.440612
 20
9762.465247
 30
0.0
 11
48761.240612
 21
9762.465247
 31
0.0
  0
LINE
  8
7
  6
CONTINUOUS
 62
     4
  5
1A9
 10
48846.440612
 20
9733.665247
 30
0.0
 11
48761.240612
 21
9733.665247
 31
0.0
  0
LINE
  8
7
  6
CONTINUOUS
 62
     4
  5
1AA
 10
48846.440612
 20
9612.465247
 30
0.0
 11
48761.240612
 21
9612.465247
 31
0.0
  0
LINE
  8
7
  6
CONTINUOUS
 62
     4
  5
1AB
 10
48996.440612
 20
9762.465247
 30
0.0
 11
48911.240612
 21
9762.465247
 31
0.0
  0
ARC
  8
7
  6
CONTINUOUS
 62
     4
  5
1AC
 10
48911.240612
 20
9780.465247
 30
0.0
 40
18.0
 50
180.0
 51
270.0
  0
ARC
  8
7
  6
CONTINUOUS
 62
     4
  5
1AD
 10
48996.440612
 20
9780.465247
 30
0.0
 40
18.0
 50
270.0
 51
0.0
  0
LINE
  8
7
  6
CONTINUOUS
 62
     4
  5
1AE
 10
48864.440612
 20
9715.665247
 30
0.0
 11
48864.440612
 21
9630.465247
 31
0.0
  0
ARC
  8
7
  6
CONTINUOUS
 62
     4
  5
1AF
 10
48846.440612
 20
9780.465247
 30
0.0
 40
18.0
 50
270.0
 51
0.0
  0
ARC
  8
7
  6
CONTINUOUS
 62
     4
  5
1B0
 10
48846.440612
 20
9715.665247
 30
0.0
 40
18.0
 50
0.0
 51
90.0
  0
ARC
  8
7
  6
CONTINUOUS
 62
     4
  5
1B1
 10
48846.440612
 20
9630.465247
 30
0.0
 40
18.0
 50
270.0
 51
0.0
  0
ARC
  8
7
  6
CONTINUOUS
 62
     4
  5
1B2
 10
48759.440612
 20
9867.465247
 30
0.0
 40
45.0
 50
90.0
 51
180.0
  0
ARC
  8
7
  6
CONTINUOUS
 62
     4
  5
1B3
 10
48761.240612
 20
9865.665247
 30
0.0
 40
18.0
 50
90.0
 51
180.0
  0
LINE
  8
7
  6
CONTINUOUS
 62
     4
  5
1B4
 10
48893.240612
 20
9865.665247
 30
0.0
 11
48893.240612
 21
9780.465247
 31
0.0
  0
LINE
  8
7
  6
CONTINUOUS
 62
     4
  5
1B5
 10
48864.440612
 20
9865.665247
 30
0.0
 11
48864.440612
 21
9780.465247
 31
0.0
  0
LINE
  8
7
  6
CONTINUOUS
 62
     4
  5
1B6
 10
49014.440612
 20
9865.665247
 30
0.0
 11
49014.440612
 21
9780.465247
 31
0.0
  0
ARC
  8
7
  6
CONTINUOUS
 62
     4
  5
1B7
 10
49148.240612
 20
9328.665247
 30
0.0
 40
45.0
 50
270.0
 51
0.0
  0
ARC
  8
7
  6
CONTINUOUS
 62
     4
  5
1B8
 10
49146.440612
 20
9330.465247
 30
0.0
 40
18.0
 50
270.0
 51
0.0
  0
ARC
  8
7
  6
CONTINUOUS
 62
     4
  5
1B9
 10
49061.240612
 20
9330.465247
 30
0.0
 40
18.0
 50
180.0
 51
270.0
  0
LINE
  8
7
  6
CONTINUOUS
 62
     4
  5
1BA
 10
49164.440612
 20
9415.665247
 30
0.0
 11
49164.440612
 21
9330.465247
 31
0.0
  0
LINE
  8
7
  6
CONTINUOUS
 62
     4
  5
1BB
 10
49061.240612
 20
9433.665247
 30
0.0
 11
49146.440612
 21
9433.665247
 31
0.0
  0
LINE
  8
7
  6
CONTINUOUS
 62
     4
  5
1BC
 10
49061.240612
 20
9462.465247
 30
0.0
 11
49146.440612
 21
9462.465247
 31
0.0
  0
LINE
  8
7
  6
CONTINUOUS
 62
     4
  5
1BD
 10
49043.240612
 20
9415.665247
 30
0.0
 11
49043.240612
 21
9330.465247
 31
0.0
  0
LINE
  8
7
  6
CONTINUOUS
 62
     4
  5
1BE
 10
49043.240612
 20
9565.665247
 30
0.0
 11
49043.240612
 21
9480.465247
 31
0.0
  0
ARC
  8
7
  6
CONTINUOUS
 62
     4
  5
1BF
 10
49061.240612
 20
9415.665247
 30
0.0
 40
18.0
 50
90.0
 51
180.0
  0
ARC
  8
7
  6
CONTINUOUS
 62
     4
  5
1C0
 10
49061.240612
 20
9480.465247
 30
0.0
 40
18.0
 50
180.0
 51
270.0
  0
ARC
  8
7
  6
CONTINUOUS
 62
     4
  5
1C1
 10
49146.440612
 20
9630.465247
 30
0.0
 40
18.0
 50
270.0
 51
0.0
  0
ARC
  8
7
  6
CONTINUOUS
 62
     4
  5
1C2
 10
49146.440612
 20
9565.665247
 30
0.0
 40
18.0
 50
0.0
 51
90.0
  0
LINE
  8
7
  6
CONTINUOUS
 62
     4
  5
1C3
 10
49164.440612
 20
9565.665247
 30
0.0
 11
49164.440612
 21
9480.465247
 31
0.0
  0
LINE
  8
7
  6
CONTINUOUS
 62
     4
  5
1C4
 10
49164.440612
 20
9715.665247
 30
0.0
 11
49164.440612
 21
9630.465247
 31
0.0
  0
LINE
  8
7
  6
CONTINUOUS
 62
     4
  5
1C5
 10
49061.240612
 20
9612.465247
 30
0.0
 11
49146.440612
 21
9612.465247
 31
0.0
  0
LINE
  8
7
  6
CONTINUOUS
 62
     4
  5
1C6
 10
49061.240612
 20
9583.665247
 30
0.0
 11
49146.840612
 21
9583.665247
 31
0.0
  0
ARC
  8
7
  6
CONTINUOUS
 62
     4
  5
1C7
 10
49146.440612
 20
9415.665247
 30
0.0
 40
18.0
 50
0.0
 51
90.0
  0
ARC
  8
7
  6
CONTINUOUS
 62
     4
  5
1C8
 10
49146.440612
 20
9480.465247
 30
0.0
 40
18.0
 50
270.0
 51
0.0
  0
ARC
  8
7
  6
CONTINUOUS
 62
     4
  5
1C9
 10
49153.340612
 20
9478.365247
 30
0.0
 40
7.7
 50
210.0
 51
30.0
  0
ARC
  8
7
  6
CONTINUOUS
 62
     4
  5
1CA
 10
49153.340612
 20
9478.365247
 30
0.0
 40
6.8
 50
210.0
 51
30.0
  0
LINE
  8
7
  6
CONTINUOUS
 62
     4
  5
1CB
 10
49143.240612
 20
9480.665247
 30
0.0
 11
49146.740612
 21
9474.565247
 31
0.0
  0
LINE
  8
7
  6
CONTINUOUS
 62
     4
  5
1CC
 10
49147.540612
 20
9475.065247
 30
0.0
 11
49144.340612
 21
9480.465247
 31
0.0
  0
ARC
  8
7
  6
CONTINUOUS
 62
     4
  5
1CD
 10
49170.840612
 20
9448.065247
 30
0.0
 40
41.8
 50
110.63
 51
129.02
  0
LINE
  8
7
  6
CONTINUOUS
 62
     4
  5
1CE
 10
49159.240612
 20
9481.765247
 30
0.0
 11
49156.140612
 21
9487.165247
 31
0.0
  0
LINE
  8
7
  6
CONTINUOUS
 62
     4
  5
1CF
 10
49156.540612
 20
9488.265247
 30
0.0
 11
49160.040612
 21
9482.265247
 31
0.0
  0
ARC
  8
7
  6
CONTINUOUS
 62
     4
  5
1D0
 10
49153.340612
 20
9417.765247
 30
0.0
 40
7.7
 50
330.0
 51
150.0
  0
ARC
  8
7
  6
CONTINUOUS
 62
     4
  5
1D1
 10
49153.340612
 20
9417.765247
 30
0.0
 40
6.8
 50
330.0
 51
150.0
  0
LINE
  8
7
  6
CONTINUOUS
 62
     4
  5
1D2
 10
49156.440612
 20
9407.865247
 30
0.0
 11
49159.940612
 21
9413.965247
 31
0.0
  0
LINE
  8
7
  6
CONTINUOUS
 62
     4
  5
1D3
 10
49159.140612
 20
9414.365247
 30
0.0
 11
49156.040612
 21
9408.965247
 31
0.0
  0
ARC
  8
7
  6
CONTINUOUS
 62
     4
  5
1D4
 10
49170.840612
 20
9448.065247
 30
0.0
 40
41.8
 50
230.63
 51
249.02
  0
LINE
  8
7
  6
CONTINUOUS
 62
     4
  5
1D5
 10
49147.440612
 20
9421.165247
 30
0.0
 11
49144.340612
 21
9415.765247
 31
0.0
  0
LINE
  8
7
  6
CONTINUOUS
 62
     4
  5
1D6
 10
49143.140612
 20
9415.565247
 30
0.0
 11
49146.640612
 21
9421.565247
 31
0.0
  0
ARC
  8
7
  6
DIVIDE
 62
     4
  5
1D7
 10
49170.840612
 20
9448.065247
 30
0.0
 40
42.7
 50
98.62
 51
160.29
  0
ARC
  8
7
  6
DIVIDE
 62
     4
  5
1D8
 10
49170.840612
 20
9448.065247
 30
0.0
 40
42.7
 50
199.71
 51
261.38
  0
ARC
  8
7
  6
CONTINUOUS
 62
     4
  5
1D9
 10
49170.840612
 20
9448.065247
 30
0.0
 40
45.0
 50
98.18
 51
161.32
  0
ARC
  8
7
  6
CONTINUOUS
 62
     4
  5
1DA
 10
49170.840612
 20
9448.065247
 30
0.0
 40
45.0
 50
198.68
 51
261.82
  0
CIRCLE
  8
7
  6
CONTINUOUS
 62
     4
  5
1DB
 10
49153.340612
 20
9478.365247
 30
0.0
 40
4.0
  0
CIRCLE
  8
7
  6
CONTINUOUS
 62
     4
  5
1DC
 10
49153.340612
 20
9478.365247
 30
0.0
 40
4.4
  0
CIRCLE
  8
7
  6
CONTINUOUS
 62
     4
  5
1DD
 10
49153.340612
 20
9417.765247
 30
0.0
 40
4.0
  0
CIRCLE
  8
7
  6
CONTINUOUS
 62
     4
  5
1DE
 10
49153.340612
 20
9417.765247
 30
0.0
 40
4.4
  0
LINE
  8
7
  6
CONTINUOUS
 62
     4
  5
1DF
 10
48893.240612
 20
9715.665247
 30
0.0
 11
48893.240612
 21
9630.465247
 31
0.0
  0
LINE
  8
7
  6
CONTINUOUS
 62
     4
  5
1E0
 10
48996.440612
 20
9733.665247
 30
0.0
 11
48911.240612
 21
9733.665247
 31
0.0
  0
LINE
  8
7
  6
CONTINUOUS
 62
     4
  5
1E1
 10
48996.440612
 20
9612.465247
 30
0.0
 11
48911.240612
 21
9612.465247
 31
0.0
  0
LINE
  8
7
  6
CONTINUOUS
 62
     4
  5
1E2
 10
49014.440612
 20
9715.665247
 30
0.0
 11
49014.440612
 21
9630.465247
 31
0.0
  0
ARC
  8
7
  6
CONTINUOUS
 62
     4
  5
1E3
 10
48911.240612
 20
9715.665247
 30
0.0
 40
18.0
 50
90.0
 51
180.0
  0
ARC
  8
7
  6
CONTINUOUS
 62
     4
  5
1E4
 10
48996.440612
 20
9715.665247
 30
0.0
 40
18.0
 50
0.0
 51
90.0
  0
ARC
  8
7
  6
CONTINUOUS
 62
     4
  5
1E5
 10
48911.240612
 20
9630.465247
 30
0.0
 40
18.0
 50
180.0
 51
270.0
  0
ARC
  8
7
  6
CONTINUOUS
 62
     4
  5
1E6
 10
48996.440612
 20
9630.465247
 30
0.0
 40
18.0
 50
270.0
 51
0.0
  0
LINE
  8
7
  6
CONTINUOUS
 62
     4
  5
1E7
 10
49043.240612
 20
9715.665247
 30
0.0
 11
49043.240612
 21
9630.465247
 31
0.0
  0
ARC
  8
7
  6
CONTINUOUS
 62
     4
  5
1E8
 10
49061.240612
 20
9630.465247
 30
0.0
 40
18.0
 50
180.0
 51
270.0
  0
ARC
  8
7
  6
CONTINUOUS
 62
     4
  5
1E9
 10
49061.240612
 20
9565.665247
 30
0.0
 40
18.0
 50
90.0
 51
180.0
  0
LINE
  8
7
  6
CONTINUOUS
 62
     4
  5
1EA
 10
49061.240612
 20
9762.465247
 30
0.0
 11
49146.440612
 21
9762.465247
 31
0.0
  0
ARC
  8
7
  6
CONTINUOUS
 62
     4
  5
1EB
 10
49148.240612
 20
9867.465247
 30
0.0
 40
45.0
 50
0.0
 51
90.0
  0
LINE
  8
7
  6
CONTINUOUS
 62
     4
  5
1EC
 10
49164.440612
 20
9865.665247
 30
0.0
 11
49164.440612
 21
9780.465247
 31
0.0
  0
ARC
  8
7
  6
CONTINUOUS
 62
     4
  5
1ED
 10
49146.440612
 20
9780.465247
 30
0.0
 40
18.0
 50
270.0
 51
0.0
  0
ARC
  8
7
  6
CONTINUOUS
 62
     4
  5
1EE
 10
49153.340612
 20
9778.365247
 30
0.0
 40
7.7
 50
210.0
 51
30.0
  0
ARC
  8
7
  6
CONTINUOUS
 62
     4
  5
1EF
 10
49153.340612
 20
9778.365247
 30
0.0
 40
6.8
 50
210.0
 51
30.0
  0
LINE
  8
7
  6
CONTINUOUS
 62
     4
  5
1F0
 10
49143.240612
 20
9780.665247
 30
0.0
 11
49146.740612
 21
9774.565247
 31
0.0
  0
LINE
  8
7
  6
CONTINUOUS
 62
     4
  5
1F1
 10
49147.540612
 20
9775.065247
 30
0.0
 11
49144.340612
 21
9780.465247
 31
0.0
  0
ARC
  8
7
  6
CONTINUOUS
 62
     4
  5
1F2
 10
49170.840612
 20
9748.065247
 30
0.0
 40
41.8
 50
110.63
 51
129.02
  0
LINE
  8
7
  6
CONTINUOUS
 62
     4
  5
1F3
 10
49159.240612
 20
9781.765247
 30
0.0
 11
49156.140612
 21
9787.165247
 31
0.0
  0
LINE
  8
7
  6
CONTINUOUS
 62
     4
  5
1F4
 10
49156.540612
 20
9788.265247
 30
0.0
 11
49160.040612
 21
9782.265247
 31
0.0
  0
ARC
  8
7
  6
DIVIDE
 62
     4
  5
1F5
 10
49170.840612
 20
9748.065247
 30
0.0
 40
42.7
 50
98.62
 51
160.29
  0
ARC
  8
7
  6
CONTINUOUS
 62
     4
  5
1F6
 10
49170.840612
 20
9748.065247
 30
0.0
 40
45.0
 50
98.18
 51
161.32
  0
CIRCLE
  8
7
  6
CONTINUOUS
 62
     4
  5
1F7
 10
49153.340612
 20
9778.365247
 30
0.0
 40
4.0
  0
CIRCLE
  8
7
  6
CONTINUOUS
 62
     4
  5
1F8
 10
49153.340612
 20
9778.365247
 30
0.0
 40
4.4
  0
ARC
  8
7
  6
CONTINUOUS
 62
     4
  5
1F9
 10
49061.240612
 20
9780.465247
 30
0.0
 40
18.0
 50
180.0
 51
270.0
  0
LINE
  8
7
  6
CONTINUOUS
 62
     4
  5
1FA
 10
49043.240612
 20
9865.665247
 30
0.0
 11
49043.240612
 21
9780.465247
 31
0.0
  0
LINE
  8
7
  6
CONTINUOUS
 62
     4
  5
1FB
 10
49061.240612
 20
9733.665247
 30
0.0
 11
49146.440612
 21
9733.665247
 31
0.0
  0
ARC
  8
7
  6
CONTINUOUS
 62
     4
  5
1FC
 10
49146.440612
 20
9715.665247
 30
0.0
 40
18.0
 50
0.0
 51
90.0
  0
ARC
  8
7
  6
CONTINUOUS
 62
     4
  5
1FD
 10
49153.340612
 20
9717.765247
 30
0.0
 40
7.7
 50
330.0
 51
150.0
  0
ARC
  8
7
  6
CONTINUOUS
 62
     4
  5
1FE
 10
49153.340612
 20
9717.765247
 30
0.0
 40
6.8
 50
330.0
 51
150.0
  0
LINE
  8
7
  6
CONTINUOUS
 62
     4
  5
1FF
 10
49156.440612
 20
9707.865247
 30
0.0
 11
49159.940612
 21
9713.965247
 31
0.0
  0
LINE
  8
7
  6
CONTINUOUS
 62
     4
  5
200
 10
49159.140612
 20
9714.365247
 30
0.0
 11
49156.040612
 21
9708.965247
 31
0.0
  0
ARC
  8
7
  6
CONTINUOUS
 62
     4
  5
201
 10
49170.840612
 20
9748.065247
 30
0.0
 40
41.8
 50
230.63
 51
249.02
  0
LINE
  8
7
  6
CONTINUOUS
 62
     4
  5
202
 10
49147.440612
 20
9721.165247
 30
0.0
 11
49144.340612
 21
9715.765247
 31
0.0
  0
LINE
  8
7
  6
CONTINUOUS
 62
     4
  5
203
 10
49143.140612
 20
9715.565247
 30
0.0
 11
49146.640612
 21
9721.565247
 31
0.0
  0
ARC
  8
7
  6
DIVIDE
 62
     4
  5
204
 10
49170.840612
 20
9748.065247
 30
0.0
 40
42.7
 50
199.71
 51
261.38
  0
ARC
  8
7
  6
CONTINUOUS
 62
     4
  5
205
 10
49170.840612
 20
9748.065247
 30
0.0
 40
45.0
 50
198.68
 51
261.82
  0
CIRCLE
  8
7
  6
CONTINUOUS
 62
     4
  5
206
 10
49153.340612
 20
9717.765247
 30
0.0
 40
4.0
  0
CIRCLE
  8
7
  6
CONTINUOUS
 62
     4
  5
207
 10
49153.340612
 20
9717.765247
 30
0.0
 40
4.4
  0
ARC
  8
7
  6
CONTINUOUS
 62
     4
  5
208
 10
49061.240612
 20
9715.665247
 30
0.0
 40
18.0
 50
90.0
 51
180.0
  0
ARC
  8
7
  6
CONTINUOUS
 62
     4
  5
209
 10
48759.440612
 20
9328.665247
 30
0.0
 40
45.0
 50
180.0
 51
270.0
  0
ARC
  8
7
  6
CONTINUOUS
 62
     4
  5
20A
 10
48846.440612
 20
9330.465247
 30
0.0
 40
18.0
 50
270.0
 51
0.0
  0
LINE
  8
7
  6
CONTINUOUS
 62
     4
  5
20B
 10
48846.440612
 20
9433.665247
 30
0.0
 11
48761.240612
 21
9433.665247
 31
0.0
  0
LINE
  8
7
  6
CONTINUOUS
 62
     4
  5
20C
 10
48864.440612
 20
9415.665247
 30
0.0
 11
48864.440612
 21
9330.465247
 31
0.0
  0
LINE
  8
7
  6
CONTINUOUS
 62
     4
  5
20D
 10
48864.440612
 20
9565.665247
 30
0.0
 11
48864.440612
 21
9480.465247
 31
0.0
  0
ARC
  8
7
  6
CONTINUOUS
 62
     4
  5
20E
 10
48846.440612
 20
9415.665247
 30
0.0
 40
18.0
 50
0.0
 51
90.0
  0
ARC
  8
7
  6
CONTINUOUS
 62
     4
  5
20F
 10
48846.440612
 20
9480.465247
 30
0.0
 40
18.0
 50
270.0
 51
0.0
  0
LINE
  8
7
  6
CONTINUOUS
 62
     4
  5
210
 10
48846.440612
 20
9462.465247
 30
0.0
 11
48761.240612
 21
9462.465247
 31
0.0
  0
LINE
  8
7
  6
CONTINUOUS
 62
     4
  5
211
 10
48846.440612
 20
9583.665247
 30
0.0
 11
48760.840612
 21
9583.665247
 31
0.0
  0
ARC
  8
7
  6
CONTINUOUS
 62
     4
  5
212
 10
48846.440612
 20
9565.665247
 30
0.0
 40
18.0
 50
0.0
 51
90.0
  0
ARC
  8
7
  6
CONTINUOUS
 62
     4
  5
213
 10
48911.240612
 20
9330.465247
 30
0.0
 40
18.0
 50
180.0
 51
270.0
  0
ARC
  8
7
  6
CONTINUOUS
 62
     4
  5
214
 10
48996.440612
 20
9330.465247
 30
0.0
 40
18.0
 50
270.0
 51
0.0
  0
LINE
  8
7
  6
CONTINUOUS
 62
     4
  5
215
 10
48893.240612
 20
9415.665247
 30
0.0
 11
48893.240612
 21
9330.465247
 31
0.0
  0
LINE
  8
7
  6
CONTINUOUS
 62
     4
  5
216
 10
49014.440612
 20
9415.665247
 30
0.0
 11
49014.440612
 21
9330.465247
 31
0.0
  0
LINE
  8
7
  6
CONTINUOUS
 62
     4
  5
217
 10
48996.440612
 20
9462.465247
 30
0.0
 11
48911.240612
 21
9462.465247
 31
0.0
  0
LINE
  8
7
  6
CONTINUOUS
 62
     4
  5
218
 10
48996.440612
 20
9433.665247
 30
0.0
 11
48911.240612
 21
9433.665247
 31
0.0
  0
LINE
  8
7
  6
CONTINUOUS
 62
     4
  5
219
 10
48893.240612
 20
9565.665247
 30
0.0
 11
48893.240612
 21
9480.465247
 31
0.0
  0
LINE
  8
7
  6
CONTINUOUS
 62
     4
  5
21A
 10
49014.440612
 20
9565.665247
 30
0.0
 11
49014.440612
 21
9480.465247
 31
0.0
  0
ARC
  8
7
  6
CONTINUOUS
 62
     4
  5
21B
 10
48911.240612
 20
9480.465247
 30
0.0
 40
18.0
 50
180.0
 51
270.0
  0
ARC
  8
7
  6
CONTINUOUS
 62
     4
  5
21C
 10
48996.440612
 20
9415.665247
 30
0.0
 40
18.0
 50
0.0
 51
90.0
  0
ARC
  8
7
  6
CONTINUOUS
 62
     4
  5
21D
 10
48996.440612
 20
9480.465247
 30
0.0
 40
18.0
 50
270.0
 51
0.0
  0
ARC
  8
7
  6
CONTINUOUS
 62
     4
  5
21E
 10
48911.240612
 20
9415.665247
 30
0.0
 40
18.0
 50
90.0
 51
180.0
  0
LINE
  8
7
  6
CONTINUOUS
 62
     4
  5
21F
 10
48996.440612
 20
9583.665247
 30
0.0
 11
48910.940612
 21
9583.665247
 31
0.0
  0
ARC
  8
7
  6
CONTINUOUS
 62
     4
  5
220
 10
48911.240612
 20
9565.665247
 30
0.0
 40
18.0
 50
90.0
 51
180.0
  0
ARC
  8
7
  6
CONTINUOUS
 62
     4
  5
221
 10
48996.440612
 20
9565.665247
 30
0.0
 40
18.0
 50
0.0
 51
90.0
  0
LINE
  8
7
  6
CONTINUOUS
 62
     4
  5
222
 10
49148.240612
 20
9283.665247
 30
0.0
 11
48759.440612
 21
9283.665247
 31
0.0
  0
LINE
  8
7
  6
CONTINUOUS
 62
     4
  5
223
 10
49193.240612
 20
9867.465247
 30
0.0
 11
49193.240612
 21
9328.665247
 31
0.0
  0
LINE
  8
7
  6
CONTINUOUS
 62
     4
  5
224
 10
48714.440612
 20
9867.465247
 30
0.0
 11
48714.440612
 21
9328.665247
 31
0.0
  0
LINE
  8
7
  6
CONTINUOUS
 62
     4
  5
225
 10
49148.240612
 20
9912.465247
 30
0.0
 11
48759.440612
 21
9912.465247
 31
0.0
  0
ARC
  8
7
  6
CONTINUOUS
 62
     4
  5
226
 10
48761.240612
 20
9630.465247
 30
0.0
 40
18.0
 50
180.0
 51
270.0
  0
LINE
  8
7
  6
CONTINUOUS
 62
     4
  5
227
 10
48743.240612
 20
9715.665247
 30
0.0
 11
48743.240612
 21
9630.465247
 31
0.0
  0
LINE
  8
7
  6
CONTINUOUS
 62
     4
  5
228
 10
48743.240612
 20
9865.665247
 30
0.0
 11
48743.240612
 21
9780.465247
 31
0.0
  0
LINE
  8
7
  6
CONTINUOUS
 62
     4
  5
229
 10
48761.240612
 20
9883.665247
 30
0.0
 11
48846.440612
 21
9883.665247
 31
0.0
  0
ARC
  8
7
  6
CONTINUOUS
 62
     4
  5
22A
 10
48911.240612
 20
9865.665247
 30
0.0
 40
18.0
 50
90.0
 51
180.0
  0
ARC
  8
7
  6
CONTINUOUS
 62
     4
  5
22B
 10
48996.440612
 20
9865.665247
 30
0.0
 40
18.0
 50
0.0
 51
90.0
  0
LINE
  8
7
  6
CONTINUOUS
 62
     4
  5
22C
 10
48911.240612
 20
9883.665247
 30
0.0
 11
48996.440612
 21
9883.665247
 31
0.0
  0
ARC
  8
7
  6
CONTINUOUS
 62
     4
  5
22D
 10
48846.440612
 20
9865.665247
 30
0.0
 40
18.0
 50
0.0
 51
90.0
  0
ARC
  8
7
  6
CONTINUOUS
 62
     4
  5
22E
 10
48761.240612
 20
9715.665247
 30
0.0
 40
18.0
 50
90.0
 51
180.0
  0
ARC
  8
7
  6
CONTINUOUS
 62
     4
  5
22F
 10
48761.240612
 20
9780.465247
 30
0.0
 40
18.0
 50
180.0
 51
270.0
  0
ARC
  8
7
  6
CONTINUOUS
 62
     4
  5
230
 10
48754.340612
 20
9717.765247
 30
0.0
 40
7.7
 50
30.0
 51
210.0
  0
ARC
  8
7
  6
CONTINUOUS
 62
     4
  5
231
 10
48754.340612
 20
9717.765247
 30
0.0
 40
6.8
 50
30.0
 51
210.0
  0
LINE
  8
7
  6
CONTINUOUS
 62
     4
  5
232
 10
48764.440612
 20
9715.465247
 30
0.0
 11
48760.940612
 21
9721.565247
 31
0.0
  0
LINE
  8
7
  6
CONTINUOUS
 62
     4
  5
233
 10
48760.140612
 20
9721.065247
 30
0.0
 11
48763.340612
 21
9715.665247
 31
0.0
  0
ARC
  8
7
  6
CONTINUOUS
 62
     4
  5
234
 10
48736.840612
 20
9748.065247
 30
0.0
 40
41.8
 50
290.63
 51
309.02
  0
LINE
  8
7
  6
CONTINUOUS
 62
     4
  5
235
 10
48748.440612
 20
9714.365247
 30
0.0
 11
48751.540612
 21
9708.965247
 31
0.0
  0
LINE
  8
7
  6
CONTINUOUS
 62
     4
  5
236
 10
48751.140612
 20
9707.865247
 30
0.0
 11
48747.640612
 21
9713.865247
 31
0.0
  0
ARC
  8
7
  6
CONTINUOUS
 62
     4
  5
237
 10
48701.840612
 20
9748.065247
 30
0.0
 40
7.7
 50
270.0
 51
90.0
  0
ARC
  8
7
  6
CONTINUOUS
 62
     4
  5
238
 10
48701.840612
 20
9748.065247
 30
0.0
 40
6.8
 50
270.0
 51
90.0
  0
LINE
  8
7
  6
CONTINUOUS
 62
     4
  5
239
 10
48694.840612
 20
9740.465247
 30
0.0
 11
48701.840612
 21
9740.465247
 31
0.0
  0
LINE
  8
7
  6
CONTINUOUS
 62
     4
  5
23A
 10
48701.840612
 20
9741.365247
 30
0.0
 11
48695.540612
 21
9741.365247
 31
0.0
  0
ARC
  8
7
  6
CONTINUOUS
 62
     4
  5
23B
 10
48736.840612
 20
9748.065247
 30
0.0
 40
41.8
 50
170.63
 51
189.02
  0
LINE
  8
7
  6
CONTINUOUS
 62
     4
  5
23C
 10
48701.840612
 20
9754.865247
 30
0.0
 11
48695.640612
 21
9754.865247
 31
0.0
  0
LINE
  8
7
  6
CONTINUOUS
 62
     4
  5
23D
 10
48694.840612
 20
9755.765247
 30
0.0
 11
48701.840612
 21
9755.765247
 31
0.0
  0
ARC
  8
7
  6
CONTINUOUS
 62
     4
  5
23E
 10
48754.340612
 20
9778.365247
 30
0.0
 40
7.7
 50
150.0
 51
330.0
  0
ARC
  8
7
  6
CONTINUOUS
 62
     4
  5
23F
 10
48754.340612
 20
9778.365247
 30
0.0
 40
6.8
 50
150.0
 51
330.0
  0
LINE
  8
7
  6
CONTINUOUS
 62
     4
  5
240
 10
48751.240612
 20
9788.265247
 30
0.0
 11
48747.740612
 21
9782.165247
 31
0.0
  0
LINE
  8
7
  6
CONTINUOUS
 62
     4
  5
241
 10
48748.540612
 20
9781.765247
 30
0.0
 11
48751.640612
 21
9787.165247
 31
0.0
  0
ARC
  8
7
  6
CONTINUOUS
 62
     4
  5
242
 10
48736.840612
 20
9748.065247
 30
0.0
 40
41.8
 50
50.63
 51
69.02
  0
LINE
  8
7
  6
CONTINUOUS
 62
     4
  5
243
 10
48760.240612
 20
9774.965247
 30
0.0
 11
48763.340612
 21
9780.365247
 31
0.0
  0
LINE
  8
7
  6
CONTINUOUS
 62
     4
  5
244
 10
48764.540612
 20
9780.565247
 30
0.0
 11
48761.040612
 21
9774.565247
 31
0.0
  0
ARC
  8
7
  6
CONTINUOUS
 62
     4
  5
245
 10
48736.840612
 20
9748.065247
 30
0.0
 40
45.0
 50
18.68
 51
81.82
  0
ARC
  8
7
  6
DIVIDE
 62
     4
  5
246
 10
48736.840612
 20
9748.065247
 30
0.0
 40
42.7
 50
19.71
 51
81.38
  0
ARC
  8
7
  6
DIVIDE
 62
     4
  5
247
 10
48736.840612
 20
9748.065247
 30
0.0
 40
42.7
 50
121.61
 51
238.39
  0
ARC
  8
7
  6
DIVIDE
 62
     4
  5
248
 10
48736.840612
 20
9748.065247
 30
0.0
 40
42.7
 50
278.62
 51
340.29
  0
ARC
  8
7
  6
CONTINUOUS
 62
     4
  5
249
 10
48736.840612
 20
9748.065247
 30
0.0
 40
45.0
 50
119.87
 51
240.13
  0
ARC
  8
7
  6
CONTINUOUS
 62
     4
  5
24A
 10
48736.840612
 20
9748.065247
 30
0.0
 40
45.0
 50
278.18
 51
341.32
  0
CIRCLE
  8
7
  6
CONTINUOUS
 62
     4
  5
24B
 10
48754.340612
 20
9778.365247
 30
0.0
 40
4.4
  0
CIRCLE
  8
7
  6
CONTINUOUS
 62
     4
  5
24C
 10
48754.340612
 20
9778.365247
 30
0.0
 40
4.0
  0
CIRCLE
  8
7
  6
CONTINUOUS
 62
     4
  5
24D
 10
48754.340612
 20
9717.765247
 30
0.0
 40
4.0
  0
CIRCLE
  8
7
  6
CONTINUOUS
 62
     4
  5
24E
 10
48754.340612
 20
9717.765247
 30
0.0
 40
4.4
  0
CIRCLE
  8
7
  6
CONTINUOUS
 62
     4
  5
24F
 10
48701.840612
 20
9748.065247
 30
0.0
 40
4.0
  0
CIRCLE
  8
7
  6
CONTINUOUS
 62
     4
  5
250
 10
48701.840612
 20
9748.065247
 30
0.0
 40
4.4
  0
LINE
  8
7
  6
CONTINUOUS
 62
     4
  5
251
 10
49061.240612
 20
9312.465247
 30
0.0
 11
49146.440612
 21
9312.465247
 31
0.0
  0
ARC
  8
7
  6
CONTINUOUS
 62
     4
  5
252
 10
49205.840612
 20
9448.065247
 30
0.0
 40
7.7
 50
90.0
 51
270.0
  0
ARC
  8
7
  6
CONTINUOUS
 62
     4
  5
253
 10
49205.840612
 20
9448.065247
 30
0.0
 40
6.8
 50
90.0
 51
270.0
  0
LINE
  8
7
  6
CONTINUOUS
 62
     4
  5
254
 10
49212.840612
 20
9455.665247
 30
0.0
 11
49205.840612
 21
9455.665247
 31
0.0
  0
LINE
  8
7
  6
CONTINUOUS
 62
     4
  5
255
 10
49205.840612
 20
9454.765247
 30
0.0
 11
49212.140612
 21
9454.765247
 31
0.0
  0
ARC
  8
7
  6
CONTINUOUS
 62
     4
  5
256
 10
49170.840612
 20
9448.065247
 30
0.0
 40
41.8
 50
350.63
 51
9.02
  0
LINE
  8
7
  6
CONTINUOUS
 62
     4
  5
257
 10
49205.840612
 20
9441.265247
 30
0.0
 11
49212.040612
 21
9441.265247
 31
0.0
  0
LINE
  8
7
  6
CONTINUOUS
 62
     4
  5
258
 10
49212.840612
 20
9440.365247
 30
0.0
 11
49205.840612
 21
9440.365247
 31
0.0
  0
ARC
  8
7
  6
DIVIDE
 62
     4
  5
259
 10
49170.840612
 20
9448.065247
 30
0.0
 40
42.7
 50
301.61
 51
58.39
  0
ARC
  8
7
  6
CONTINUOUS
 62
     4
  5
25A
 10
49170.840612
 20
9448.065247
 30
0.0
 40
45.0
 50
299.87
 51
60.13
  0
CIRCLE
  8
7
  6
CONTINUOUS
 62
     4
  5
25B
 10
49205.840612
 20
9448.065247
 30
0.0
 40
4.0
  0
CIRCLE
  8
7
  6
CONTINUOUS
 62
     4
  5
25C
 10
49205.840612
 20
9448.065247
 30
0.0
 40
4.4
  0
ARC
  8
7
  6
CONTINUOUS
 62
     4
  5
25D
 10
49146.440612
 20
9865.665247
 30
0.0
 40
18.0
 50
0.0
 51
90.0
  0
LINE
  8
7
  6
CONTINUOUS
 62
     4
  5
25E
 10
49146.440612
 20
9883.665247
 30
0.0
 11
49061.240612
 21
9883.665247
 31
0.0
  0
ARC
  8
7
  6
CONTINUOUS
 62
     4
  5
25F
 10
49205.840612
 20
9748.065247
 30
0.0
 40
7.7
 50
90.0
 51
270.0
  0
ARC
  8
7
  6
CONTINUOUS
 62
     4
  5
260
 10
49205.840612
 20
9748.065247
 30
0.0
 40
6.8
 50
90.0
 51
270.0
  0
LINE
  8
7
  6
CONTINUOUS
 62
     4
  5
261
 10
49212.840612
 20
9755.665247
 30
0.0
 11
49205.840612
 21
9755.665247
 31
0.0
  0
LINE
  8
7
  6
CONTINUOUS
 62
     4
  5
262
 10
49205.840612
 20
9754.765247
 30
0.0
 11
49212.140612
 21
9754.765247
 31
0.0
  0
ARC
  8
7
  6
CONTINUOUS
 62
     4
  5
263
 10
49170.840612
 20
9748.065247
 30
0.0
 40
41.8
 50
350.63
 51
9.02
  0
LINE
  8
7
  6
CONTINUOUS
 62
     4
  5
264
 10
49205.840612
 20
9741.265247
 30
0.0
 11
49212.040612
 21
9741.265247
 31
0.0
  0
LINE
  8
7
  6
CONTINUOUS
 62
     4
  5
265
 10
49212.840612
 20
9740.365247
 30
0.0
 11
49205.840612
 21
9740.365247
 31
0.0
  0
ARC
  8
7
  6
CONTINUOUS
 62
     4
  5
266
 10
49170.840612
 20
9748.065247
 30
0.0
 40
45.0
 50
299.87
 51
60.13
  0
ARC
  8
7
  6
DIVIDE
 62
     4
  5
267
 10
49170.840612
 20
9748.065247
 30
0.0
 40
42.7
 50
301.61
 51
58.39
  0
CIRCLE
  8
7
  6
CONTINUOUS
 62
     4
  5
268
 10
49205.840612
 20
9748.065247
 30
0.0
 40
4.0
  0
CIRCLE
  8
7
  6
CONTINUOUS
 62
     4
  5
269
 10
49205.840612
 20
9748.065247
 30
0.0
 40
4.4
  0
ARC
  8
7
  6
CONTINUOUS
 62
     4
  5
26A
 10
49061.240612
 20
9865.665247
 30
0.0
 40
18.0
 50
90.0
 51
180.0
  0
LINE
  8
7
  6
CONTINUOUS
 62
     4
  5
26B
 10
48846.440612
 20
9312.465247
 30
0.0
 11
48761.240612
 21
9312.465247
 31
0.0
  0
ARC
  8
7
  6
CONTINUOUS
 62
     4
  5
26C
 10
48761.240612
 20
9330.465247
 30
0.0
 40
18.0
 50
180.0
 51
270.0
  0
LINE
  8
7
  6
CONTINUOUS
 62
     4
  5
26D
 10
48743.240612
 20
9415.665247
 30
0.0
 11
48743.240612
 21
9330.465247
 31
0.0
  0
LINE
  8
7
  6
CONTINUOUS
 62
     4
  5
26E
 10
48743.240612
 20
9565.665247
 30
0.0
 11
48743.240612
 21
9480.465247
 31
0.0
  0
ARC
  8
7
  6
CONTINUOUS
 62
     4
  5
26F
 10
48761.240612
 20
9415.665247
 30
0.0
 40
18.0
 50
90.0
 51
180.0
  0
ARC
  8
7
  6
CONTINUOUS
 62
     4
  5
270
 10
48761.240612
 20
9480.465247
 30
0.0
 40
18.0
 50
180.0
 51
270.0
  0
ARC
  8
7
  6
CONTINUOUS
 62
     4
  5
271
 10
48754.340612
 20
9417.765247
 30
0.0
 40
7.7
 50
30.0
 51
210.0
  0
ARC
  8
7
  6
CONTINUOUS
 62
     4
  5
272
 10
48754.340612
 20
9417.765247
 30
0.0
 40
6.8
 50
30.0
 51
210.0
  0
LINE
  8
7
  6
CONTINUOUS
 62
     4
  5
273
 10
48764.440612
 20
9415.465247
 30
0.0
 11
48760.940612
 21
9421.565247
 31
0.0
  0
LINE
  8
7
  6
CONTINUOUS
 62
     4
  5
274
 10
48760.140612
 20
9421.065247
 30
0.0
 11
48763.340612
 21
9415.665247
 31
0.0
  0
ARC
  8
7
  6
CONTINUOUS
 62
     4
  5
275
 10
48736.840612
 20
9448.065247
 30
0.0
 40
41.8
 50
290.63
 51
309.02
  0
LINE
  8
7
  6
CONTINUOUS
 62
     4
  5
276
 10
48748.440612
 20
9414.365247
 30
0.0
 11
48751.540612
 21
9408.965247
 31
0.0
  0
LINE
  8
7
  6
CONTINUOUS
 62
     4
  5
277
 10
48751.140612
 20
9407.865247
 30
0.0
 11
48747.640612
 21
9413.865247
 31
0.0
  0
ARC
  8
7
  6
CONTINUOUS
 62
     4
  5
278
 10
48701.840612
 20
9448.065247
 30
0.0
 40
7.7
 50
270.0
 51
90.0
  0
ARC
  8
7
  6
CONTINUOUS
 62
     4
  5
279
 10
48701.840612
 20
9448.065247
 30
0.0
 40
6.8
 50
270.0
 51
90.0
  0
LINE
  8
7
  6
CONTINUOUS
 62
     4
  5
27A
 10
48694.840612
 20
9440.465247
 30
0.0
 11
48701.840612
 21
9440.465247
 31
0.0
  0
LINE
  8
7
  6
CONTINUOUS
 62
     4
  5
27B
 10
48701.840612
 20
9441.365247
 30
0.0
 11
48695.540612
 21
9441.365247
 31
0.0
  0
ARC
  8
7
  6
CONTINUOUS
 62
     4
  5
27C
 10
48736.840612
 20
9448.065247
 30
0.0
 40
41.8
 50
170.63
 51
189.02
  0
LINE
  8
7
  6
CONTINUOUS
 62
     4
  5
27D
 10
48701.840612
 20
9454.865247
 30
0.0
 11
48695.640612
 21
9454.865247
 31
0.0
  0
LINE
  8
7
  6
CONTINUOUS
 62
     4
  5
27E
 10
48694.840612
 20
9455.765247
 30
0.0
 11
48701.840612
 21
9455.765247
 31
0.0
  0
ARC
  8
7
  6
CONTINUOUS
 62
     4
  5
27F
 10
48754.340612
 20
9478.365247
 30
0.0
 40
7.7
 50
150.0
 51
330.0
  0
ARC
  8
7
  6
CONTINUOUS
 62
     4
  5
280
 10
48754.340612
 20
9478.365247
 30
0.0
 40
6.8
 50
150.0
 51
330.0
  0
LINE
  8
7
  6
CONTINUOUS
 62
     4
  5
281
 10
48751.240612
 20
9488.265247
 30
0.0
 11
48747.740612
 21
9482.165247
 31
0.0
  0
LINE
  8
7
  6
CONTINUOUS
 62
     4
  5
282
 10
48748.540612
 20
9481.765247
 30
0.0
 11
48751.640612
 21
9487.165247
 31
0.0
  0
ARC
  8
7
  6
CONTINUOUS
 62
     4
  5
283
 10
48736.840612
 20
9448.065247
 30
0.0
 40
41.8
 50
50.63
 51
69.02
  0
LINE
  8
7
  6
CONTINUOUS
 62
     4
  5
284
 10
48760.240612
 20
9474.965247
 30
0.0
 11
48763.340612
 21
9480.365247
 31
0.0
  0
LINE
  8
7
  6
CONTINUOUS
 62
     4
  5
285
 10
48764.540612
 20
9480.565247
 30
0.0
 11
48761.040612
 21
9474.565247
 31
0.0
  0
ARC
  8
7
  6
DIVIDE
 62
     4
  5
286
 10
48736.840612
 20
9448.065247
 30
0.0
 40
42.7
 50
19.71
 51
81.38
  0
ARC
  8
7
  6
CONTINUOUS
 62
     4
  5
287
 10
48736.840612
 20
9448.065247
 30
0.0
 40
45.0
 50
18.68
 51
81.82
  0
ARC
  8
7
  6
CONTINUOUS
 62
     4
  5
288
 10
48736.840612
 20
9448.065247
 30
0.0
 40
45.0
 50
119.87
 51
240.13
  0
ARC
  8
7
  6
CONTINUOUS
 62
     4
  5
289
 10
48736.840612
 20
9448.065247
 30
0.0
 40
45.0
 50
278.18
 51
341.32
  0
ARC
  8
7
  6
DIVIDE
 62
     4
  5
28A
 10
48736.840612
 20
9448.065247
 30
0.0
 40
42.7
 50
121.61
 51
238.39
  0
ARC
  8
7
  6
DIVIDE
 62
     4
  5
28B
 10
48736.840612
 20
9448.065247
 30
0.0
 40
42.7
 50
278.62
 51
340.29
  0
CIRCLE
  8
7
  6
CONTINUOUS
 62
     4
  5
28C
 10
48754.340612
 20
9478.365247
 30
0.0
 40
4.4
  0
CIRCLE
  8
7
  6
CONTINUOUS
 62
     4
  5
28D
 10
48754.340612
 20
9478.365247
 30
0.0
 40
4.0
  0
CIRCLE
  8
7
  6
CONTINUOUS
 62
     4
  5
28E
 10
48754.340612
 20
9417.765247
 30
0.0
 40
4.0
  0
CIRCLE
  8
7
  6
CONTINUOUS
 62
     4
  5
28F
 10
48754.340612
 20
9417.765247
 30
0.0
 40
4.4
  0
CIRCLE
  8
7
  6
CONTINUOUS
 62
     4
  5
290
 10
48701.840612
 20
9448.065247
 30
0.0
 40
4.0
  0
CIRCLE
  8
7
  6
CONTINUOUS
 62
     4
  5
291
 10
48701.840612
 20
9448.065247
 30
0.0
 40
4.4
  0
ARC
  8
7
  6
CONTINUOUS
 62
     4
  5
292
 10
48761.240612
 20
9565.665247
 30
0.0
 40
18.0
 50
90.0
 51
180.0
  0
LINE
  8
7
  6
CONTINUOUS
 62
     4
  5
293
 10
48996.440612
 20
9312.465247
 30
0.0
 11
48911.240612
 21
9312.465247
 31
0.0
  0
LINE
  8
7
  6
CENTER
 62
     3
  5
294
 10
48878.840612
 20
9898.065247
 30
0.0
 11
48878.840612
 21
9298.065247
 31
0.0
  0
LINE
  8
7
  6
CENTER
 62
     3
  5
295
 10
49028.840612
 20
9898.065247
 30
0.0
 11
49028.840612
 21
9298.065247
 31
0.0
  0
LINE
  8
7
  6
CENTER
 62
     3
  5
296
 10
49178.840612
 20
9748.065247
 30
0.0
 11
48728.840612
 21
9748.065247
 31
0.0
  0
LINE
  8
7
  6
CENTER
 62
     3
  5
297
 10
49178.840612
 20
9598.065247
 30
0.0
 11
48728.840612
 21
9598.065247
 31
0.0
  0
LINE
  8
7
  6
CENTER
 62
     3
  5
298
 10
49178.840612
 20
9448.065247
 30
0.0
 11
48728.840612
 21
9448.065247
 31
0.0
  0
TEXT
  8
5
  6
CONTINUOUS
 62
     3
  5
299
 10
48747.14445
 20
9133.665247
 30
0.0
 40
90.0
  1
テスリックス
 41
0.837
  7

 72
     5
 11
49287.14445
 21
9133.665247
 31
0.0
  0
LINE
  8
5
  6
CONTINUOUS
 62
     3
  5
29A
 10
48758.74699
 20
9283.665247
 30
0.0
 11
48672.14445
 21
9133.665247
 31
0.0
  0
LINE
  8
5
  6
CONTINUOUS
 62
     3
  5
29B
 10
48672.14445
 20
9133.665247
 30
0.0
 11
49287.14445
 21
9133.665247
 31
0.0
  0
LINE
  8
5
  6
CONTINUOUS
 62
     3
  5
29C
 10
49178.840612
 20
10228.065247
 30
0.0
 11
49178.840612
 21
9928.065247
 31
0.0
  0
LINE
  8
5
  6
CONTINUOUS
 62
     3
  5
29D
 10
47973.839612
 20
10228.065247
 30
0.0
 11
47973.839612
 21
9928.065247
 31
0.0
  0
LINE
  8
5
  6
CONTINUOUS
 62
     3
  5
29E
 10
48728.840612
 20
10078.065247
 30
0.0
 11
48728.840612
 21
9928.065247
 31
0.0
  0
CIRCLE
  8
5
  6
CONTINUOUS
 62
     3
  5
29F
 10
49178.840612
 20
10228.065247
 30
0.0
 40
7.5
  0
CIRCLE
  8
5
  6
CONTINUOUS
 62
     3
  5
2A0
 10
47973.839612
 20
10228.065247
 30
0.0
 40
7.5
  0
CIRCLE
  8
5
  6
CONTINUOUS
 62
     3
  5
2A1
 10
47973.839612
 20
10078.065247
 30
0.0
 40
7.5
  0
CIRCLE
  8
5
  6
CONTINUOUS
 62
     3
  5
2A2
 10
48728.840612
 20
10078.065247
 30
0.0
 40
7.5
  0
CIRCLE
  8
5
  6
CONTINUOUS
 62
     3
  5
2A3
 10
49178.840612
 20
10078.065247
 30
0.0
 40
7.5
  0
LINE
  8
5
  6
CONTINUOUS
 62
     3
  5
2A4
 10
49178.840612
 20
10228.065247
 30
0.0
 11
47973.839612
 21
10228.065247
 31
0.0
  0
LINE
  8
5
  6
CONTINUOUS
 62
     3
  5
2A5
 10
47973.839612
 20
10078.065247
 30
0.0
 11
48728.840612
 21
10078.065247
 31
0.0
  0
LINE
  8
5
  6
CONTINUOUS
 62
     3
  5
2A6
 10
48728.840612
 20
10078.065247
 30
0.0
 11
49178.840612
 21
10078.065247
 31
0.0
  0
LINE
  8
5
  6
CONTINUOUS
 62
     3
  5
2A7
 10
49628.840612
 20
8648.065247
 30
0.0
 11
49328.840612
 21
8648.065247
 31
0.0
  0
LINE
  8
5
  6
CONTINUOUS
 62
     3
  5
2A8
 10
49628.840612
 20
9898.065247
 30
0.0
 11
49328.840612
 21
9898.065247
 31
0.0
  0
LINE
  8
5
  6
CONTINUOUS
 62
     3
  5
2A9
 10
49478.840612
 20
9298.065247
 30
0.0
 11
49328.840612
 21
9298.065247
 31
0.0
  0
CIRCLE
  8
5
  6
CONTINUOUS
 62
     3
  5
2AA
 10
49628.840612
 20
8648.065247
 30
0.0
 40
7.5
  0
CIRCLE
  8
5
  6
CONTINUOUS
 62
     3
  5
2AB
 10
49628.840612
 20
9898.065247
 30
0.0
 40
7.5
  0
CIRCLE
  8
5
  6
CONTINUOUS
 62
     3
  5
2AC
 10
49478.840612
 20
8648.065247
 30
0.0
 40
7.5
  0
CIRCLE
  8
5
  6
CONTINUOUS
 62
     3
  5
2AD
 10
49478.840612
 20
9298.065247
 30
0.0
 40
7.5
  0
CIRCLE
  8
5
  6
CONTINUOUS
 62
     3
  5
2AE
 10
49478.840612
 20
9898.065247
 30
0.0
 40
7.5
  0
LINE
  8
5
  6
CONTINUOUS
 62
     3
  5
2AF
 10
49628.840612
 20
8648.065247
 30
0.0
 11
49628.840612
 21
9898.065247
 31
0.0
  0
LINE
  8
5
  6
CONTINUOUS
 62
     3
  5
2B0
 10
49478.840612
 20
8648.065247
 30
0.0
 11
49478.840612
 21
9298.065247
 31
0.0
  0
LINE
  8
5
  6
CONTINUOUS
 62
     3
  5
2B1
 10
49478.840612
 20
9298.065247
 30
0.0
 11
49478.840612
 21
9898.065247
 31
0.0
  0
TEXT
  8
5
  6
CONTINUOUS
 62
     3
  5
2B2
 10
48441.340112
 20
10228.065247
 30
0.0
 40
90.0
  1
1,205
 41
0.6
  7

 72
     5
 11
48711.340112
 21
10228.065247
 31
0.0
  0
TEXT
  8
5
  6
CONTINUOUS
 62
     3
  5
2B3
 10
48261.340112
 20
10078.065247
 30
0.0
 40
90.0
  1
755
 41
0.666667
  7

 72
     5
 11
48441.340112
 21
10078.065247
 31
0.0
  0
TEXT
  8
5
  6
CONTINUOUS
 62
     3
  5
2B4
 10
48863.840612
 20
10078.065247
 30
0.0
 40
90.0
  1
450
 41
0.666667
  7

 72
     5
 11
49043.840612
 21
10078.065247
 31
0.0
  0
TEXT
  8
5
  6
CONTINUOUS
 62
     3
  5
2B5
 10
49628.840612
 20
9138.065247
 30
0.0
 40
90.0
  1
1,250
 50
90.0
 41
0.6
  7

 72
     5
 11
49628.840612
 21
9408.065247
 31
0.0
  0
TEXT
  8
5
  6
CONTINUOUS
 62
     3
  5
2B6
 10
49478.840612
 20
8883.065247
 30
0.0
 40
90.0
  1
650
 50
90.0
 41
0.666667
  7

 72
     5
 11
49478.840612
 21
9063.065247
 31
0.0
  0
TEXT
  8
5
  6
CONTINUOUS
 62
     3
  5
2B7
 10
49478.840612
 20
9508.065247
 30
0.0
 40
90.0
  1
600
 50
90.0
 41
0.666667
  7

 72
     5
 11
49478.840612
 21
9688.065247
 31
0.0
  0
LINE
  8
1
  6
CONTINUOUS
 62
     5
  5
2B8
 10
49979.839612
 20
11048.065247
 30
0.0
 11
49979.839612
 21
8648.065247
 31
0.0
  0
LINE
  8
7
  6
CONTINUOUS
 62
     3
  5
2B9
 10
49163.190403
 20
13323.583016
 30
0.0
 11
49128.131826
 21
13323.583016
 31
0.0
  0
LINE
  8
7
  6
CONTINUOUS
 62
     3
  5
2BA
 10
48779.549399
 20
13338.60812
 30
0.0
 11
48779.549399
 21
13323.583016
 31
0.0
  0
LINE
  8
7
  6
CONTINUOUS
 62
     3
  5
2BB
 10
48689.398771
 20
13323.583016
 30
0.0
 11
48689.398771
 21
13338.60812
 31
0.0
  0
LINE
  8
7
  6
CONTINUOUS
 62
     3
  5
2BC
 10
48744.490821
 20
13323.583016
 30
0.0
 11
48744.490821
 21
13293.532807
 31
0.0
  0
LINE
  8
7
  6
CONTINUOUS
 62
     3
  5
2BD
 10
48724.457349
 20
13323.583016
 30
0.0
 11
48724.457349
 21
13293.532807
 31
0.0
  0
LINE
  8
40
  6
DOT
 62
     3
  5
2BE
 10
49157.665278
 20
13282.60777
 30
0.0
 11
49172.665298
 21
13282.60777
 31
0.0
  0
LINE
  8
40
  6
DOT
 62
     3
  5
2BF
 10
49157.665278
 20
13282.60777
 30
0.0
 11
49157.665278
 21
13288.60789
 31
0.0
  0
LINE
  8
40
  6
DOT
 62
     3
  5
2C0
 10
49172.665298
 20
13282.60777
 30
0.0
 11
49172.665298
 21
13288.60789
 31
0.0
  0
LINE
  8
40
  6
CONTINUOUS
 62
     4
  5
2C1
 10
49179.165218
 20
13288.60775
 30
0.0
 11
49179.165218
 21
13311.192083
 31
0.0
  0
LINE
  8
40
  6
CONTINUOUS
 62
     4
  5
2C2
 10
49179.165218
 20
13288.60789
 30
0.0
 11
49151.165218
 21
13288.60789
 31
0.0
  0
LINE
  8
40
  6
CONTINUOUS
 62
     4
  5
2C3
 10
49180.626118
 20
13318.608
 30
0.0
 11
49149.803578
 21
13318.608
 31
0.0
  0
LINE
  8
40
  6
CONTINUOUS
 62
     4
  5
2C4
 10
49143.560138
 20
13320.60797
 30
0.0
 11
49186.841138
 21
13320.60797
 31
0.0
  0
LINE
  8
40
  6
CONTINUOUS
 62
     4
  5
2C5
 10
49120.165298
 20
13338.60798
 30
0.0
 11
49120.165298
 21
13328.12107
 31
0.0
  0
LINE
  8
40
  6
CONTINUOUS
 62
     4
  5
2C6
 10
49210.165278
 20
13338.60798
 30
0.0
 11
49210.165278
 21
13328.09244
 31
0.0
  0
LINE
  8
40
  6
CONTINUOUS
 62
     4
  5
2C7
 10
49209.419218
 20
13326.60802
 30
0.0
 11
49120.954758
 21
13326.60802
 31
0.0
  0
LINE
  8
1
  6
CONTINUOUS
 62
     4
  5
2C8
 10
49132.854338
 20
13345.79404
 30
0.0
 11
49136.854418
 21
13346.48907
 31
0.0
  0
LINE
  8
1
  6
CONTINUOUS
 62
     4
  5
2C9
 10
49132.854338
 20
13348.83036
 30
0.0
 11
49136.854418
 21
13349.5396
 31
0.0
  0
LINE
  8
1
  6
CONTINUOUS
 62
     4
  5
2CA
 10
49132.854338
 20
13351.88348
 30
0.0
 11
49136.854418
 21
13352.59272
 31
0.0
  0
LINE
  8
1
  6
CONTINUOUS
 62
     4
  5
2CB
 10
49132.854338
 20
13354.9366
 30
0.0
 11
49136.854418
 21
13355.64577
 31
0.0
  0
LINE
  8
1
  6
CONTINUOUS
 62
     4
  5
2CC
 10
49132.854338
 20
13357.98706
 30
0.0
 11
49136.854418
 21
13358.68202
 31
0.0
  0
LINE
  8
1
  6
CONTINUOUS
 62
     4
  5
2CD
 10
49132.854338
 20
13361.02317
 30
0.0
 11
49136.854418
 21
13361.73241
 31
0.0
  0
LINE
  8
1
  6
CONTINUOUS
 62
     4
  5
2CE
 10
49136.459198
 20
13344.89888
 30
0.0
 11
49133.249558
 21
13344.33125
 31
0.0
  0
LINE
  8
1
  6
CONTINUOUS
 62
     4
  5
2CF
 10
49136.459198
 20
13347.93233
 30
0.0
 11
49133.249558
 21
13347.36477
 31
0.0
  0
LINE
  8
1
  6
CONTINUOUS
 62
     4
  5
2D0
 10
49136.459198
 20
13350.98545
 30
0.0
 11
49133.249558
 21
13350.41789
 31
0.0
  0
LINE
  8
1
  6
CONTINUOUS
 62
     4
  5
2D1
 10
49136.459198
 20
13354.03857
 30
0.0
 11
49133.249558
 21
13353.47108
 31
0.0
  0
LINE
  8
1
  6
CONTINUOUS
 62
     4
  5
2D2
 10
49136.459198
 20
13357.09176
 30
0.0
 11
49133.249558
 21
13356.5242
 31
0.0
  0
LINE
  8
1
  6
CONTINUOUS
 62
     4
  5
2D3
 10
49136.459198
 20
13360.12528
 30
0.0
 11
49133.249558
 21
13359.55772
 31
0.0
  0
LINE
  8
1
  6
CONTINUOUS
 62
     4
  5
2D4
 10
49136.459198
 20
13363.1784
 30
0.0
 11
49133.249558
 21
13362.61077
 31
0.0
  0
LINE
  8
1
  6
CONTINUOUS
 62
     4
  5
2D5
 10
49132.854338
 20
13342.74267
 30
0.0
 11
49136.854418
 21
13343.44687
 31
0.0
  0
LINE
  8
1
  6
CONTINUOUS
 62
     4
  5
2D6
 10
49134.854378
 20
13332.608
 30
0.0
 11
49130.604398
 21
13332.608
 31
0.0
  0
LINE
  8
1
  6
CONTINUOUS
 62
     4
  5
2D7
 10
49132.854338
 20
13336.69614
 30
0.0
 11
49136.854418
 21
13337.40538
 31
0.0
  0
LINE
  8
1
  6
CONTINUOUS
 62
     4
  5
2D8
 10
49132.854338
 20
13339.70999
 30
0.0
 11
49136.854418
 21
13340.41923
 31
0.0
  0
LINE
  8
1
  6
CONTINUOUS
 62
     4
  5
2D9
 10
49136.459198
 20
13335.81771
 30
0.0
 11
49133.249558
 21
13335.25015
 31
0.0
  0
LINE
  8
1
  6
CONTINUOUS
 62
     4
  5
2DA
 10
49136.459198
 20
13338.83163
 30
0.0
 11
49133.249558
 21
13338.26407
 31
0.0
  0
LINE
  8
1
  6
CONTINUOUS
 62
     4
  5
2DB
 10
49136.459198
 20
13341.86522
 30
0.0
 11
49133.249558
 21
13341.29766
 31
0.0
  0
LINE
  8
1
  6
CONTINUOUS
 62
     4
  5
2DC
 10
49132.251358
 20
13332.608
 30
0.0
 11
49133.454378
 21
13333.81095
 31
0.0
  0
LINE
  8
1
  6
CONTINUOUS
 62
     4
  5
2DD
 10
49132.251358
 20
13332.608
 30
0.0
 11
49130.604398
 21
13332.608
 31
0.0
  0
LINE
  8
1
  6
CONTINUOUS
 62
     4
  5
2DE
 10
49137.457398
 20
13332.608
 30
0.0
 11
49136.254378
 21
13333.81095
 31
0.0
  0
LINE
  8
1
  6
CONTINUOUS
 62
     4
  5
2DF
 10
49137.457398
 20
13332.608
 30
0.0
 11
49139.104358
 21
13332.608
 31
0.0
  0
LINE
  8
1
  6
CONTINUOUS
 62
     4
  5
2E0
 10
49136.459198
 20
13334.29115
 30
0.0
 11
49133.249558
 21
13333.72366
 31
0.0
  0
LINE
  8
1
  6
CONTINUOUS
 62
     4
  5
2E1
 10
49134.247618
 20
13329.11696
 30
0.0
 11
49135.461138
 21
13329.11696
 31
0.0
  0
LINE
  8
1
  6
CONTINUOUS
 62
     4
  5
2E2
 10
49134.247618
 20
13328.60799
 30
0.0
 11
49134.247618
 21
13329.11696
 31
0.0
  0
LINE
  8
1
  6
CONTINUOUS
 62
     4
  5
2E3
 10
49135.461138
 20
13328.60799
 30
0.0
 11
49135.461138
 21
13329.11696
 31
0.0
  0
LINE
  8
1
  6
CONTINUOUS
 62
     4
  5
2E4
 10
49134.247618
 20
13328.60799
 30
0.0
 11
49135.461138
 21
13328.60799
 31
0.0
  0
LINE
  8
1
  6
CONTINUOUS
 62
     4
  5
2E5
 10
49132.854338
 20
13364.07629
 30
0.0
 11
49136.854418
 21
13364.78553
 31
0.0
  0
LINE
  8
1
  6
CONTINUOUS
 62
     4
  5
2E6
 10
49136.245698
 20
13367.73071
 30
0.0
 11
49133.360718
 21
13367.21915
 31
0.0
  0
LINE
  8
1
  6
CONTINUOUS
 62
     4
  5
2E7
 10
49136.459198
 20
13366.23145
 30
0.0
 11
49133.249558
 21
13365.66389
 31
0.0
  0
LINE
  8
1
  6
CONTINUOUS
 62
     4
  5
2E8
 10
49135.952818
 20
13369.19497
 30
0.0
 11
49133.675438
 21
13368.79233
 31
0.0
  0
LINE
  8
1
  6
CONTINUOUS
 62
     4
  5
2E9
 10
49193.476158
 20
13345.79404
 30
0.0
 11
49197.476098
 21
13346.48907
 31
0.0
  0
LINE
  8
1
  6
CONTINUOUS
 62
     4
  5
2EA
 10
49193.476158
 20
13348.83036
 30
0.0
 11
49197.476098
 21
13349.5396
 31
0.0
  0
LINE
  8
1
  6
CONTINUOUS
 62
     4
  5
2EB
 10
49193.476158
 20
13351.88348
 30
0.0
 11
49197.476098
 21
13352.59272
 31
0.0
  0
LINE
  8
1
  6
CONTINUOUS
 62
     4
  5
2EC
 10
49193.476158
 20
13354.9366
 30
0.0
 11
49197.476098
 21
13355.64577
 31
0.0
  0
LINE
  8
1
  6
CONTINUOUS
 62
     4
  5
2ED
 10
49193.476158
 20
13357.98706
 30
0.0
 11
49197.476098
 21
13358.68202
 31
0.0
  0
LINE
  8
1
  6
CONTINUOUS
 62
     4
  5
2EE
 10
49193.476158
 20
13361.02317
 30
0.0
 11
49197.476098
 21
13361.73241
 31
0.0
  0
LINE
  8
1
  6
CONTINUOUS
 62
     4
  5
2EF
 10
49197.081018
 20
13344.89888
 30
0.0
 11
49193.871238
 21
13344.33125
 31
0.0
  0
LINE
  8
1
  6
CONTINUOUS
 62
     4
  5
2F0
 10
49197.081018
 20
13347.93233
 30
0.0
 11
49193.871238
 21
13347.36477
 31
0.0
  0
LINE
  8
1
  6
CONTINUOUS
 62
     4
  5
2F1
 10
49197.081018
 20
13350.98545
 30
0.0
 11
49193.871238
 21
13350.41789
 31
0.0
  0
LINE
  8
1
  6
CONTINUOUS
 62
     4
  5
2F2
 10
49197.081018
 20
13354.03857
 30
0.0
 11
49193.871238
 21
13353.47108
 31
0.0
  0
LINE
  8
1
  6
CONTINUOUS
 62
     4
  5
2F3
 10
49197.081018
 20
13357.09176
 30
0.0
 11
49193.871238
 21
13356.5242
 31
0.0
  0
LINE
  8
1
  6
CONTINUOUS
 62
     4
  5
2F4
 10
49197.081018
 20
13360.12528
 30
0.0
 11
49193.871238
 21
13359.55772
 31
0.0
  0
LINE
  8
1
  6
CONTINUOUS
 62
     4
  5
2F5
 10
49197.081018
 20
13363.1784
 30
0.0
 11
49193.871238
 21
13362.61077
 31
0.0
  0
LINE
  8
1
  6
CONTINUOUS
 62
     4
  5
2F6
 10
49193.476158
 20
13342.74267
 30
0.0
 11
49197.476098
 21
13343.44687
 31
0.0
  0
LINE
  8
1
  6
CONTINUOUS
 62
     4
  5
2F7
 10
49195.476198
 20
13332.608
 30
0.0
 11
49191.226078
 21
13332.608
 31
0.0
  0
LINE
  8
1
  6
CONTINUOUS
 62
     4
  5
2F8
 10
49193.476158
 20
13336.69614
 30
0.0
 11
49197.476098
 21
13337.40538
 31
0.0
  0
LINE
  8
1
  6
CONTINUOUS
 62
     4
  5
2F9
 10
49193.476158
 20
13339.70999
 30
0.0
 11
49197.476098
 21
13340.41923
 31
0.0
  0
LINE
  8
1
  6
CONTINUOUS
 62
     4
  5
2FA
 10
49197.081018
 20
13335.81771
 30
0.0
 11
49193.871238
 21
13335.25015
 31
0.0
  0
LINE
  8
1
  6
CONTINUOUS
 62
     4
  5
2FB
 10
49197.081018
 20
13338.83163
 30
0.0
 11
49193.871238
 21
13338.26407
 31
0.0
  0
LINE
  8
1
  6
CONTINUOUS
 62
     4
  5
2FC
 10
49197.081018
 20
13341.86522
 30
0.0
 11
49193.871238
 21
13341.29766
 31
0.0
  0
LINE
  8
1
  6
CONTINUOUS
 62
     4
  5
2FD
 10
49192.873178
 20
13332.608
 30
0.0
 11
49194.076198
 21
13333.81095
 31
0.0
  0
LINE
  8
1
  6
CONTINUOUS
 62
     4
  5
2FE
 10
49192.873178
 20
13332.608
 30
0.0
 11
49191.226078
 21
13332.608
 31
0.0
  0
LINE
  8
1
  6
CONTINUOUS
 62
     4
  5
2FF
 10
49198.079078
 20
13332.608
 30
0.0
 11
49196.876198
 21
13333.81095
 31
0.0
  0
LINE
  8
1
  6
CONTINUOUS
 62
     4
  5
300
 10
49198.079078
 20
13332.608
 30
0.0
 11
49199.726178
 21
13332.608
 31
0.0
  0
LINE
  8
1
  6
CONTINUOUS
 62
     4
  5
301
 10
49197.081018
 20
13334.29115
 30
0.0
 11
49193.871238
 21
13333.72366
 31
0.0
  0
LINE
  8
1
  6
CONTINUOUS
 62
     4
  5
302
 10
49194.869438
 20
13329.11696
 30
0.0
 11
49196.082818
 21
13329.11696
 31
0.0
  0
LINE
  8
1
  6
CONTINUOUS
 62
     4
  5
303
 10
49194.869438
 20
13328.60799
 30
0.0
 11
49194.869438
 21
13329.11696
 31
0.0
  0
LINE
  8
1
  6
CONTINUOUS
 62
     4
  5
304
 10
49196.082818
 20
13328.60799
 30
0.0
 11
49196.082818
 21
13329.11696
 31
0.0
  0
LINE
  8
1
  6
CONTINUOUS
 62
     4
  5
305
 10
49194.869438
 20
13328.60799
 30
0.0
 11
49196.082818
 21
13328.60799
 31
0.0
  0
LINE
  8
1
  6
CONTINUOUS
 62
     4
  5
306
 10
49193.476158
 20
13364.07629
 30
0.0
 11
49197.476098
 21
13364.78553
 31
0.0
  0
LINE
  8
1
  6
CONTINUOUS
 62
     4
  5
307
 10
49196.867378
 20
13367.73071
 30
0.0
 11
49193.982538
 21
13367.21915
 31
0.0
  0
LINE
  8
1
  6
CONTINUOUS
 62
     4
  5
308
 10
49197.081018
 20
13366.23145
 30
0.0
 11
49193.871238
 21
13365.66389
 31
0.0
  0
LINE
  8
1
  6
CONTINUOUS
 62
     4
  5
309
 10
49196.574638
 20
13369.19497
 30
0.0
 11
49194.297118
 21
13368.79233
 31
0.0
  0
LINE
  8
40
  6
CONTINUOUS
 62
     4
  5
30A
 10
49210.140218
 20
13338.60798
 30
0.0
 11
49210.140218
 21
13328.09244
 31
0.0
  0
LINE
  8
40
  6
CONTINUOUS
 62
     4
  5
30B
 10
49207.640238
 20
13325.9755
 30
0.0
 11
49207.640238
 21
13333.60802
 31
0.0
  0
LINE
  8
40
  6
CONTINUOUS
 62
     4
  5
30C
 10
49147.435198
 20
13319.60802
 30
0.0
 11
49182.966218
 21
13319.60802
 31
0.0
  0
LINE
  8
40
  6
CONTINUOUS
 62
     4
  5
30D
 10
49151.165218
 20
13318.608
 30
0.0
 11
49179.165218
 21
13318.608
 31
0.0
  0
LINE
  8
40
  6
CONTINUOUS
 62
     4
  5
30E
 10
49179.749578
 20
13317.60798
 30
0.0
 11
49150.649178
 21
13317.60798
 31
0.0
  0
LINE
  8
40
  6
CONTINUOUS
 62
     4
  5
30F
 10
49179.311238
 20
13316.60789
 30
0.0
 11
49151.046078
 21
13316.60789
 31
0.0
  0
LINE
  8
12
  6
CONTINUOUS
 62
     4
  5
310
 10
49188.552218
 20
13333.60802
 30
0.0
 11
49210.165278
 21
13333.60802
 31
0.0
  0
LINE
  8
12
  6
CONTINUOUS
 62
     4
  5
311
 10
49122.665278
 20
13326.00028
 30
0.0
 11
49122.665278
 21
13333.60802
 31
0.0
  0
LINE
  8
12
  6
CONTINUOUS
 62
     4
  5
312
 10
49143.514638
 20
13320.6198
 30
0.0
 11
49143.514638
 21
13320.59026
 31
0.0
  0
LINE
  8
12
  6
CONTINUOUS
 62
     4
  5
313
 10
49141.796698
 20
13321.06304
 30
0.0
 11
49141.796698
 21
13333.60802
 31
0.0
  0
LINE
  8
12
  6
CONTINUOUS
 62
     4
  5
314
 10
49143.508478
 20
13320.71528
 30
0.0
 11
49141.883778
 21
13333.7133
 31
0.0
  0
LINE
  8
12
  6
CONTINUOUS
 62
     4
  5
315
 10
49186.834418
 20
13320.51438
 30
0.0
 11
49186.834418
 21
13320.48491
 31
0.0
  0
LINE
  8
12
  6
CONTINUOUS
 62
     4
  5
316
 10
49188.552218
 20
13320.95769
 30
0.0
 11
49188.552218
 21
13333.50274
 31
0.0
  0
LINE
  8
12
  6
CONTINUOUS
 62
     4
  5
317
 10
49186.840578
 20
13320.61
 30
0.0
 11
49188.465278
 21
13333.60802
 31
0.0
  0
LINE
  8
12
  6
CONTINUOUS
 62
     4
  5
318
 10
49141.896938
 20
13333.60802
 30
0.0
 11
49122.665278
 21
13333.60802
 31
0.0
  0
LINE
  8
12
  6
CONTINUOUS
 62
     4
  5
319
 10
49141.896938
 20
13332.608
 30
0.0
 11
49122.665278
 21
13332.608
 31
0.0
  0
LINE
  8
12
  6
CONTINUOUS
 62
     4
  5
31A
 10
49188.552218
 20
13332.608
 30
0.0
 11
49210.165278
 21
13332.608
 31
0.0
  0
LINE
  8
12
  6
CONTINUOUS
 62
     4
  5
31B
 10
49139.104358
 20
13332.608
 30
0.0
 11
49130.604398
 21
13332.608
 31
0.0
  0
LINE
  8
12
  6
CONTINUOUS
 62
     4
  5
31C
 10
49130.604398
 20
13332.608
 30
0.0
 11
49130.604398
 21
13329.60801
 31
0.0
  0
LINE
  8
12
  6
CONTINUOUS
 62
     4
  5
31D
 10
49139.104358
 20
13332.608
 30
0.0
 11
49139.104358
 21
13329.60801
 31
0.0
  0
LINE
  8
12
  6
CONTINUOUS
 62
     4
  5
31E
 10
49139.104358
 20
13329.60801
 30
0.0
 11
49139.104358
 21
13332.608
 31
0.0
  0
LINE
  8
12
  6
CONTINUOUS
 62
     4
  5
31F
 10
49130.604398
 20
13329.60801
 30
0.0
 11
49130.604398
 21
13332.608
 31
0.0
  0
LINE
  8
12
  6
CONTINUOUS
 62
     4
  5
320
 10
49130.604398
 20
13329.60801
 30
0.0
 11
49139.104358
 21
13329.60801
 31
0.0
  0
ARC
  8
12
  6
CONTINUOUS
 62
     4
  5
321
 10
49134.854378
 20
13338.13926
 30
0.0
 40
9.53134
 50
243.51896
 51
296.48104
  0
LINE
  8
12
  6
CONTINUOUS
 62
     4
  5
322
 10
49136.254378
 20
13332.608
 30
0.0
 11
49136.254378
 21
13363.60799
 31
0.0
  0
LINE
  8
12
  6
CONTINUOUS
 62
     4
  5
323
 10
49133.454378
 20
13332.608
 30
0.0
 11
49133.454378
 21
13363.60799
 31
0.0
  0
LINE
  8
12
  6
CONTINUOUS
 62
     4
  5
324
 10
49136.254378
 20
13363.60799
 30
0.0
 11
49133.454378
 21
13363.60799
 31
0.0
  0
LINE
  8
12
  6
CONTINUOUS
 62
     4
  5
325
 10
49134.854378
 20
13370.60799
 30
0.0
 11
49133.454378
 21
13363.60799
 31
0.0
  0
LINE
  8
12
  6
CONTINUOUS
 62
     4
  5
326
 10
49134.854378
 20
13370.60799
 30
0.0
 11
49136.254378
 21
13363.60799
 31
0.0
  0
LINE
  8
12
  6
CENTER
 62
     4
  5
327
 10
49134.854378
 20
13329.60801
 30
0.0
 11
49134.854378
 21
13370.60799
 31
0.0
  0
LINE
  8
12
  6
CENTER
 62
     4
  5
328
 10
49134.854378
 20
13370.60799
 30
0.0
 11
49134.854378
 21
13331.10097
 31
0.0
  0
LINE
  8
12
  6
CONTINUOUS
 62
     4
  5
329
 10
49199.726178
 20
13332.608
 30
0.0
 11
49191.226078
 21
13332.608
 31
0.0
  0
LINE
  8
12
  6
CONTINUOUS
 62
     4
  5
32A
 10
49191.226078
 20
13332.608
 30
0.0
 11
49191.226078
 21
13329.60801
 31
0.0
  0
LINE
  8
12
  6
CONTINUOUS
 62
     4
  5
32B
 10
49199.726178
 20
13332.608
 30
0.0
 11
49199.726178
 21
13329.60801
 31
0.0
  0
LINE
  8
12
  6
CONTINUOUS
 62
     4
  5
32C
 10
49199.726178
 20
13329.60801
 30
0.0
 11
49199.726178
 21
13332.608
 31
0.0
  0
LINE
  8
12
  6
CONTINUOUS
 62
     4
  5
32D
 10
49191.226078
 20
13329.60801
 30
0.0
 11
49191.226078
 21
13332.608
 31
0.0
  0
LINE
  8
12
  6
CONTINUOUS
 62
     4
  5
32E
 10
49191.226078
 20
13329.60801
 30
0.0
 11
49199.726178
 21
13329.60801
 31
0.0
  0
ARC
  8
12
  6
CONTINUOUS
 62
     4
  5
32F
 10
49195.476198
 20
13338.13926
 30
0.0
 40
9.53134
 50
243.51896
 51
296.48104
  0
LINE
  8
12
  6
CONTINUOUS
 62
     4
  5
330
 10
49196.876198
 20
13332.608
 30
0.0
 11
49196.876198
 21
13363.60799
 31
0.0
  0
LINE
  8
12
  6
CONTINUOUS
 62
     4
  5
331
 10
49194.076198
 20
13332.608
 30
0.0
 11
49194.076198
 21
13363.60799
 31
0.0
  0
LINE
  8
12
  6
CONTINUOUS
 62
     4
  5
332
 10
49196.876198
 20
13363.60799
 30
0.0
 11
49194.076198
 21
13363.60799
 31
0.0
  0
LINE
  8
12
  6
CONTINUOUS
 62
     4
  5
333
 10
49195.476198
 20
13370.60799
 30
0.0
 11
49194.076198
 21
13363.60799
 31
0.0
  0
LINE
  8
12
  6
CONTINUOUS
 62
     4
  5
334
 10
49195.476198
 20
13370.60799
 30
0.0
 11
49196.876198
 21
13363.60799
 31
0.0
  0
LINE
  8
12
  6
CENTER
 62
     4
  5
335
 10
49195.476198
 20
13329.60801
 30
0.0
 11
49195.476198
 21
13370.60799
 31
0.0
  0
LINE
  8
12
  6
CENTER
 62
     4
  5
336
 10
49195.476198
 20
13370.60799
 30
0.0
 11
49195.476198
 21
13331.10097
 31
0.0
  0
LINE
  8
12
  6
CONTINUOUS
 62
     4
  5
337
 10
49140.562878
 20
13332.85524
 30
0.0
 11
49129.062858
 21
13332.85524
 31
0.0
  0
LINE
  8
12
  6
CONTINUOUS
 62
     4
  5
338
 10
49140.562878
 20
13333.65513
 30
0.0
 11
49129.062858
 21
13333.65513
 31
0.0
  0
LINE
  8
12
  6
CONTINUOUS
 62
     4
  5
339
 10
49140.562878
 20
13332.85524
 30
0.0
 11
49140.562878
 21
13333.65513
 31
0.0
  0
LINE
  8
12
  6
CONTINUOUS
 62
     4
  5
33A
 10
49137.562958
 20
13332.85524
 30
0.0
 11
49137.562958
 21
13333.65513
 31
0.0
  0
LINE
  8
12
  6
CONTINUOUS
 62
     4
  5
33B
 10
49132.062918
 20
13332.85524
 30
0.0
 11
49132.062918
 21
13333.65513
 31
0.0
  0
LINE
  8
12
  6
CONTINUOUS
 62
     4
  5
33C
 10
49129.062858
 20
13332.85524
 30
0.0
 11
49129.062858
 21
13333.65513
 31
0.0
  0
LINE
  8
12
  6
CONTINUOUS
 62
     4
  5
33D
 10
49201.181058
 20
13332.85524
 30
0.0
 11
49189.681038
 21
13332.85524
 31
0.0
  0
LINE
  8
12
  6
CONTINUOUS
 62
     4
  5
33E
 10
49201.181058
 20
13333.65513
 30
0.0
 11
49189.681038
 21
13333.65513
 31
0.0
  0
LINE
  8
12
  6
CONTINUOUS
 62
     4
  5
33F
 10
49201.181058
 20
13332.85524
 30
0.0
 11
49201.181058
 21
13333.65513
 31
0.0
  0
LINE
  8
12
  6
CONTINUOUS
 62
     4
  5
340
 10
49198.180998
 20
13332.85524
 30
0.0
 11
49198.180998
 21
13333.65513
 31
0.0
  0
LINE
  8
12
  6
CONTINUOUS
 62
     4
  5
341
 10
49192.680958
 20
13332.85524
 30
0.0
 11
49192.680958
 21
13333.65513
 31
0.0
  0
LINE
  8
12
  6
CONTINUOUS
 62
     4
  5
342
 10
49189.681038
 20
13332.85524
 30
0.0
 11
49189.681038
 21
13333.65513
 31
0.0
  0
ARC
  8
8
  6
CONTINUOUS
 62
     4
  5
343
 10
49147.197478
 20
13315.57203
 30
0.0
 40
4.00008
 50
0.0
 51
75.529706
  0
LINE
  8
50
  6
CENTER
 62
     4
  5
344
 10
49134.812938
 20
13332.85524
 30
0.0
 11
49134.812938
 21
13334.97722
 31
0.0
  0
LINE
  8
50
  6
CENTER
 62
     4
  5
345
 10
49195.430978
 20
13332.85524
 30
0.0
 11
49195.430978
 21
13334.97722
 31
0.0
  0
ARC
  8
8
  6
CONTINUOUS
 62
     4
  5
346
 10
49183.159698
 20
13315.52114
 30
0.0
 40
4.00008
 50
104.470294
 51
180.0
  0
LINE
  8
40
  6
CONTINUOUS
 62
     4
  5
347
 10
49151.165218
 20
13288.60775
 30
0.0
 11
49151.165218
 21
13311.192083
 31
0.0
  0
LINE
  8
40
  6
DOT
 62
     3
  5
348
 10
48726.898751
 20
13282.60791
 30
0.0
 11
48741.898771
 21
13282.60791
 31
0.0
  0
LINE
  8
40
  6
DOT
 62
     3
  5
349
 10
48726.898751
 20
13282.60791
 30
0.0
 11
48726.898751
 21
13288.60803
 31
0.0
  0
LINE
  8
40
  6
DOT
 62
     3
  5
34A
 10
48741.898771
 20
13282.60791
 30
0.0
 11
48741.898771
 21
13288.60803
 31
0.0
  0
LINE
  8
40
  6
CONTINUOUS
 62
     4
  5
34B
 10
48748.398691
 20
13288.60789
 30
0.0
 11
48748.398691
 21
13311.192223
 31
0.0
  0
LINE
  8
40
  6
CONTINUOUS
 62
     4
  5
34C
 10
48748.398691
 20
13288.60803
 30
0.0
 11
48720.398691
 21
13288.60803
 31
0.0
  0
LINE
  8
40
  6
CONTINUOUS
 62
     4
  5
34D
 10
48749.859591
 20
13318.60814
 30
0.0
 11
48719.037051
 21
13318.60814
 31
0.0
  0
LINE
  8
40
  6
CONTINUOUS
 62
     4
  5
34E
 10
48712.793611
 20
13320.60811
 30
0.0
 11
48756.074611
 21
13320.60811
 31
0.0
  0
LINE
  8
40
  6
CONTINUOUS
 62
     4
  5
34F
 10
48689.398771
 20
13338.60812
 30
0.0
 11
48689.398771
 21
13328.12121
 31
0.0
  0
LINE
  8
40
  6
CONTINUOUS
 62
     4
  5
350
 10
48779.398751
 20
13338.60812
 30
0.0
 11
48779.398751
 21
13328.09258
 31
0.0
  0
LINE
  8
40
  6
CONTINUOUS
 62
     4
  5
351
 10
48778.652691
 20
13326.60816
 30
0.0
 11
48690.188231
 21
13326.60816
 31
0.0
  0
ARC
  8
40
  6
CONTINUOUS
 62
     4
  5
352
 10
48691.398671
 20
13328.2239
 30
0.0
 40
2.00004
 50
180.0
 51
255.529705
  0
ARC
  8
40
  6
CONTINUOUS
 62
     4
  5
353
 10
48777.397031
 20
13328.18085
 30
0.0
 40
2.00004
 50
284.069648
 51
0.0
  0
LINE
  8
1
  6
CONTINUOUS
 62
     4
  5
354
 10
48702.087811
 20
13345.79418
 30
0.0
 11
48706.087891
 21
13346.48921
 31
0.0
  0
LINE
  8
1
  6
CONTINUOUS
 62
     4
  5
355
 10
48702.087811
 20
13348.8305
 30
0.0
 11
48706.087891
 21
13349.53974
 31
0.0
  0
LINE
  8
1
  6
CONTINUOUS
 62
     4
  5
356
 10
48702.087811
 20
13351.88362
 30
0.0
 11
48706.087891
 21
13352.59286
 31
0.0
  0
LINE
  8
1
  6
CONTINUOUS
 62
     4
  5
357
 10
48702.087811
 20
13354.93674
 30
0.0
 11
48706.087891
 21
13355.64591
 31
0.0
  0
LINE
  8
1
  6
CONTINUOUS
 62
     4
  5
358
 10
48702.087811
 20
13357.9872
 30
0.0
 11
48706.087891
 21
13358.68216
 31
0.0
  0
LINE
  8
1
  6
CONTINUOUS
 62
     4
  5
359
 10
48702.087811
 20
13361.02331
 30
0.0
 11
48706.087891
 21
13361.73255
 31
0.0
  0
LINE
  8
1
  6
CONTINUOUS
 62
     4
  5
35A
 10
48705.692671
 20
13344.89902
 30
0.0
 11
48702.483031
 21
13344.33139
 31
0.0
  0
LINE
  8
1
  6
CONTINUOUS
 62
     4
  5
35B
 10
48705.692671
 20
13347.93247
 30
0.0
 11
48702.483031
 21
13347.36491
 31
0.0
  0
LINE
  8
1
  6
CONTINUOUS
 62
     4
  5
35C
 10
48705.692671
 20
13350.98559
 30
0.0
 11
48702.483031
 21
13350.41803
 31
0.0
  0
LINE
  8
1
  6
CONTINUOUS
 62
     4
  5
35D
 10
48705.692671
 20
13354.03871
 30
0.0
 11
48702.483031
 21
13353.47122
 31
0.0
  0
LINE
  8
1
  6
CONTINUOUS
 62
     4
  5
35E
 10
48705.692671
 20
13357.0919
 30
0.0
 11
48702.483031
 21
13356.52434
 31
0.0
  0
LINE
  8
1
  6
CONTINUOUS
 62
     4
  5
35F
 10
48705.692671
 20
13360.12542
 30
0.0
 11
48702.483031
 21
13359.55786
 31
0.0
  0
LINE
  8
1
  6
CONTINUOUS
 62
     4
  5
360
 10
48705.692671
 20
13363.17854
 30
0.0
 11
48702.483031
 21
13362.61091
 31
0.0
  0
LINE
  8
1
  6
CONTINUOUS
 62
     4
  5
361
 10
48702.087811
 20
13342.74281
 30
0.0
 11
48706.087891
 21
13343.44701
 31
0.0
  0
LINE
  8
1
  6
CONTINUOUS
 62
     4
  5
362
 10
48704.087851
 20
13332.60814
 30
0.0
 11
48699.837871
 21
13332.60814
 31
0.0
  0
LINE
  8
1
  6
CONTINUOUS
 62
     4
  5
363
 10
48702.087811
 20
13336.69628
 30
0.0
 11
48706.087891
 21
13337.40552
 31
0.0
  0
LINE
  8
1
  6
CONTINUOUS
 62
     4
  5
364
 10
48702.087811
 20
13339.71013
 30
0.0
 11
48706.087891
 21
13340.41937
 31
0.0
  0
LINE
  8
1
  6
CONTINUOUS
 62
     4
  5
365
 10
48705.692671
 20
13335.81785
 30
0.0
 11
48702.483031
 21
13335.25029
 31
0.0
  0
LINE
  8
1
  6
CONTINUOUS
 62
     4
  5
366
 10
48705.692671
 20
13338.83177
 30
0.0
 11
48702.483031
 21
13338.26421
 31
0.0
  0
LINE
  8
1
  6
CONTINUOUS
 62
     4
  5
367
 10
48705.692671
 20
13341.86536
 30
0.0
 11
48702.483031
 21
13341.2978
 31
0.0
  0
LINE
  8
1
  6
CONTINUOUS
 62
     4
  5
368
 10
48701.484831
 20
13332.60814
 30
0.0
 11
48702.687851
 21
13333.81109
 31
0.0
  0
LINE
  8
1
  6
CONTINUOUS
 62
     4
  5
369
 10
48701.484831
 20
13332.60814
 30
0.0
 11
48699.837871
 21
13332.60814
 31
0.0
  0
LINE
  8
1
  6
CONTINUOUS
 62
     4
  5
36A
 10
48706.690871
 20
13332.60814
 30
0.0
 11
48705.487851
 21
13333.81109
 31
0.0
  0
LINE
  8
1
  6
CONTINUOUS
 62
     4
  5
36B
 10
48706.690871
 20
13332.60814
 30
0.0
 11
48708.337831
 21
13332.60814
 31
0.0
  0
LINE
  8
1
  6
CONTINUOUS
 62
     4
  5
36C
 10
48705.692671
 20
13334.29129
 30
0.0
 11
48702.483031
 21
13333.7238
 31
0.0
  0
LINE
  8
1
  6
CONTINUOUS
 62
     4
  5
36D
 10
48703.481091
 20
13329.1171
 30
0.0
 11
48704.694611
 21
13329.1171
 31
0.0
  0
LINE
  8
1
  6
CONTINUOUS
 62
     4
  5
36E
 10
48703.481091
 20
13328.60813
 30
0.0
 11
48703.481091
 21
13329.1171
 31
0.0
  0
LINE
  8
1
  6
CONTINUOUS
 62
     4
  5
36F
 10
48704.694611
 20
13328.60813
 30
0.0
 11
48704.694611
 21
13329.1171
 31
0.0
  0
LINE
  8
1
  6
CONTINUOUS
 62
     4
  5
370
 10
48703.481091
 20
13328.60813
 30
0.0
 11
48704.694611
 21
13328.60813
 31
0.0
  0
LINE
  8
1
  6
CONTINUOUS
 62
     4
  5
371
 10
48702.087811
 20
13364.07643
 30
0.0
 11
48706.087891
 21
13364.78567
 31
0.0
  0
LINE
  8
1
  6
CONTINUOUS
 62
     4
  5
372
 10
48705.479171
 20
13367.73085
 30
0.0
 11
48702.594191
 21
13367.21929
 31
0.0
  0
LINE
  8
1
  6
CONTINUOUS
 62
     4
  5
373
 10
48705.692671
 20
13366.23159
 30
0.0
 11
48702.483031
 21
13365.66403
 31
0.0
  0
LINE
  8
1
  6
CONTINUOUS
 62
     4
  5
374
 10
48705.186291
 20
13369.19511
 30
0.0
 11
48702.908911
 21
13368.79247
 31
0.0
  0
LINE
  8
1
  6
CONTINUOUS
 62
     4
  5
375
 10
48762.709631
 20
13345.79418
 30
0.0
 11
48766.709571
 21
13346.48921
 31
0.0
  0
LINE
  8
1
  6
CONTINUOUS
 62
     4
  5
376
 10
48762.709631
 20
13348.8305
 30
0.0
 11
48766.709571
 21
13349.53974
 31
0.0
  0
LINE
  8
1
  6
CONTINUOUS
 62
     4
  5
377
 10
48762.709631
 20
13351.88362
 30
0.0
 11
48766.709571
 21
13352.59286
 31
0.0
  0
LINE
  8
1
  6
CONTINUOUS
 62
     4
  5
378
 10
48762.709631
 20
13354.93674
 30
0.0
 11
48766.709571
 21
13355.64591
 31
0.0
  0
LINE
  8
1
  6
CONTINUOUS
 62
     4
  5
379
 10
48762.709631
 20
13357.9872
 30
0.0
 11
48766.709571
 21
13358.68216
 31
0.0
  0
LINE
  8
1
  6
CONTINUOUS
 62
     4
  5
37A
 10
48762.709631
 20
13361.02331
 30
0.0
 11
48766.709571
 21
13361.73255
 31
0.0
  0
LINE
  8
1
  6
CONTINUOUS
 62
     4
  5
37B
 10
48766.314491
 20
13344.89902
 30
0.0
 11
48763.104711
 21
13344.33139
 31
0.0
  0
LINE
  8
1
  6
CONTINUOUS
 62
     4
  5
37C
 10
48766.314491
 20
13347.93247
 30
0.0
 11
48763.104711
 21
13347.36491
 31
0.0
  0
LINE
  8
1
  6
CONTINUOUS
 62
     4
  5
37D
 10
48766.314491
 20
13350.98559
 30
0.0
 11
48763.104711
 21
13350.41803
 31
0.0
  0
LINE
  8
1
  6
CONTINUOUS
 62
     4
  5
37E
 10
48766.314491
 20
13354.03871
 30
0.0
 11
48763.104711
 21
13353.47122
 31
0.0
  0
LINE
  8
1
  6
CONTINUOUS
 62
     4
  5
37F
 10
48766.314491
 20
13357.0919
 30
0.0
 11
48763.104711
 21
13356.52434
 31
0.0
  0
LINE
  8
1
  6
CONTINUOUS
 62
     4
  5
380
 10
48766.314491
 20
13360.12542
 30
0.0
 11
48763.104711
 21
13359.55786
 31
0.0
  0
LINE
  8
1
  6
CONTINUOUS
 62
     4
  5
381
 10
48766.314491
 20
13363.17854
 30
0.0
 11
48763.104711
 21
13362.61091
 31
0.0
  0
LINE
  8
1
  6
CONTINUOUS
 62
     4
  5
382
 10
48762.709631
 20
13342.74281
 30
0.0
 11
48766.709571
 21
13343.44701
 31
0.0
  0
LINE
  8
1
  6
CONTINUOUS
 62
     4
  5
383
 10
48764.709671
 20
13332.60814
 30
0.0
 11
48760.459551
 21
13332.60814
 31
0.0
  0
LINE
  8
1
  6
CONTINUOUS
 62
     4
  5
384
 10
48762.709631
 20
13336.69628
 30
0.0
 11
48766.709571
 21
13337.40552
 31
0.0
  0
LINE
  8
1
  6
CONTINUOUS
 62
     4
  5
385
 10
48762.709631
 20
13339.71013
 30
0.0
 11
48766.709571
 21
13340.41937
 31
0.0
  0
LINE
  8
1
  6
CONTINUOUS
 62
     4
  5
386
 10
48766.314491
 20
13335.81785
 30
0.0
 11
48763.104711
 21
13335.25029
 31
0.0
  0
LINE
  8
1
  6
CONTINUOUS
 62
     4
  5
387
 10
48766.314491
 20
13338.83177
 30
0.0
 11
48763.104711
 21
13338.26421
 31
0.0
  0
LINE
  8
1
  6
CONTINUOUS
 62
     4
  5
388
 10
48766.314491
 20
13341.86536
 30
0.0
 11
48763.104711
 21
13341.2978
 31
0.0
  0
LINE
  8
1
  6
CONTINUOUS
 62
     4
  5
389
 10
48762.106651
 20
13332.60814
 30
0.0
 11
48763.309671
 21
13333.81109
 31
0.0
  0
LINE
  8
1
  6
CONTINUOUS
 62
     4
  5
38A
 10
48762.106651
 20
13332.60814
 30
0.0
 11
48760.459551
 21
13332.60814
 31
0.0
  0
LINE
  8
1
  6
CONTINUOUS
 62
     4
  5
38B
 10
48767.312551
 20
13332.60814
 30
0.0
 11
48766.109671
 21
13333.81109
 31
0.0
  0
LINE
  8
1
  6
CONTINUOUS
 62
     4
  5
38C
 10
48767.312551
 20
13332.60814
 30
0.0
 11
48768.959651
 21
13332.60814
 31
0.0
  0
LINE
  8
1
  6
CONTINUOUS
 62
     4
  5
38D
 10
48766.314491
 20
13334.29129
 30
0.0
 11
48763.104711
 21
13333.7238
 31
0.0
  0
LINE
  8
1
  6
CONTINUOUS
 62
     4
  5
38E
 10
48764.102911
 20
13329.1171
 30
0.0
 11
48765.316291
 21
13329.1171
 31
0.0
  0
LINE
  8
1
  6
CONTINUOUS
 62
     4
  5
38F
 10
48764.102911
 20
13328.60813
 30
0.0
 11
48764.102911
 21
13329.1171
 31
0.0
  0
LINE
  8
1
  6
CONTINUOUS
 62
     4
  5
390
 10
48765.316291
 20
13328.60813
 30
0.0
 11
48765.316291
 21
13329.1171
 31
0.0
  0
LINE
  8
1
  6
CONTINUOUS
 62
     4
  5
391
 10
48764.102911
 20
13328.60813
 30
0.0
 11
48765.316291
 21
13328.60813
 31
0.0
  0
LINE
  8
1
  6
CONTINUOUS
 62
     4
  5
392
 10
48762.709631
 20
13364.07643
 30
0.0
 11
48766.709571
 21
13364.78567
 31
0.0
  0
LINE
  8
1
  6
CONTINUOUS
 62
     4
  5
393
 10
48766.100851
 20
13367.73085
 30
0.0
 11
48763.216011
 21
13367.21929
 31
0.0
  0
LINE
  8
1
  6
CONTINUOUS
 62
     4
  5
394
 10
48766.314491
 20
13366.23159
 30
0.0
 11
48763.104711
 21
13365.66403
 31
0.0
  0
LINE
  8
1
  6
CONTINUOUS
 62
     4
  5
395
 10
48765.808111
 20
13369.19511
 30
0.0
 11
48763.530591
 21
13368.79247
 31
0.0
  0
LINE
  8
40
  6
CONTINUOUS
 62
     4
  5
396
 10
48779.373691
 20
13338.60812
 30
0.0
 11
48779.373691
 21
13328.09258
 31
0.0
  0
LINE
  8
40
  6
CONTINUOUS
 62
     4
  5
397
 10
48776.873711
 20
13325.97564
 30
0.0
 11
48776.873711
 21
13333.60816
 31
0.0
  0
LINE
  8
40
  6
CONTINUOUS
 62
     4
  5
398
 10
48716.668671
 20
13319.60816
 30
0.0
 11
48752.199691
 21
13319.60816
 31
0.0
  0
LINE
  8
40
  6
CONTINUOUS
 62
     4
  5
399
 10
48720.398691
 20
13318.60814
 30
0.0
 11
48748.398691
 21
13318.60814
 31
0.0
  0
LINE
  8
40
  6
CONTINUOUS
 62
     4
  5
39A
 10
48748.983051
 20
13317.60812
 30
0.0
 11
48719.882651
 21
13317.60812
 31
0.0
  0
LINE
  8
40
  6
CONTINUOUS
 62
     4
  5
39B
 10
48748.544711
 20
13316.60803
 30
0.0
 11
48720.279551
 21
13316.60803
 31
0.0
  0
LINE
  8
12
  6
CONTINUOUS
 62
     4
  5
39C
 10
48757.785691
 20
13333.60816
 30
0.0
 11
48779.398751
 21
13333.60816
 31
0.0
  0
LINE
  8
12
  6
CONTINUOUS
 62
     4
  5
39D
 10
48691.898751
 20
13326.00042
 30
0.0
 11
48691.898751
 21
13333.60816
 31
0.0
  0
LINE
  8
12
  6
CONTINUOUS
 62
     4
  5
39E
 10
48712.748111
 20
13320.61994
 30
0.0
 11
48712.748111
 21
13320.5904
 31
0.0
  0
LINE
  8
12
  6
CONTINUOUS
 62
     4
  5
39F
 10
48711.030171
 20
13321.06318
 30
0.0
 11
48711.030171
 21
13333.60816
 31
0.0
  0
LINE
  8
12
  6
CONTINUOUS
 62
     4
  5
3A0
 10
48712.741951
 20
13320.71542
 30
0.0
 11
48711.117251
 21
13333.71344
 31
0.0
  0
LINE
  8
12
  6
CONTINUOUS
 62
     4
  5
3A1
 10
48756.067891
 20
13320.51452
 30
0.0
 11
48756.067891
 21
13320.48505
 31
0.0
  0
LINE
  8
12
  6
CONTINUOUS
 62
     4
  5
3A2
 10
48757.785691
 20
13320.95783
 30
0.0
 11
48757.785691
 21
13333.50288
 31
0.0
  0
LINE
  8
12
  6
CONTINUOUS
 62
     4
  5
3A3
 10
48756.074051
 20
13320.61014
 30
0.0
 11
48757.698751
 21
13333.60816
 31
0.0
  0
LINE
  8
12
  6
CONTINUOUS
 62
     4
  5
3A4
 10
48711.130411
 20
13333.60816
 30
0.0
 11
48691.898751
 21
13333.60816
 31
0.0
  0
LINE
  8
12
  6
CONTINUOUS
 62
     4
  5
3A5
 10
48711.130411
 20
13332.60814
 30
0.0
 11
48691.898751
 21
13332.60814
 31
0.0
  0
LINE
  8
12
  6
CONTINUOUS
 62
     4
  5
3A6
 10
48757.785691
 20
13332.60814
 30
0.0
 11
48779.398751
 21
13332.60814
 31
0.0
  0
LINE
  8
12
  6
CONTINUOUS
 62
     4
  5
3A7
 10
48708.337831
 20
13332.60814
 30
0.0
 11
48699.837871
 21
13332.60814
 31
0.0
  0
LINE
  8
12
  6
CONTINUOUS
 62
     4
  5
3A8
 10
48699.837871
 20
13332.60814
 30
0.0
 11
48699.837871
 21
13329.60815
 31
0.0
  0
LINE
  8
12
  6
CONTINUOUS
 62
     4
  5
3A9
 10
48708.337831
 20
13332.60814
 30
0.0
 11
48708.337831
 21
13329.60815
 31
0.0
  0
LINE
  8
12
  6
CONTINUOUS
 62
     4
  5
3AA
 10
48708.337831
 20
13329.60815
 30
0.0
 11
48708.337831
 21
13332.60814
 31
0.0
  0
LINE
  8
12
  6
CONTINUOUS
 62
     4
  5
3AB
 10
48699.837871
 20
13329.60815
 30
0.0
 11
48699.837871
 21
13332.60814
 31
0.0
  0
LINE
  8
12
  6
CONTINUOUS
 62
     4
  5
3AC
 10
48699.837871
 20
13329.60815
 30
0.0
 11
48708.337831
 21
13329.60815
 31
0.0
  0
ARC
  8
12
  6
CONTINUOUS
 62
     4
  5
3AD
 10
48704.087851
 20
13338.1394
 30
0.0
 40
9.53134
 50
243.51896
 51
296.48104
  0
LINE
  8
12
  6
CONTINUOUS
 62
     4
  5
3AE
 10
48705.487851
 20
13332.60814
 30
0.0
 11
48705.487851
 21
13363.60813
 31
0.0
  0
LINE
  8
12
  6
CONTINUOUS
 62
     4
  5
3AF
 10
48702.687851
 20
13332.60814
 30
0.0
 11
48702.687851
 21
13363.60813
 31
0.0
  0
LINE
  8
12
  6
CONTINUOUS
 62
     4
  5
3B0
 10
48705.487851
 20
13363.60813
 30
0.0
 11
48702.687851
 21
13363.60813
 31
0.0
  0
LINE
  8
12
  6
CONTINUOUS
 62
     4
  5
3B1
 10
48704.087851
 20
13370.60813
 30
0.0
 11
48702.687851
 21
13363.60813
 31
0.0
  0
LINE
  8
12
  6
CONTINUOUS
 62
     4
  5
3B2
 10
48704.087851
 20
13370.60813
 30
0.0
 11
48705.487851
 21
13363.60813
 31
0.0
  0
LINE
  8
12
  6
CENTER
 62
     4
  5
3B3
 10
48704.087851
 20
13329.60815
 30
0.0
 11
48704.087851
 21
13370.60813
 31
0.0
  0
LINE
  8
12
  6
CENTER
 62
     4
  5
3B4
 10
48704.087851
 20
13370.60813
 30
0.0
 11
48704.087851
 21
13331.10111
 31
0.0
  0
LINE
  8
12
  6
CONTINUOUS
 62
     4
  5
3B5
 10
48768.959651
 20
13332.60814
 30
0.0
 11
48760.459551
 21
13332.60814
 31
0.0
  0
LINE
  8
12
  6
CONTINUOUS
 62
     4
  5
3B6
 10
48760.459551
 20
13332.60814
 30
0.0
 11
48760.459551
 21
13329.60815
 31
0.0
  0
LINE
  8
12
  6
CONTINUOUS
 62
     4
  5
3B7
 10
48768.959651
 20
13332.60814
 30
0.0
 11
48768.959651
 21
13329.60815
 31
0.0
  0
LINE
  8
12
  6
CONTINUOUS
 62
     4
  5
3B8
 10
48768.959651
 20
13329.60815
 30
0.0
 11
48768.959651
 21
13332.60814
 31
0.0
  0
LINE
  8
12
  6
CONTINUOUS
 62
     4
  5
3B9
 10
48760.459551
 20
13329.60815
 30
0.0
 11
48760.459551
 21
13332.60814
 31
0.0
  0
LINE
  8
12
  6
CONTINUOUS
 62
     4
  5
3BA
 10
48760.459551
 20
13329.60815
 30
0.0
 11
48768.959651
 21
13329.60815
 31
0.0
  0
ARC
  8
12
  6
CONTINUOUS
 62
     4
  5
3BB
 10
48764.709671
 20
13338.1394
 30
0.0
 40
9.53134
 50
243.51896
 51
296.48104
  0
LINE
  8
12
  6
CONTINUOUS
 62
     4
  5
3BC
 10
48766.109671
 20
13332.60814
 30
0.0
 11
48766.109671
 21
13363.60813
 31
0.0
  0
LINE
  8
12
  6
CONTINUOUS
 62
     4
  5
3BD
 10
48763.309671
 20
13332.60814
 30
0.0
 11
48763.309671
 21
13363.60813
 31
0.0
  0
LINE
  8
12
  6
CONTINUOUS
 62
     4
  5
3BE
 10
48766.109671
 20
13363.60813
 30
0.0
 11
48763.309671
 21
13363.60813
 31
0.0
  0
LINE
  8
12
  6
CONTINUOUS
 62
     4
  5
3BF
 10
48764.709671
 20
13370.60813
 30
0.0
 11
48763.309671
 21
13363.60813
 31
0.0
  0
LINE
  8
12
  6
CONTINUOUS
 62
     4
  5
3C0
 10
48764.709671
 20
13370.60813
 30
0.0
 11
48766.109671
 21
13363.60813
 31
0.0
  0
LINE
  8
12
  6
CENTER
 62
     4
  5
3C1
 10
48764.709671
 20
13329.60815
 30
0.0
 11
48764.709671
 21
13370.60813
 31
0.0
  0
LINE
  8
12
  6
CENTER
 62
     4
  5
3C2
 10
48764.709671
 20
13370.60813
 30
0.0
 11
48764.709671
 21
13331.10111
 31
0.0
  0
LINE
  8
12
  6
CONTINUOUS
 62
     4
  5
3C3
 10
48709.796351
 20
13332.85538
 30
0.0
 11
48698.296331
 21
13332.85538
 31
0.0
  0
LINE
  8
12
  6
CONTINUOUS
 62
     4
  5
3C4
 10
48709.796351
 20
13333.65527
 30
0.0
 11
48698.296331
 21
13333.65527
 31
0.0
  0
LINE
  8
12
  6
CONTINUOUS
 62
     4
  5
3C5
 10
48709.796351
 20
13332.85538
 30
0.0
 11
48709.796351
 21
13333.65527
 31
0.0
  0
LINE
  8
12
  6
CONTINUOUS
 62
     4
  5
3C6
 10
48706.796431
 20
13332.85538
 30
0.0
 11
48706.796431
 21
13333.65527
 31
0.0
  0
LINE
  8
12
  6
CONTINUOUS
 62
     4
  5
3C7
 10
48701.296391
 20
13332.85538
 30
0.0
 11
48701.296391
 21
13333.65527
 31
0.0
  0
LINE
  8
12
  6
CONTINUOUS
 62
     4
  5
3C8
 10
48698.296331
 20
13332.85538
 30
0.0
 11
48698.296331
 21
13333.65527
 31
0.0
  0
LINE
  8
12
  6
CONTINUOUS
 62
     4
  5
3C9
 10
48770.414531
 20
13332.85538
 30
0.0
 11
48758.914511
 21
13332.85538
 31
0.0
  0
LINE
  8
12
  6
CONTINUOUS
 62
     4
  5
3CA
 10
48770.414531
 20
13333.65527
 30
0.0
 11
48758.914511
 21
13333.65527
 31
0.0
  0
LINE
  8
12
  6
CONTINUOUS
 62
     4
  5
3CB
 10
48770.414531
 20
13332.85538
 30
0.0
 11
48770.414531
 21
13333.65527
 31
0.0
  0
LINE
  8
12
  6
CONTINUOUS
 62
     4
  5
3CC
 10
48767.414471
 20
13332.85538
 30
0.0
 11
48767.414471
 21
13333.65527
 31
0.0
  0
LINE
  8
12
  6
CONTINUOUS
 62
     4
  5
3CD
 10
48761.914431
 20
13332.85538
 30
0.0
 11
48761.914431
 21
13333.65527
 31
0.0
  0
LINE
  8
12
  6
CONTINUOUS
 62
     4
  5
3CE
 10
48758.914511
 20
13332.85538
 30
0.0
 11
48758.914511
 21
13333.65527
 31
0.0
  0
LINE
  8
8
  6
CONTINUOUS
 62
     4
  5
3CF
 10
48751.399171
 20
13319.40152
 30
0.0
 11
48777.894731
 21
13326.23905
 31
0.0
  0
LINE
  8
8
  6
CONTINUOUS
 62
     4
  5
3D0
 10
48717.586931
 20
13319.37107
 30
0.0
 11
48690.855891
 21
13326.26943
 31
0.0
  0
ARC
  8
8
  6
CONTINUOUS
 62
     4
  5
3D1
 10
48716.430951
 20
13315.57217
 30
0.0
 40
4.00008
 50
0.0
 51
75.529706
  0
LINE
  8
50
  6
CENTER
 62
     4
  5
3D2
 10
48704.046411
 20
13332.85538
 30
0.0
 11
48704.046411
 21
13334.97736
 31
0.0
  0
LINE
  8
50
  6
CENTER
 62
     4
  5
3D3
 10
48764.664451
 20
13332.85538
 30
0.0
 11
48764.664451
 21
13334.97736
 31
0.0
  0
ARC
  8
8
  6
CONTINUOUS
 62
     4
  5
3D4
 10
48752.393171
 20
13315.52128
 30
0.0
 40
4.00008
 50
104.470294
 51
180.0
  0
LINE
  8
40
  6
CONTINUOUS
 62
     4
  5
3D5
 10
48720.398691
 20
13288.60789
 30
0.0
 11
48720.398691
 21
13311.192223
 31
0.0
  0
LINE
  8
8
  6
CONTINUOUS
 62
     4
  5
3D6
 10
48710.381955
 20
13288.60789
 30
0.0
 11
49189.181955
 21
13288.60789
 31
0.0
  0
LINE
  8
8
  6
CONTINUOUS
 62
     4
  5
3D7
 10
49189.181955
 20
13273.582786
 30
0.0
 11
49189.181955
 21
13288.60789
 31
0.0
  0
ARC
  8
8
  6
CONTINUOUS
 62
     4
  5
3D8
 10
49179.165218
 20
13273.582786
 30
0.0
 40
10.016736
 50
270.0
 51
0.0
  0
LINE
  8
8
  6
CONTINUOUS
 62
     4
  5
3D9
 10
48720.398691
 20
13263.566049
 30
0.0
 11
49179.165218
 21
13263.566049
 31
0.0
  0
ARC
  8
8
  6
CONTINUOUS
 62
     4
  5
3DA
 10
48720.398691
 20
13273.582786
 30
0.0
 40
10.016736
 50
180.0
 51
270.0
  0
LINE
  8
8
  6
CONTINUOUS
 62
     4
  5
3DB
 10
48710.381955
 20
13273.582786
 30
0.0
 11
48710.381955
 21
13288.60789
 31
0.0
  0
ARC
  8
40
  6
CONTINUOUS
 62
     4
  5
3DC
 10
49122.165198
 20
13328.22376
 30
0.0
 40
2.00004
 50
180.0
 51
255.529705
  0
LINE
  8
8
  6
CONTINUOUS
 62
     4
  5
3DD
 10
49148.353458
 20
13319.37093
 30
0.0
 11
49121.622418
 21
13326.26929
 31
0.0
  0
LINE
  8
8
  6
CONTINUOUS
 62
     4
  5
3DE
 10
49182.165698
 20
13319.40138
 30
0.0
 11
49208.661258
 21
13326.23891
 31
0.0
  0
ARC
  8
40
  6
CONTINUOUS
 62
     4
  5
3DF
 10
49208.163558
 20
13328.18071
 30
0.0
 40
2.00004
 50
284.069648
 51
0.0
  0
TEXT
  8
5
  6
CONTINUOUS
 62
     3
  5
3E0
 10
48725.46639
 20
13038.566049
 30
0.0
 40
90.0
  1
テスリックス
 41
0.837
  7

 72
     5
 11
49265.46639
 21
13038.566049
 31
0.0
  0
LINE
  8
5
  6
CONTINUOUS
 62
     3
  5
3E1
 10
48780.370201
 20
13263.566049
 30
0.0
 11
48650.46639
 21
13038.566049
 31
0.0
  0
LINE
  8
5
  6
CONTINUOUS
 62
     3
  5
3E2
 10
48650.46639
 20
13038.566049
 30
0.0
 11
49265.46639
 21
13038.566049
 31
0.0
  0
LINE
  8
3
  6
CONTINUOUS
 62
     5
  5
3E3
 10
49959.839612
 20
11662.60619
 30
0.0
 11
47973.839612
 21
11662.60619
 31
0.0
  0
LINE
  8
3
  6
CONTINUOUS
 62
     5
  5
3E4
 10
49959.839612
 20
12448.60619
 30
0.0
 11
49959.839612
 21
11662.60619
 31
0.0
  0
LINE
  8
3
  6
CONTINUOUS
 62
     5
  5
3E5
 10
47973.839612
 20
11662.60619
 30
0.0
 11
47973.839612
 21
11855.60619
 31
0.0
  0
LINE
  8
3
  6
CONTINUOUS
 62
     5
  5
3E6
 10
50103.839612
 20
12448.60619
 30
0.0
 11
50103.839612
 21
11518.60619
 31
0.0
  0
LINE
  8
3
  6
CONTINUOUS
 62
     5
  5
3E7
 10
50103.839612
 20
11518.60619
 30
0.0
 11
47839.839612
 21
11518.60619
 31
0.0
  0
LINE
  8
3
  6
CONTINUOUS
 62
     5
  5
3E8
 10
47839.839612
 20
11880.60619
 30
0.0
 11
47839.839612
 21
11518.60619
 31
0.0
  0
LINE
  8
3
  6
CONTINUOUS
 62
     5
  5
3E9
 10
50103.839612
 20
13340.60619
 30
0.0
 11
50103.839612
 21
13472.60619
 31
0.0
  0
LINE
  8
3
  6
CONTINUOUS
 62
     5
  5
3EA
 10
50103.839612
 20
13472.60619
 30
0.0
 11
47839.839612
 21
13472.60619
 31
0.0
  0
LINE
  8
3
  6
CONTINUOUS
 62
     5
  5
3EB
 10
47839.839612
 20
13120.60619
 30
0.0
 11
47839.839612
 21
13472.60619
 31
0.0
  0
LINE
  8
3
  6
CONTINUOUS
 62
     5
  5
3EC
 10
47973.839612
 20
13338.60619
 30
0.0
 11
47973.839612
 21
13145.60619
 31
0.0
  0
LINE
  8
3
  6
CONTINUOUS
 62
     5
  5
3ED
 10
47973.839612
 20
13338.60619
 30
0.0
 11
49959.839612
 21
13338.60619
 31
0.0
  0
LINE
  8
7
  6
CONTINUOUS
 62
     5
  5
3EE
 10
47851.839612
 20
13120.60619
 30
0.0
 11
47851.839612
 21
13145.60619
 31
0.0
  0
LINE
  8
7
  6
CONTINUOUS
 62
     5
  5
3EF
 10
47851.839612
 20
13145.60619
 30
0.0
 11
47973.839612
 21
13145.60619
 31
0.0
  0
LINE
  8
5
  6
CONTINUOUS
 62
     5
  5
3F0
 10
47839.839612
 20
13120.60619
 30
0.0
 11
47851.839612
 21
13120.60619
 31
0.0
  0
LINE
  8
4
  6
CONTINUOUS
 62
     5
  5
3F1
 10
50076.839612
 20
13348.60619
 30
0.0
 11
50066.839612
 21
13348.60619
 31
0.0
  0
LINE
  8
4
  6
CONTINUOUS
 62
     5
  5
3F2
 10
50066.839612
 20
13348.60619
 30
0.0
 11
50066.839612
 21
13360.60619
 31
0.0
  0
LINE
  8
4
  6
CONTINUOUS
 62
     5
  5
3F3
 10
49986.839612
 20
13348.60619
 30
0.0
 11
49996.839612
 21
13348.60619
 31
0.0
  0
LINE
  8
4
  6
CONTINUOUS
 62
     5
  5
3F4
 10
49996.839612
 20
13348.60619
 30
0.0
 11
49996.839612
 21
13360.60619
 31
0.0
  0
LINE
  8
4
  6
CONTINUOUS
 62
     5
  5
3F5
 10
49996.839612
 20
13360.60619
 30
0.0
 11
50066.839612
 21
13360.60619
 31
0.0
  0
LINE
  8
4
  6
CONTINUOUS
 62
     5
  5
3F6
 10
50103.839612
 20
13340.60619
 30
0.0
 11
50076.839612
 21
13340.60619
 31
0.0
  0
LINE
  8
4
  6
CONTINUOUS
 62
     5
  5
3F7
 10
49959.839612
 20
13340.60619
 30
0.0
 11
49986.839612
 21
13340.60619
 31
0.0
  0
LINE
  8
4
  6
CONTINUOUS
 62
     5
  5
3F8
 10
49986.839612
 20
12448.60619
 30
0.0
 11
49986.839612
 21
12423.60619
 31
0.0
  0
LINE
  8
4
  6
CONTINUOUS
 62
     5
  5
3F9
 10
49986.839612
 20
12448.60619
 30
0.0
 11
49959.839612
 21
12448.60619
 31
0.0
  0
LINE
  8
4
  6
CONTINUOUS
 62
     5
  5
3FA
 10
50076.839612
 20
12448.60619
 30
0.0
 11
50076.839612
 21
12423.60619
 31
0.0
  0
LINE
  8
4
  6
CONTINUOUS
 62
     5
  5
3FB
 10
50076.839612
 20
12448.60619
 30
0.0
 11
50103.839612
 21
12448.60619
 31
0.0
  0
LINE
  8
4
  6
CONTINUOUS
 62
     5
  5
3FC
 10
50076.839612
 20
12423.60619
 30
0.0
 11
50051.839612
 21
12423.60619
 31
0.0
  0
LINE
  8
4
  6
CONTINUOUS
 62
     5
  5
3FD
 10
49986.839612
 20
12423.60619
 30
0.0
 11
50011.839612
 21
12423.60619
 31
0.0
  0
LINE
  8
7
  6
CONTINUOUS
 62
     5
  5
3FE
 10
50011.839612
 20
12423.60619
 30
0.0
 11
50011.839612
 21
11665.60619
 31
0.0
  0
LINE
  8
7
  6
CONTINUOUS
 62
     5
  5
3FF
 10
50051.839612
 20
12423.60619
 30
0.0
 11
50051.839612
 21
11665.60619
 31
0.0
  0
LINE
  8
5
  6
CONTINUOUS
 62
     5
  5
400
 10
50011.839612
 20
11665.60619
 30
0.0
 11
50051.839612
 21
11665.60619
 31
0.0
  0
LINE
  8
7
  6
CONTINUOUS
 62
     5
  5
401
 10
47851.839612
 20
11855.60619
 30
0.0
 11
47973.839612
 21
11855.60619
 31
0.0
  0
LINE
  8
7
  6
CONTINUOUS
 62
     5
  5
402
 10
47851.839612
 20
11880.60619
 30
0.0
 11
47851.839612
 21
11855.60619
 31
0.0
  0
LINE
  8
5
  6
CONTINUOUS
 62
     5
  5
403
 10
47839.839612
 20
11880.60619
 30
0.0
 11
47851.839612
 21
11880.60619
 31
0.0
  0
LINE
  8
14
  6
CONTINUOUS
 62
     6
  5
404
 10
48375.839612
 20
9116.065247
 30
0.0
 11
48779.839612
 21
9003.065247
 31
0.0
  0
LINE
  8
14
  6
CONTINUOUS
 62
     6
  5
405
 10
48829.839612
 20
8925.065247
 30
0.0
 11
48727.839612
 21
8848.065247
 31
0.0
  0
LINE
  8
14
  6
CONTINUOUS
 62
     6
  5
406
 10
48829.839612
 20
8925.065247
 30
0.0
 11
48829.839612
 21
8953.065247
 31
0.0
  0
ARC
  8
14
  6
CONTINUOUS
 62
     6
  5
407
 10
48779.839612
 20
8953.065247
 30
0.0
 40
50.0
 50
0.0
 51
90.0
  0
ARC
  8
14
  6
CONTINUOUS
 62
     6
  5
408
 10
48774.839612
 20
8696.065247
 30
0.0
 40
160.0
 50
107.2
 51
155.34
  0
LINE
  8
14
  6
CONTINUOUS
 62
     6
  5
409
 10
48629.839612
 20
8648.065247
 30
0.0
 11
48629.839612
 21
8763.065247
 31
0.0
  0
LINE
  8
14
  6
CONTINUOUS
 62
     6
  5
40A
 10
48091.839612
 20
8804.065247
 30
0.0
 11
48091.839612
 21
8646.065247
 31
0.0
  0
LINE
  8
14
  6
CONTINUOUS
 62
     6
  5
40B
 10
48003.839612
 20
8873.065247
 30
0.0
 11
48091.839612
 21
8804.065247
 31
0.0
  0
LINE
  8
14
  6
CONTINUOUS
 62
     6
  5
40C
 10
48829.839612
 20
8973.065247
 30
0.0
 11
48003.839612
 21
9028.065247
 31
0.0
  0
LINE
  8
14
  6
CONTINUOUS
 62
     6
  5
40D
 10
48328.839612
 20
9143.065247
 30
0.0
 11
48330.839612
 21
9141.065247
 31
0.0
  0
ARC
  8
14
  6
CONTINUOUS
 62
     6
  5
40E
 10
48342.839612
 20
9107.065247
 30
0.0
 40
40.0
 50
113.01
 51
180.13
  0
ARC
  8
14
  6
CONTINUOUS
 62
     6
  5
40F
 10
48536.839612
 20
9418.065247
 30
0.0
 40
389.0
 50
233.07
 51
254.48
  0
LINE
  8
14
  6
CONTINUOUS
 62
     6
  5
410
 10
48432.839612
 20
9044.065247
 30
0.0
 11
48633.839612
 21
8990.065247
 31
0.0
  0
ARC
  8
14
  6
CONTINUOUS
 62
     6
  5
411
 10
48817.839612
 20
8284.065247
 30
0.0
 40
641.0
 50
88.9
 51
145.42
  0
LINE
  8
14
  6
CONTINUOUS
 62
     6
  5
412
 10
48037.839612
 20
8849.065247
 30
0.0
 11
48037.839612
 21
9073.065247
 31
0.0
  0
LINE
  8
14
  6
CONTINUOUS
 62
     6
  5
413
 10
48058.839612
 20
8828.065247
 30
0.0
 11
48058.839612
 21
9076.065247
 31
0.0
  0
CIRCLE
  8
14
  6
CONTINUOUS
 62
     6
  5
414
 10
48048.839612
 20
9078.065247
 30
0.0
 40
15.0
  0
LINE
  8
14
  6
CONTINUOUS
 62
     6
  5
415
 10
48037.839612
 20
8849.065247
 30
0.0
 11
47973.839612
 21
8849.065247
 31
0.0
  0
LINE
  8
14
  6
CONTINUOUS
 62
     6
  5
416
 10
48058.839612
 20
8828.065247
 30
0.0
 11
47973.839612
 21
8828.065247
 31
0.0
  0
LINE
  8
7
  6
CONTINUOUS
 62
     2
  5
417
 10
49979.839612
 20
8708.065247
 30
0.0
 11
48629.839612
 21
8708.065247
 31
0.0
  0
LINE
  8
7
  6
CONTINUOUS
 62
     2
  5
418
 10
47973.839612
 20
8708.065247
 30
0.0
 11
48091.839612
 21
8708.065247
 31
0.0
  0
TEXT
  8
8
  6
CONTINUOUS
 62
     2
  5
419
 10
50059.988936
 20
12770.327238
 30
0.0
 40
90.0
  1
引戸
 50
360.0
 41
0.837
  7

 72
     5
 11
50239.988936
 21
12770.327238
 31
0.0
  0
ENDSEC
  0
EOF
