  0
SECTION
  2
HEADER
  9
$ACADVER
  1
AC1009
  9
$INSBASE
 10
0.0
 20
0.0
 30
0.0
  9
$EXTMIN
 10
560.308024
 20
1089.8978
 30
0.0
  9
$EXTMAX
 10
5797.808097
 20
7916.434747
 30
0.0
  9
$LIMMIN
 10
0.0
 20
0.0
  9
$LIMMAX
 10
6300.0
 20
8910.0
  9
$ORTHOMODE
 70
     0
  9
$REGENMODE
 70
     1
  9
$FILLMODE
 70
     1
  9
$QTEXTMODE
 70
     0
  9
$MIRRTEXT
 70
     1
  9
$DRAGMODE
 70
     2
  9
$LTSCALE
 40
30.0
  9
$OSMODE
 70
     0
  9
$ATTMODE
 70
     1
  9
$TEXTSIZE
 40
0.2
  9
$TRACEWID
 40
0.05
  9
$TEXTSTYLE
  7
STANDARD
  9
$CLAYER
  8
0
  9
$CELTYPE
  6
CONTINUOUS
  9
$CECOLOR
 62
   256
  9
$DIMSCALE
 40
1.0
  9
$DIMASZ
 40
0.18
  9
$DIMEXO
 40
0.0625
  9
$DIMDLI
 40
0.38
  9
$DIMRND
 40
0.0
  9
$DIMDLE
 40
0.0
  9
$DIMEXE
 40
0.18
  9
$DIMTP
 40
0.0
  9
$DIMTM
 40
0.0
  9
$DIMTXT
 40
0.18
  9
$DIMCEN
 40
0.09
  9
$DIMTSZ
 40
0.0
  9
$DIMTOL
 70
     0
  9
$DIMLIM
 70
     0
  9
$DIMTIH
 70
     1
  9
$DIMTOH
 70
     1
  9
$DIMSE1
 70
     0
  9
$DIMSE2
 70
     0
  9
$DIMTAD
 70
     0
  9
$DIMZIN
 70
     0
  9
$DIMBLK
  1

  9
$DIMASO
 70
     1
  9
$DIMSHO
 70
     1
  9
$DIMPOST
  1

  9
$DIMAPOST
  1

  9
$DIMALT
 70
     0
  9
$DIMALTD
 70
     2
  9
$DIMALTF
 40
25.4
  9
$DIMLFAC
 40
1.0
  9
$DIMTOFL
 70
     0
  9
$DIMTVP
 40
0.0
  9
$DIMTIX
 70
     0
  9
$DIMSOXD
 70
     0
  9
$DIMSAH
 70
     0
  9
$DIMBLK1
  1

  9
$DIMBLK2
  1

  9
$DIMSTYLE
  2
STANDARD
  9
$DIMCLRD
 70
     0
  9
$DIMCLRE
 70
     0
  9
$DIMCLRT
 70
     0
  9
$DIMTFAC
 40
1.0
  9
$DIMGAP
 40
0.09
  9
$LUNITS
 70
     2
  9
$LUPREC
 70
     4
  9
$AXISMODE
 70
     0
  9
$AXISUNIT
 10
0.0
 20
0.0
  9
$SKETCHINC
 40
0.1
  9
$FILLETRAD
 40
0.0
  9
$AUNITS
 70
     0
  9
$AUPREC
 70
     0
  9
$MENU
  1
acad
  9
$ELEVATION
 40
0.0
  9
$PELEVATION
 40
0.0
  9
$THICKNESS
 40
0.0
  9
$LIMCHECK
 70
     0
  9
$BLIPMODE
 70
     1
  9
$CHAMFERA
 40
0.0
  9
$CHAMFERB
 40
0.0
  9
$SKPOLY
 70
     0
  9
$TDCREATE
 40
0.000000000
  9
$TDUPDATE
 40
0.000000000
  9
$TDINDWG
 40
0.0000000000
  9
$TDUSRTIMER
 40
0.0000000000
  9
$USRTIMER
 70
     1
  9
$ANGBASE
 50
0.0
  9
$ANGDIR
 70
     0
  9
$PDMODE
 70
     0
  9
$PDSIZE
 40
0.0
  9
$PLINEWID
 40
0.0
  9
$COORDS
 70
     0
  9
$SPLFRAME
 70
     0
  9
$SPLINETYPE
 70
     6
  9
$SPLINESEGS
 70
     8
  9
$ATTDIA
 70
     0
  9
$ATTREQ
 70
     1
  9
$HANDLING
 70
     1
  9
$HANDSEED
  5
874
  9
$SURFTAB1
 70
     6
  9
$SURFTAB2
 70
     6
  9
$SURFTYPE
 70
     6
  9
$SURFU
 70
     6
  9
$SURFV
 70
     6
  9
$UCSNAME
  2

  9
$UCSORG
 10
0.0
 20
0.0
 30
0.0
  9
$UCSXDIR
 10
1.0
 20
0.0
 30
0.0
  9
$UCSYDIR
 10
0.0
 20
1.0
 30
0.0
  9
$PUCSNAME
  2

  9
$PUCSORG
 10
0.0
 20
0.0
 30
0.0
  9
$PUCSXDIR
 10
1.0
 20
0.0
 30
0.0
  9
$PUCSYDIR
 10
0.0
 20
1.0
 30
0.0
  9
$USERI1
 70
     0
  9
$USERI2
 70
     0
  9
$USERI3
 70
     0
  9
$USERI4
 70
     0
  9
$USERI5
 70
     0
  9
$USERR1
 40
0.0
  9
$USERR2
 40
0.0
  9
$USERR3
 40
0.0
  9
$USERR4
 40
0.0
  9
$USERR5
 40
0.0
  9
$WORLDVIEW
 70
     1
  9
$SHADEDGE
 70
     3
  9
$SHADEDIF
 70
    70
  9
$TILEMODE
 70
     1
  9
$MAXACTVP
 70
    16
  9
$PINSBASE
 10
0.0
 20
0.0
 30
0.0
  9
$PLIMCHECK
 70
     0
  9
$PEXTMIN
 10
1.000000E+20
 20
1.000000E+20
 30
1.000000E+20
  9
$PEXTMAX
 10
-1.000000E+20
 20
-1.000000E+20
 30
-1.000000E+20
  9
$PLIMMIN
 10
0.0
 20
0.0
  9
$PLIMMAX
 10
12.0
 20
9.0
  9
$UNITMODE
 70
     0
  9
$VISRETAIN
 70
     0
  9
$PLINEGEN
 70
     1
  9
$PSLTSCALE
 70
     0
  9
$TREEDEPTH
 70
  3020
  9
$DWGCODEPAGE
  3
dos932
  0
ENDSEC
  0
SECTION
  2
TABLES
  0
TABLE
  2
VPORT
 70
     1
  0
VPORT
  2
*ACTIVE
 70
     0
 10
0.0
 20
0.0
 11
1.0
 21
1.0
 12
3150.0
 22
4455.0
 13
0.0
 23
0.0
 14
1000.0
 24
1000.0
 15
1000.0
 25
1000.0
 16
0.0
 26
0.0
 36
1.0
 17
0.0
 27
0.0
 37
0.0
 40
8910.0
 41
0.707071
 42
50.0
 43
0.0
 44
0.0
 50
0.0
 51
0.0
 71
     0
 72
   100
 73
     1
 74
     1
 75
     0
 76
     0
 77
     0
 78
     0
  0
ENDTAB
  0
TABLE
  2
LTYPE
 70
     5
  0
LTYPE
  2
CONTINUOUS
 70
    64
  3
Solid line
 72
    65
 73
     0
 40
0.0
  0
LTYPE
  2
HIDDEN
 70
    64
  3
__ __ __ __ __ __ __ __ __ __ __ __ __ __ __ __
 72
    65
 73
     5
 40
8.0
 49
1.0
 49
-2.0
 49
2.0
 49
-2.0
 49
1.0
  0
LTYPE
  2
DOT
 70
    64
  3
. . . . . . . . . . . . . . . . . . . . . . . .
 72
    65
 73
     3
 40
1.6
 49
0.4
 49
-0.8
 49
0.4
  0
LTYPE
  2
CENTER
 70
    64
  3
____ _ ____ _ ____ _ ____ _ ____ _ ____ _ ____ 
 72
    65
 73
     5
 40
12.0
 49
5.0
 49
-0.8
 49
0.4
 49
-0.8
 49
5.0
  0
LTYPE
  2
DIVIDE
 70
    64
  3
____ . . ____ . . ____ . . ____ . . ____ . . __
 72
    65
 73
     7
 40
13.2
 49
5.0
 49
-0.8
 49
0.4
 49
-0.8
 49
0.4
 49
-0.8
 49
5.0
  0
ENDTAB
  0
TABLE
  2
LAYER
 70
    20
  0
LAYER
  2
0
 70
     0
 62
     7
  6
CONTINUOUS
  0
LAYER
  2
1
 70
     0
 62
     1
  6
CONTINUOUS
  0
LAYER
  2
2
 70
     0
 62
     1
  6
CONTINUOUS
  0
LAYER
  2
3
 70
     0
 62
     1
  6
CONTINUOUS
  0
LAYER
  2
5
 70
     0
 62
     1
  6
CONTINUOUS
  0
LAYER
  2
7
 70
     0
 62
     1
  6
CONTINUOUS
  0
LAYER
  2
8
 70
     0
 62
     1
  6
CONTINUOUS
  0
LAYER
  2
9
 70
     0
 62
     1
  6
CONTINUOUS
  0
LAYER
  2
10
 70
     0
 62
     1
  6
CONTINUOUS
  0
LAYER
  2
12
 70
     0
 62
     1
  6
CONTINUOUS
  0
LAYER
  2
40
 70
     0
 62
     1
  6
CONTINUOUS
  0
LAYER
  2
50
 70
     0
 62
     1
  6
CONTINUOUS
  0
LAYER
  2
53
 70
     0
 62
     1
  6
CONTINUOUS
  0
LAYER
  2
77
 70
     0
 62
     1
  6
CONTINUOUS
  0
LAYER
  2
104
 70
     0
 62
     1
  6
CONTINUOUS
  0
LAYER
  2
106
 70
     0
 62
     1
  6
CONTINUOUS
  0
LAYER
  2
107
 70
     0
 62
     1
  6
CONTINUOUS
  0
LAYER
  2
108
 70
     0
 62
     1
  6
CONTINUOUS
  0
LAYER
  2
150
 70
     0
 62
     1
  6
CONTINUOUS
  0
LAYER
  2
200
 70
     0
 62
     1
  6
CONTINUOUS
  0
ENDTAB
  0
TABLE
  2
STYLE
 70
     3
  0
STYLE
  2
STANDARD
 70
     0
 40
0.0
 41
1.0
 50
0.0
 71
     0
 42
0.0
  3
txt
  4

  0
STYLE
  2

 70
     0
 40
1000.0
 41
1.0
 50
0.0
 71
     0
 42
1000.0
  3
txt
  4
extfont
  0
STYLE
  2

 70
     0
 40
1000.0
 41
1.0
 50
0.0
 71
     0
 42
1000.0
  3
txt
  4
extfont
  0
ENDTAB
  0
TABLE
  2
VIEW
 70
     0
  0
ENDTAB
  0
TABLE
  2
UCS
 70
     0
  0
ENDTAB
  0
TABLE
  2
APPID
 70
     1
  0
APPID
  2
ACAD
 70
     0
  0
ENDTAB
  0
TABLE
  2
DIMSTYLE
 70
     1
  0
DIMSTYLE
  2
STANDARD
 70
     0
  3

  4

  5

  6

  7

 40
1.0
 41
0.18
 42
0.0625
 43
0.38
 44
0.18
 45
0.0
 46
0.0
 47
0.0
 48
0.0
 71
     0
 72
     0
 73
     1
 74
     1
 75
     0
 76
     0
 77
     0
 78
     0
140
0.18
141
0.09
142
0.0
143
25.4
144
1.0
145
0.0
146
1.0
147
0.09
170
     0
171
     2
172
     0
173
     0
174
     0
175
     0
176
     0
177
     0
178
     0
  0
ENDTAB
  0
ENDSEC
  0
SECTION
  2
BLOCKS
  0
ENDSEC
  0
SECTION
  2
ENTITIES
  0
ARC
  8
104
  6
CONTINUOUS
 62
     3
  5
102
 10
3277.308064
 20
7414.43474
 30
0.0
 40
25.0
 50
323.13
 51
36.87
  0
ARC
  8
104
  6
CONTINUOUS
 62
     3
  5
103
 10
3277.308064
 20
7514.434742
 30
0.0
 40
25.0
 50
323.13
 51
36.87
  0
LINE
  8
104
  6
CONTINUOUS
 62
     3
  5
104
 10
3207.308063
 20
7449.434741
 30
0.0
 11
3297.308065
 21
7429.43474
 31
0.0
  0
LINE
  8
104
  6
CONTINUOUS
 62
     3
  5
105
 10
3207.308063
 20
7379.434739
 30
0.0
 11
3297.308065
 21
7399.43474
 31
0.0
  0
LINE
  8
104
  6
CONTINUOUS
 62
     3
  5
106
 10
3207.308063
 20
7479.434741
 30
0.0
 11
3297.308065
 21
7499.434741
 31
0.0
  0
ARC
  8
104
  6
CONTINUOUS
 62
     3
  5
107
 10
3277.308064
 20
7314.434739
 30
0.0
 40
25.0
 50
323.13
 51
36.87
  0
LINE
  8
104
  6
CONTINUOUS
 62
     3
  5
108
 10
3207.308063
 20
7349.434739
 30
0.0
 11
3297.308065
 21
7329.434739
 31
0.0
  0
LINE
  8
104
  6
CONTINUOUS
 62
     3
  5
109
 10
3207.308063
 20
7249.434738
 30
0.0
 11
3297.308065
 21
7229.434737
 31
0.0
  0
LINE
  8
104
  6
CONTINUOUS
 62
     3
  5
10A
 10
3207.308063
 20
7179.434737
 30
0.0
 11
3297.308065
 21
7199.434737
 31
0.0
  0
LINE
  8
104
  6
CONTINUOUS
 62
     3
  5
10B
 10
3207.308063
 20
7279.434738
 30
0.0
 11
3297.308065
 21
7299.434738
 31
0.0
  0
ARC
  8
104
  6
CONTINUOUS
 62
     3
  5
10C
 10
3227.308064
 20
7064.434735
 30
0.0
 40
25.0
 50
143.13
 51
216.87
  0
ARC
  8
104
  6
CONTINUOUS
 62
     3
  5
10D
 10
3227.308064
 20
7164.434736
 30
0.0
 40
25.0
 50
143.13
 51
216.87
  0
LINE
  8
104
  6
CONTINUOUS
 62
     3
  5
10E
 10
3207.308063
 20
7149.434736
 30
0.0
 11
3297.308065
 21
7129.434736
 31
0.0
  0
LINE
  8
104
  6
CONTINUOUS
 62
     3
  5
10F
 10
3207.308063
 20
7049.434735
 30
0.0
 11
3297.308065
 21
7029.434734
 31
0.0
  0
LINE
  8
104
  6
CONTINUOUS
 62
     3
  5
110
 10
3207.308063
 20
6979.434734
 30
0.0
 11
3297.308065
 21
6999.434734
 31
0.0
  0
LINE
  8
104
  6
CONTINUOUS
 62
     3
  5
111
 10
3207.308063
 20
7079.434735
 30
0.0
 11
3297.308065
 21
7099.434735
 31
0.0
  0
ARC
  8
104
  6
CONTINUOUS
 62
     3
  5
112
 10
3277.308064
 20
6814.434731
 30
0.0
 40
25.0
 50
323.13
 51
36.87
  0
ARC
  8
104
  6
CONTINUOUS
 62
     3
  5
113
 10
3277.308064
 20
6914.434733
 30
0.0
 40
25.0
 50
323.13
 51
36.87
  0
ARC
  8
104
  6
CONTINUOUS
 62
     3
  5
114
 10
3227.308064
 20
6864.434732
 30
0.0
 40
25.0
 50
143.13
 51
216.87
  0
ARC
  8
104
  6
CONTINUOUS
 62
     3
  5
115
 10
3227.308064
 20
6964.434733
 30
0.0
 40
25.0
 50
143.13
 51
216.87
  0
LINE
  8
104
  6
CONTINUOUS
 62
     3
  5
116
 10
3207.308063
 20
6949.434733
 30
0.0
 11
3297.308065
 21
6929.434733
 31
0.0
  0
LINE
  8
104
  6
CONTINUOUS
 62
     3
  5
117
 10
3207.308063
 20
6849.434732
 30
0.0
 11
3297.308065
 21
6829.434731
 31
0.0
  0
LINE
  8
104
  6
CONTINUOUS
 62
     3
  5
118
 10
3207.308063
 20
6779.434731
 30
0.0
 11
3297.308065
 21
6799.434731
 31
0.0
  0
LINE
  8
104
  6
CONTINUOUS
 62
     3
  5
119
 10
3207.308063
 20
6879.434732
 30
0.0
 11
3297.308065
 21
6899.434732
 31
0.0
  0
ARC
  8
104
  6
CONTINUOUS
 62
     3
  5
11A
 10
3277.308064
 20
6614.434728
 30
0.0
 40
25.0
 50
323.13
 51
36.87
  0
ARC
  8
104
  6
CONTINUOUS
 62
     3
  5
11B
 10
3277.308064
 20
6714.43473
 30
0.0
 40
25.0
 50
323.13
 51
36.87
  0
ARC
  8
104
  6
CONTINUOUS
 62
     3
  5
11C
 10
3227.308064
 20
6664.434729
 30
0.0
 40
25.0
 50
143.13
 51
216.87
  0
ARC
  8
104
  6
CONTINUOUS
 62
     3
  5
11D
 10
3227.308064
 20
6764.43473
 30
0.0
 40
25.0
 50
143.13
 51
216.87
  0
LINE
  8
104
  6
CONTINUOUS
 62
     3
  5
11E
 10
3207.308063
 20
6749.43473
 30
0.0
 11
3297.308065
 21
6729.43473
 31
0.0
  0
LINE
  8
104
  6
CONTINUOUS
 62
     3
  5
11F
 10
3207.308063
 20
6649.434729
 30
0.0
 11
3297.308065
 21
6629.434728
 31
0.0
  0
LINE
  8
104
  6
CONTINUOUS
 62
     3
  5
120
 10
3207.308063
 20
6579.434728
 30
0.0
 11
3297.308065
 21
6599.434728
 31
0.0
  0
LINE
  8
104
  6
CONTINUOUS
 62
     3
  5
121
 10
3207.308063
 20
6679.434729
 30
0.0
 11
3297.308065
 21
6699.434729
 31
0.0
  0
ARC
  8
104
  6
CONTINUOUS
 62
     3
  5
122
 10
3227.308064
 20
7464.434741
 30
0.0
 40
25.0
 50
143.13
 51
216.87
  0
ARC
  8
104
  6
CONTINUOUS
 62
     3
  5
123
 10
3227.308064
 20
7264.434738
 30
0.0
 40
25.0
 50
143.13
 51
216.87
  0
ARC
  8
104
  6
CONTINUOUS
 62
     3
  5
124
 10
3227.308064
 20
7364.434739
 30
0.0
 40
25.0
 50
143.13
 51
216.87
  0
LINE
  8
106
  6
CONTINUOUS
 62
     4
  5
125
 10
1480.308037
 20
6341.434724
 30
0.0
 11
5460.308097
 21
6341.434724
 31
0.0
  0
LINE
  8
107
  6
CONTINUOUS
 62
     3
  5
126
 10
680.308026
 20
6341.434724
 30
0.0
 11
1480.308037
 21
6341.434724
 31
0.0
  0
LINE
  8
107
  6
CONTINUOUS
 62
     3
  5
127
 10
1480.308037
 20
6461.434726
 30
0.0
 11
680.308026
 21
6461.434726
 31
0.0
  0
LINE
  8
106
  6
CONTINUOUS
 62
     4
  5
128
 10
680.308026
 20
6341.434724
 30
0.0
 11
560.308024
 21
6341.434724
 31
0.0
  0
LINE
  8
106
  6
CONTINUOUS
 62
     4
  5
129
 10
3200.308063
 20
7536.434742
 30
0.0
 11
3200.308063
 21
7706.434744
 31
0.0
  0
LINE
  8
106
  6
CONTINUOUS
 62
     4
  5
12A
 10
3300.308065
 20
7536.434742
 30
0.0
 11
3300.308065
 21
7706.434744
 31
0.0
  0
LINE
  8
106
  6
CONTINUOUS
 62
     4
  5
12B
 10
3300.308065
 20
7536.434742
 30
0.0
 11
3200.308063
 21
7536.434742
 31
0.0
  0
ARC
  8
108
  6
CONTINUOUS
 62
     1
  5
12C
 10
2750.308056
 20
7516.434742
 30
0.0
 40
160.000002
 50
180.0
 51
360.0
  0
LINE
  8
108
  6
CONTINUOUS
 62
     1
  5
12D
 10
2910.308059
 20
7546.434742
 30
0.0
 11
2590.308054
 21
7546.434742
 31
0.0
  0
LINE
  8
108
  6
CONTINUOUS
 62
     1
  5
12E
 10
2910.308059
 20
7546.434742
 30
0.0
 11
2910.308059
 21
7516.434742
 31
0.0
  0
LINE
  8
108
  6
CONTINUOUS
 62
     1
  5
12F
 10
2590.308054
 20
7546.434742
 30
0.0
 11
2590.308054
 21
7516.434742
 31
0.0
  0
ARC
  8
108
  6
CONTINUOUS
 62
     1
  5
130
 10
2750.308056
 20
7516.434742
 30
0.0
 40
120.000002
 50
180.0
 51
360.0
  0
LINE
  8
108
  6
CONTINUOUS
 62
     1
  5
131
 10
2870.308058
 20
7516.434742
 30
0.0
 11
2870.308058
 21
7546.434742
 31
0.0
  0
LINE
  8
108
  6
CONTINUOUS
 62
     1
  5
132
 10
2630.308055
 20
7516.434742
 30
0.0
 11
2630.308055
 21
7546.434742
 31
0.0
  0
LINE
  8
108
  6
CONTINUOUS
 62
     1
  5
133
 10
2325.30805
 20
7286.434738
 30
0.0
 11
2325.30805
 21
7606.434743
 31
0.0
  0
LINE
  8
108
  6
CONTINUOUS
 62
     1
  5
134
 10
2375.308051
 20
7286.434738
 30
0.0
 11
2375.308051
 21
7606.434743
 31
0.0
  0
LINE
  8
108
  6
CONTINUOUS
 62
     1
  5
135
 10
2325.30805
 20
7286.434738
 30
0.0
 11
2375.308051
 21
7286.434738
 31
0.0
  0
LINE
  8
77
  6
CENTER
 62
     3
  5
136
 10
5196.908093
 20
6881.434732
 30
0.0
 11
4388.108081
 21
6881.434732
 31
0.0
  0
LINE
  8
106
  6
CONTINUOUS
 62
     4
  5
137
 10
5460.308097
 20
6798.834731
 30
0.0
 11
5280.308094
 21
6798.834731
 31
0.0
  0
LINE
  8
106
  6
CONTINUOUS
 62
     4
  5
138
 10
5460.308097
 20
7398.83474
 30
0.0
 11
5280.308094
 21
7398.83474
 31
0.0
  0
LINE
  8
106
  6
CONTINUOUS
 62
     4
  5
139
 10
5460.308097
 20
6798.834731
 30
0.0
 11
5460.308097
 21
6341.434724
 31
0.0
  0
LINE
  8
106
  6
CONTINUOUS
 62
     4
  5
13A
 10
5460.308097
 20
7398.83474
 30
0.0
 11
5460.308097
 21
7916.434747
 31
0.0
  0
LINE
  8
106
  6
CONTINUOUS
 62
     1
  5
13B
 10
5370.308095
 20
6798.834731
 30
0.0
 11
5370.308095
 21
7398.83474
 31
0.0
  0
LINE
  8
106
  6
CONTINUOUS
 62
     1
  5
13C
 10
1350.308036
 20
7606.434743
 30
0.0
 11
3200.308063
 21
7606.434743
 31
0.0
  0
LINE
  8
107
  6
CONTINUOUS
 62
     3
  5
13D
 10
5460.308097
 20
6798.834731
 30
0.0
 11
5460.308097
 21
7398.83474
 31
0.0
  0
LINE
  8
107
  6
CONTINUOUS
 62
     3
  5
13E
 10
5280.308094
 20
6798.834731
 30
0.0
 11
5280.308094
 21
7398.83474
 31
0.0
  0
LINE
  8
108
  6
CONTINUOUS
 62
     1
  5
13F
 10
2106.508047
 20
7396.43474
 30
0.0
 11
1790.908042
 21
7396.43474
 31
0.0
  0
LINE
  8
106
  6
CONTINUOUS
 62
     1
  5
140
 10
1350.308036
 20
7606.434743
 30
0.0
 11
1350.308036
 21
7706.434744
 31
0.0
  0
ARC
  8
104
  6
CONTINUOUS
 62
     3
  5
141
 10
3277.308064
 20
7214.434737
 30
0.0
 40
25.0
 50
323.13
 51
36.87
  0
ARC
  8
104
  6
CONTINUOUS
 62
     3
  5
142
 10
3277.308064
 20
7014.434734
 30
0.0
 40
25.0
 50
323.13
 51
36.87
  0
ARC
  8
104
  6
CONTINUOUS
 62
     3
  5
143
 10
3277.308064
 20
7114.434736
 30
0.0
 40
25.0
 50
323.13
 51
36.87
  0
ARC
  8
7
  6
CONTINUOUS
 62
     1
  5
144
 10
4461.308082
 20
6881.434732
 30
0.0
 40
17.0
 50
90.0
 51
270.0
  0
LINE
  8
108
  6
CONTINUOUS
 62
     1
  5
145
 10
2910.308059
 20
7546.434742
 30
0.0
 11
2910.308059
 21
7577.434742
 31
0.0
  0
LINE
  8
108
  6
CONTINUOUS
 62
     1
  5
146
 10
2590.308054
 20
7546.434742
 30
0.0
 11
2590.308054
 21
7577.434742
 31
0.0
  0
ARC
  8
108
  6
CONTINUOUS
 62
     1
  5
147
 10
2640.308055
 20
7577.434742
 30
0.0
 40
50.000001
 50
144.6
 51
180.0
  0
ARC
  8
108
  6
CONTINUOUS
 62
     1
  5
148
 10
2860.308058
 20
7577.434742
 30
0.0
 40
50.000001
 50
360.0
 51
35.4
  0
ARC
  8
108
  6
CONTINUOUS
 62
     1
  5
149
 10
2750.308056
 20
7562.434742
 30
0.0
 40
50.000001
 50
198.65
 51
341.35
  0
ARC
  8
108
  6
CONTINUOUS
 62
     1
  5
14A
 10
1850.708043
 20
7431.43474
 30
0.0
 40
20.0
 50
185.09
 51
270.0
  0
LINE
  8
108
  6
CONTINUOUS
 62
     1
  5
14B
 10
1850.708043
 20
7411.43474
 30
0.0
 11
2049.908046
 21
7411.43474
 31
0.0
  0
ARC
  8
108
  6
CONTINUOUS
 62
     1
  5
14C
 10
2049.908046
 20
7431.43474
 30
0.0
 40
20.0
 50
270.0
 51
354.93
  0
ARC
  8
108
  6
CONTINUOUS
 62
     1
  5
14D
 10
1790.908042
 20
7456.434741
 30
0.0
 40
60.000001
 50
188.18
 51
270.0
  0
ARC
  8
108
  6
CONTINUOUS
 62
     1
  5
14E
 10
2106.508047
 20
7456.434741
 30
0.0
 40
60.000001
 50
270.0
 51
351.82
  0
LINE
  8
108
  6
CONTINUOUS
 62
     1
  5
14F
 10
1830.108043
 20
7426.43474
 30
0.0
 11
1791.508042
 21
7426.43474
 31
0.0
  0
ARC
  8
108
  6
CONTINUOUS
 62
     1
  5
150
 10
1791.508042
 20
7456.434741
 30
0.0
 40
30.0
 50
188.13
 51
270.0
  0
LINE
  8
108
  6
CONTINUOUS
 62
     1
  5
151
 10
2070.508046
 20
7426.43474
 30
0.0
 11
2109.108047
 21
7426.43474
 31
0.0
  0
ARC
  8
108
  6
CONTINUOUS
 62
     1
  5
152
 10
2109.108047
 20
7456.434741
 30
0.0
 40
30.0
 50
270.0
 51
351.87
  0
LINE
  8
108
  6
CONTINUOUS
 62
     1
  5
153
 10
2165.908048
 20
7447.834741
 30
0.0
 11
2185.908048
 21
7569.634742
 31
0.0
  0
LINE
  8
108
  6
CONTINUOUS
 62
     1
  5
154
 10
1731.508041
 20
7447.834741
 30
0.0
 11
1711.508041
 21
7569.634742
 31
0.0
  0
LINE
  8
108
  6
CONTINUOUS
 62
     1
  5
155
 10
2185.908048
 20
7569.634742
 30
0.0
 11
1711.508041
 21
7569.634742
 31
0.0
  0
LINE
  8
108
  6
CONTINUOUS
 62
     1
  5
156
 10
1711.508041
 20
7569.634742
 30
0.0
 11
1711.508041
 21
7606.434743
 31
0.0
  0
LINE
  8
108
  6
CONTINUOUS
 62
     1
  5
157
 10
2185.908048
 20
7569.634742
 30
0.0
 11
2185.908048
 21
7606.434743
 31
0.0
  0
LINE
  8
108
  6
CONTINUOUS
 62
     1
  5
158
 10
1761.708042
 20
7452.234741
 30
0.0
 11
1748.908041
 21
7524.834742
 31
0.0
  0
ARC
  8
108
  6
CONTINUOUS
 62
     1
  5
159
 10
1778.708042
 20
7529.034742
 30
0.0
 40
30.0
 50
96.77
 51
188.13
  0
LINE
  8
108
  6
CONTINUOUS
 62
     1
  5
15A
 10
2138.908047
 20
7452.234741
 30
0.0
 11
2151.708047
 21
7524.834742
 31
0.0
  0
LINE
  8
108
  6
CONTINUOUS
 62
     1
  5
15B
 10
2125.508047
 20
7558.834742
 30
0.0
 11
2067.108046
 21
7565.434742
 31
0.0
  0
LINE
  8
108
  6
CONTINUOUS
 62
     1
  5
15C
 10
1775.108042
 20
7558.834742
 30
0.0
 11
1833.508043
 21
7565.434742
 31
0.0
  0
ARC
  8
108
  6
CONTINUOUS
 62
     1
  5
15D
 10
2121.908047
 20
7529.034742
 30
0.0
 40
30.0
 50
351.87
 51
83.23
  0
ARC
  8
108
  6
CONTINUOUS
 62
     1
  5
15E
 10
1778.708042
 20
7529.034742
 30
0.0
 40
30.0
 50
96.77
 51
188.13
  0
LINE
  8
108
  6
CONTINUOUS
 62
     1
  5
15F
 10
2069.908046
 20
7429.63474
 30
0.0
 11
2080.308046
 21
7534.634742
 31
0.0
  0
LINE
  8
108
  6
CONTINUOUS
 62
     1
  5
160
 10
1830.708043
 20
7429.63474
 30
0.0
 11
1820.308043
 21
7534.634742
 31
0.0
  0
ARC
  8
108
  6
CONTINUOUS
 62
     1
  5
161
 10
2050.508046
 20
7537.434742
 30
0.0
 40
30.0
 50
354.3
 51
83.19
  0
ARC
  8
108
  6
CONTINUOUS
 62
     1
  5
162
 10
1850.108043
 20
7537.434742
 30
0.0
 40
30.0
 50
96.81
 51
185.7
  0
LINE
  8
108
  6
CONTINUOUS
 62
     1
  5
163
 10
2034.708046
 20
7569.634742
 30
0.0
 11
2054.108046
 21
7567.234742
 31
0.0
  0
LINE
  8
108
  6
CONTINUOUS
 62
     1
  5
164
 10
1865.908043
 20
7569.634742
 30
0.0
 11
1846.508043
 21
7567.234742
 31
0.0
  0
LINE
  8
108
  6
CONTINUOUS
 62
     1
  5
165
 10
1935.308044
 20
7513.634741
 30
0.0
 11
1932.708044
 21
7569.634742
 31
0.0
  0
ARC
  8
108
  6
CONTINUOUS
 62
     1
  5
166
 10
1950.308044
 20
7514.434742
 30
0.0
 40
15.0
 50
183.05
 51
356.95
  0
LINE
  8
108
  6
CONTINUOUS
 62
     1
  5
167
 10
1965.308045
 20
7513.634741
 30
0.0
 11
1967.908045
 21
7569.434742
 31
0.0
  0
ARC
  8
108
  6
CONTINUOUS
 62
     1
  5
168
 10
1950.308044
 20
7491.434741
 30
0.0
 40
20.0
 50
129.73
 51
50.27
  0
LINE
  8
108
  6
CONTINUOUS
 62
     1
  5
169
 10
2764.308057
 20
7592.434743
 30
0.0
 11
2736.308056
 21
7592.434743
 31
0.0
  0
LINE
  8
108
  6
CONTINUOUS
 62
     1
  5
16A
 10
2760.708057
 20
7580.834742
 30
0.0
 11
2739.908056
 21
7580.834742
 31
0.0
  0
LINE
  8
108
  6
CONTINUOUS
 62
     1
  5
16B
 10
2736.308056
 20
7592.434743
 30
0.0
 11
2735.508056
 21
7606.434743
 31
0.0
  0
LINE
  8
108
  6
CONTINUOUS
 62
     1
  5
16C
 10
2739.908056
 20
7580.834742
 30
0.0
 11
2739.908056
 21
7592.434743
 31
0.0
  0
LINE
  8
108
  6
CONTINUOUS
 62
     1
  5
16D
 10
2764.308057
 20
7592.434743
 30
0.0
 11
2765.108057
 21
7606.434743
 31
0.0
  0
LINE
  8
108
  6
CONTINUOUS
 62
     1
  5
16E
 10
2760.708057
 20
7580.834742
 30
0.0
 11
2760.708057
 21
7592.434743
 31
0.0
  0
CIRCLE
  8
108
  6
CONTINUOUS
 62
     1
  5
16F
 10
2108.108047
 20
7491.434741
 30
0.0
 40
15.0
  0
LINE
  8
108
  6
CONTINUOUS
 62
     1
  5
170
 10
2114.708047
 20
7472.634741
 30
0.0
 11
2116.508047
 21
7479.034741
 31
0.0
  0
LINE
  8
108
  6
CONTINUOUS
 62
     1
  5
171
 10
2101.508047
 20
7472.634741
 30
0.0
 11
2099.708047
 21
7479.034741
 31
0.0
  0
LINE
  8
108
  6
CONTINUOUS
 62
     1
  5
172
 10
2126.908047
 20
7498.034741
 30
0.0
 11
2120.508047
 21
7499.834741
 31
0.0
  0
LINE
  8
108
  6
CONTINUOUS
 62
     1
  5
173
 10
2126.908047
 20
7484.834741
 30
0.0
 11
2120.508047
 21
7483.034741
 31
0.0
  0
LINE
  8
108
  6
CONTINUOUS
 62
     1
  5
174
 10
2101.508047
 20
7510.234741
 30
0.0
 11
2099.708047
 21
7503.834741
 31
0.0
  0
LINE
  8
108
  6
CONTINUOUS
 62
     1
  5
175
 10
2114.708047
 20
7510.234741
 30
0.0
 11
2116.508047
 21
7503.834741
 31
0.0
  0
LINE
  8
108
  6
CONTINUOUS
 62
     1
  5
176
 10
2089.308047
 20
7484.834741
 30
0.0
 11
2095.708047
 21
7483.034741
 31
0.0
  0
LINE
  8
108
  6
CONTINUOUS
 62
     1
  5
177
 10
2089.308047
 20
7498.034741
 30
0.0
 11
2095.708047
 21
7499.834741
 31
0.0
  0
ARC
  8
108
  6
CONTINUOUS
 62
     1
  5
178
 10
2108.108047
 20
7491.434741
 30
0.0
 40
20.0
 50
250.66
 51
289.34
  0
ARC
  8
108
  6
CONTINUOUS
 62
     1
  5
179
 10
2108.108047
 20
7491.434741
 30
0.0
 40
20.0
 50
340.66
 51
19.34
  0
ARC
  8
108
  6
CONTINUOUS
 62
     1
  5
17A
 10
2108.108047
 20
7491.434741
 30
0.0
 40
20.0
 50
70.66
 51
109.34
  0
ARC
  8
108
  6
CONTINUOUS
 62
     1
  5
17B
 10
2108.108047
 20
7491.434741
 30
0.0
 40
20.0
 50
160.66
 51
199.34
  0
LINE
  8
106
  6
CONTINUOUS
 62
     4
  5
17C
 10
560.308024
 20
7916.434747
 30
0.0
 11
560.308024
 21
6341.434724
 31
0.0
  0
LINE
  8
77
  6
CENTER
 62
     3
  5
17D
 10
5460.308097
 20
6401.434725
 30
0.0
 11
560.308024
 21
6401.434725
 31
0.0
  0
LINE
  8
77
  6
CENTER
 62
     3
  5
17E
 10
5460.308097
 20
7826.434746
 30
0.0
 11
560.308024
 21
7826.434746
 31
0.0
  0
LINE
  8
77
  6
CENTER
 62
     3
  5
17F
 10
5370.308095
 20
7916.434747
 30
0.0
 11
5370.308095
 21
6341.434724
 31
0.0
  0
LINE
  8
77
  6
CENTER
 62
     3
  5
180
 10
620.308025
 20
7916.434747
 30
0.0
 11
620.308025
 21
6341.434724
 31
0.0
  0
LINE
  8
77
  6
CENTER
 62
     3
  5
181
 10
3250.308064
 20
7916.434747
 30
0.0
 11
3250.308064
 21
6341.434724
 31
0.0
  0
LINE
  8
104
  6
CONTINUOUS
 62
     3
  5
182
 10
3260.278732
 20
6986.434734
 30
0.0
 11
3115.078729
 21
6841.234731
 31
0.0
  0
LINE
  8
108
  6
CONTINUOUS
 62
     3
  5
183
 10
3115.078729
 20
6841.234731
 30
0.0
 11
3063.078729
 21
6841.234731
 31
0.0
  0
LINE
  8
106
  6
CONTINUOUS
 62
     4
  5
184
 10
680.308026
 20
7706.434744
 30
0.0
 11
680.308026
 21
6341.434724
 31
0.0
  0
LINE
  8
7
  6
CONTINUOUS
 62
     1
  5
185
 10
4461.308082
 20
6864.434732
 30
0.0
 11
5150.308092
 21
6864.434732
 31
0.0
  0
LINE
  8
7
  6
CONTINUOUS
 62
     1
  5
186
 10
4461.308082
 20
6898.434732
 30
0.0
 11
5150.308092
 21
6898.434732
 31
0.0
  0
ARC
  8
7
  6
HIDDEN
 62
     1
  5
187
 10
5428.308096
 20
6881.434732
 30
0.0
 40
967.000014
 50
180.0
 51
199.81
  0
LINE
  8
7
  6
HIDDEN
 62
     1
  5
188
 10
4519.308083
 20
6551.434727
 30
0.0
 11
5146.308092
 21
6827.434731
 31
0.0
  0
LINE
  8
106
  6
CONTINUOUS
 62
     1
  5
189
 10
5150.308092
 20
7706.434744
 30
0.0
 11
5150.308092
 21
6491.434726
 31
0.0
  0
LINE
  8
9
  6
CONTINUOUS
 62
     1
  5
18A
 10
760.308094
 20
3000.962301
 30
0.0
 11
760.308094
 21
2750.962301
 31
0.0
  0
LINE
  8
9
  6
CONTINUOUS
 62
     1
  5
18B
 10
785.308094
 20
2975.962301
 30
0.0
 11
785.308094
 21
2775.962301
 31
0.0
  0
LINE
  8
9
  6
CONTINUOUS
 62
     1
  5
18C
 10
1110.308094
 20
3000.962301
 30
0.0
 11
760.308094
 21
3000.962301
 31
0.0
  0
LINE
  8
9
  6
CONTINUOUS
 62
     1
  5
18D
 10
1110.308094
 20
2750.962301
 30
0.0
 11
760.308094
 21
2750.962301
 31
0.0
  0
LINE
  8
9
  6
CONTINUOUS
 62
     1
  5
18E
 10
1085.308094
 20
2975.962301
 30
0.0
 11
785.308094
 21
2975.962301
 31
0.0
  0
LINE
  8
9
  6
CONTINUOUS
 62
     1
  5
18F
 10
1085.308094
 20
2775.962301
 30
0.0
 11
785.308094
 21
2775.962301
 31
0.0
  0
LINE
  8
9
  6
CONTINUOUS
 62
     1
  5
190
 10
1085.308094
 20
2775.962301
 30
0.0
 11
1085.308094
 21
2975.962301
 31
0.0
  0
LINE
  8
9
  6
CONTINUOUS
 62
     1
  5
191
 10
1110.308094
 20
3000.962301
 30
0.0
 11
1110.308094
 21
2750.962301
 31
0.0
  0
LINE
  8
150
  6
CONTINUOUS
 62
     4
  5
192
 10
720.308094
 20
4120.962301
 30
0.0
 11
3270.308094
 21
4120.962301
 31
0.0
  0
LINE
  8
150
  6
CONTINUOUS
 62
     4
  5
193
 10
3270.308094
 20
4120.962301
 30
0.0
 11
3820.308094
 21
3720.962301
 31
0.0
  0
LINE
  8
150
  6
CONTINUOUS
 62
     4
  5
194
 10
720.308094
 20
1720.962301
 30
0.0
 11
720.308094
 21
4120.962301
 31
0.0
  0
LINE
  8
150
  6
CONTINUOUS
 62
     4
  5
195
 10
3820.308094
 20
3720.962301
 30
0.0
 11
5280.308094
 21
3720.962301
 31
0.0
  0
LINE
  8
150
  6
CONTINUOUS
 62
     4
  5
196
 10
5280.308094
 20
1620.962301
 30
0.0
 11
3370.308094
 21
1620.962301
 31
0.0
  0
LINE
  8
9
  6
CONTINUOUS
 62
     1
  5
197
 10
5150.308094
 20
2668.962301
 30
0.0
 11
5150.308094
 21
1620.962301
 31
0.0
  0
LINE
  8
9
  6
CONTINUOUS
 62
     1
  5
198
 10
2300.308094
 20
2920.962301
 30
0.0
 11
2300.308094
 21
1661.462301
 31
0.0
  0
LINE
  8
9
  6
CONTINUOUS
 62
     1
  5
199
 10
1502.808094
 20
2920.962301
 30
0.0
 11
1502.808094
 21
1691.462301
 31
0.0
  0
LINE
  8
9
  6
CONTINUOUS
 62
     1
  5
19A
 10
3200.308094
 20
2920.962301
 30
0.0
 11
1502.808094
 21
2920.962301
 31
0.0
  0
LINE
  8
9
  6
CONTINUOUS
 62
     1
  5
19B
 10
3200.308094
 20
2820.962301
 30
0.0
 11
2300.308094
 21
2820.962301
 31
0.0
  0
LINE
  8
9
  6
CONTINUOUS
 62
     1
  5
19C
 10
3200.308094
 20
2895.962301
 30
0.0
 11
1502.808094
 21
2895.962301
 31
0.0
  0
LINE
  8
9
  6
CONTINUOUS
 62
     1
  5
19D
 10
2860.308094
 20
2640.962301
 30
0.0
 11
2860.308094
 21
1639.962301
 31
0.0
  0
LINE
  8
9
  6
CONTINUOUS
 62
     1
  5
19E
 10
2540.308094
 20
2640.962301
 30
0.0
 11
2540.308094
 21
1652.462301
 31
0.0
  0
LINE
  8
9
  6
CONTINUOUS
 62
     1
  5
19F
 10
2540.308094
 20
2640.962301
 30
0.0
 11
2860.308094
 21
2640.962301
 31
0.0
  0
LINE
  8
9
  6
CONTINUOUS
 62
     1
  5
1A0
 10
1720.308094
 20
2690.962301
 30
0.0
 11
2080.308094
 21
2690.962301
 31
0.0
  0
LINE
  8
9
  6
CONTINUOUS
 62
     1
  5
1A1
 10
1720.308094
 20
2340.962301
 30
0.0
 11
1720.308094
 21
2690.962301
 31
0.0
  0
LINE
  8
9
  6
CONTINUOUS
 62
     1
  5
1A2
 10
2080.308094
 20
2340.962301
 30
0.0
 11
2080.308094
 21
2690.962301
 31
0.0
  0
LINE
  8
9
  6
CONTINUOUS
 62
     1
  5
1A3
 10
2080.308094
 20
2340.962301
 30
0.0
 11
1720.308094
 21
2340.962301
 31
0.0
  0
LINE
  8
9
  6
CONTINUOUS
 62
     1
  5
1A4
 10
1770.308094
 20
2640.962301
 30
0.0
 11
2030.308094
 21
2640.962301
 31
0.0
  0
LINE
  8
9
  6
CONTINUOUS
 62
     1
  5
1A5
 10
1770.308094
 20
2464.962301
 30
0.0
 11
1770.308094
 21
2640.962301
 31
0.0
  0
LINE
  8
9
  6
CONTINUOUS
 62
     1
  5
1A6
 10
2030.308094
 20
2464.962301
 30
0.0
 11
2030.308094
 21
2640.962301
 31
0.0
  0
LINE
  8
9
  6
CONTINUOUS
 62
     1
  5
1A7
 10
2080.308094
 20
2464.962301
 30
0.0
 11
1720.308094
 21
2464.962301
 31
0.0
  0
LINE
  8
9
  6
CONTINUOUS
 62
     1
  5
1A8
 10
2860.308094
 20
1931.462301
 30
0.0
 11
2540.308094
 21
1931.462301
 31
0.0
  0
LINE
  8
9
  6
CONTINUOUS
 62
     1
  5
1A9
 10
5150.308094
 20
2668.962301
 30
0.0
 11
5280.308094
 21
2668.962301
 31
0.0
  0
LINE
  8
150
  6
CONTINUOUS
 62
     4
  5
1AA
 10
720.308094
 20
1720.962301
 30
0.0
 11
3370.308094
 21
1620.962301
 31
0.0
  0
LINE
  8
9
  6
CONTINUOUS
 62
     2
  5
1AB
 10
883.808094
 20
1315.462301
 30
0.0
 11
1718.308094
 21
1315.462301
 31
0.0
  0
LINE
  8
9
  6
CONTINUOUS
 62
     2
  5
1AC
 10
883.808094
 20
1347.462301
 30
0.0
 11
1718.308094
 21
1315.462301
 31
0.0
  0
LINE
  8
9
  6
CONTINUOUS
 62
     2
  5
1AD
 10
883.808094
 20
1315.462301
 30
0.0
 11
883.808094
 21
1347.462301
 31
0.0
  0
LINE
  8
9
  6
CONTINUOUS
 62
     2
  5
1AE
 10
3275.308094
 20
1620.962301
 30
0.0
 11
3275.308094
 21
3720.962301
 31
0.0
  0
LINE
  8
9
  6
CONTINUOUS
 62
     2
  5
1AF
 10
3225.308094
 20
1627.462301
 30
0.0
 11
3225.308094
 21
3720.962301
 31
0.0
  0
LINE
  8
9
  6
CONTINUOUS
 62
     1
  5
1B0
 10
3300.308094
 20
1620.962301
 30
0.0
 11
3300.308094
 21
3720.962301
 31
0.0
  0
LINE
  8
9
  6
CONTINUOUS
 62
     1
  5
1B1
 10
3200.308094
 20
3720.962301
 30
0.0
 11
3200.308094
 21
1627.462301
 31
0.0
  0
LINE
  8
150
  6
CONTINUOUS
 62
     4
  5
1B2
 10
3300.308094
 20
3720.962301
 30
0.0
 11
3300.308094
 21
4098.962301
 31
0.0
  0
LINE
  8
150
  6
CONTINUOUS
 62
     4
  5
1B3
 10
3200.308094
 20
3720.962301
 30
0.0
 11
3200.308094
 21
4120.962301
 31
0.0
  0
LINE
  8
150
  6
CONTINUOUS
 62
     4
  5
1B4
 10
3200.308094
 20
3720.962301
 30
0.0
 11
3300.308094
 21
3720.962301
 31
0.0
  0
LINE
  8
150
  6
CONTINUOUS
 62
     4
  5
1B5
 10
5280.308094
 20
3720.962301
 30
0.0
 11
5280.308094
 21
1620.962301
 31
0.0
  0
ARC
  8
2
  6
CONTINUOUS
 62
     5
  5
1B6
 10
4120.308094
 20
2285.96147
 30
0.0
 40
49.399169
 50
180.000001
 51
270.000006
  0
LINE
  8
2
  6
CONTINUOUS
 62
     5
  5
1B7
 10
4120.308094
 20
2236.562301
 30
0.0
 11
4500.308094
 21
2236.562301
 31
0.0
  0
ARC
  8
2
  6
CONTINUOUS
 62
     5
  5
1B8
 10
4500.308094
 20
2285.96147
 30
0.0
 40
49.399169
 50
270.000006
 51
0.00001
  0
LINE
  8
2
  6
CONTINUOUS
 62
     5
  5
1B9
 10
4099.707263
 20
2515.96147
 30
0.0
 11
4099.707263
 21
2435.96147
 31
0.0
  0
ARC
  8
2
  6
CONTINUOUS
 62
     5
  5
1BA
 10
4120.308094
 20
2515.96147
 30
0.0
 40
20.600831
 50
90.000003
 51
180.000001
  0
ARC
  8
2
  6
CONTINUOUS
 62
     5
  5
1BB
 10
4200.308094
 20
2515.96147
 30
0.0
 40
20.600831
 50
0.00001
 51
90.000008
  0
LINE
  8
2
  6
CONTINUOUS
 62
     5
  5
1BC
 10
4120.308094
 20
2536.562301
 30
0.0
 11
4200.308094
 21
2536.562301
 31
0.0
  0
LINE
  8
2
  6
CONTINUOUS
 62
     5
  5
1BD
 10
4220.908925
 20
2515.96147
 30
0.0
 11
4220.908925
 21
2435.96147
 31
0.0
  0
ARC
  8
2
  6
CONTINUOUS
 62
     5
  5
1BE
 10
4200.308094
 20
2435.96147
 30
0.0
 40
20.600831
 50
270.000006
 51
0.00001
  0
LINE
  8
2
  6
CONTINUOUS
 62
     5
  5
1BF
 10
4120.308094
 20
2415.36064
 30
0.0
 11
4200.308094
 21
2415.36064
 31
0.0
  0
ARC
  8
2
  6
CONTINUOUS
 62
     5
  5
1C0
 10
4200.308094
 20
2365.96147
 30
0.0
 40
20.600831
 50
0.00001
 51
90.000008
  0
LINE
  8
2
  6
CONTINUOUS
 62
     5
  5
1C1
 10
4120.308094
 20
2386.562301
 30
0.0
 11
4200.308094
 21
2386.562301
 31
0.0
  0
LINE
  8
2
  6
CONTINUOUS
 62
     5
  5
1C2
 10
4220.908925
 20
2365.96147
 30
0.0
 11
4220.908925
 21
2285.96147
 31
0.0
  0
ARC
  8
2
  6
CONTINUOUS
 62
     5
  5
1C3
 10
4200.308094
 20
2285.96147
 30
0.0
 40
20.600831
 50
270.000006
 51
0.00001
  0
LINE
  8
2
  6
CONTINUOUS
 62
     5
  5
1C4
 10
4120.308094
 20
2265.36064
 30
0.0
 11
4200.308094
 21
2265.36064
 31
0.0
  0
ARC
  8
2
  6
CONTINUOUS
 62
     5
  5
1C5
 10
4120.308094
 20
2285.96147
 30
0.0
 40
20.600831
 50
180.000001
 51
270.000006
  0
LINE
  8
2
  6
CONTINUOUS
 62
     5
  5
1C6
 10
4099.707263
 20
2365.96147
 30
0.0
 11
4099.707263
 21
2285.96147
 31
0.0
  0
LINE
  8
2
  6
CONTINUOUS
 62
     5
  5
1C7
 10
4549.707263
 20
2285.96147
 30
0.0
 11
4549.707263
 21
2815.961479
 31
0.0
  0
LINE
  8
2
  6
CONTINUOUS
 62
     5
  5
1C8
 10
4070.908925
 20
2285.96147
 30
0.0
 11
4070.908925
 21
2815.961479
 31
0.0
  0
ARC
  8
2
  6
CONTINUOUS
 62
     5
  5
1C9
 10
4500.308094
 20
2285.96147
 30
0.0
 40
20.600831
 50
270.000006
 51
0.00001
  0
LINE
  8
2
  6
CONTINUOUS
 62
     5
  5
1CA
 10
4420.308094
 20
2265.36064
 30
0.0
 11
4500.308094
 21
2265.36064
 31
0.0
  0
ARC
  8
2
  6
CONTINUOUS
 62
     5
  5
1CB
 10
4420.308094
 20
2285.96147
 30
0.0
 40
20.600831
 50
180.000001
 51
270.000006
  0
LINE
  8
2
  6
CONTINUOUS
 62
     5
  5
1CC
 10
4399.707263
 20
2365.96147
 30
0.0
 11
4399.707263
 21
2285.96147
 31
0.0
  0
ARC
  8
2
  6
CONTINUOUS
 62
     5
  5
1CD
 10
4420.308094
 20
2365.96147
 30
0.0
 40
20.600831
 50
90.000003
 51
180.000001
  0
LINE
  8
2
  6
CONTINUOUS
 62
     5
  5
1CE
 10
4420.308094
 20
2386.562301
 30
0.0
 11
4500.308094
 21
2386.562301
 31
0.0
  0
LINE
  8
2
  6
CONTINUOUS
 62
     5
  5
1CF
 10
4520.908925
 20
2365.96147
 30
0.0
 11
4520.908925
 21
2285.96147
 31
0.0
  0
LINE
  8
2
  6
CONTINUOUS
 62
     5
  5
1D0
 10
4370.908925
 20
2365.96147
 30
0.0
 11
4370.908925
 21
2285.96147
 31
0.0
  0
ARC
  8
2
  6
CONTINUOUS
 62
     5
  5
1D1
 10
4350.308094
 20
2365.96147
 30
0.0
 40
20.600831
 50
0.00001
 51
90.000008
  0
LINE
  8
2
  6
CONTINUOUS
 62
     5
  5
1D2
 10
4270.308094
 20
2386.562301
 30
0.0
 11
4350.308094
 21
2386.562301
 31
0.0
  0
ARC
  8
2
  6
CONTINUOUS
 62
     5
  5
1D3
 10
4270.308094
 20
2365.96147
 30
0.0
 40
20.600831
 50
90.000003
 51
180.000001
  0
LINE
  8
2
  6
CONTINUOUS
 62
     5
  5
1D4
 10
4249.707263
 20
2365.96147
 30
0.0
 11
4249.707263
 21
2285.96147
 31
0.0
  0
ARC
  8
2
  6
CONTINUOUS
 62
     5
  5
1D5
 10
4270.308094
 20
2285.96147
 30
0.0
 40
20.600831
 50
180.000001
 51
270.000006
  0
LINE
  8
2
  6
CONTINUOUS
 62
     5
  5
1D6
 10
4270.308094
 20
2265.36064
 30
0.0
 11
4350.308094
 21
2265.36064
 31
0.0
  0
ARC
  8
2
  6
CONTINUOUS
 62
     5
  5
1D7
 10
4350.308094
 20
2285.96147
 30
0.0
 40
20.600831
 50
270.000006
 51
0.00001
  0
LINE
  8
2
  6
CONTINUOUS
 62
     5
  5
1D8
 10
4420.308094
 20
2415.36064
 30
0.0
 11
4500.308094
 21
2415.36064
 31
0.0
  0
ARC
  8
2
  6
CONTINUOUS
 62
     5
  5
1D9
 10
4420.308094
 20
2435.96147
 30
0.0
 40
20.600831
 50
180.000001
 51
270.000006
  0
LINE
  8
2
  6
CONTINUOUS
 62
     5
  5
1DA
 10
4399.707263
 20
2515.96147
 30
0.0
 11
4399.707263
 21
2435.96147
 31
0.0
  0
ARC
  8
2
  6
CONTINUOUS
 62
     5
  5
1DB
 10
4420.308094
 20
2515.96147
 30
0.0
 40
20.600831
 50
90.000003
 51
180.000001
  0
LINE
  8
2
  6
CONTINUOUS
 62
     5
  5
1DC
 10
4420.308094
 20
2536.562301
 30
0.0
 11
4500.308094
 21
2536.562301
 31
0.0
  0
ARC
  8
2
  6
CONTINUOUS
 62
     5
  5
1DD
 10
4500.308094
 20
2515.96147
 30
0.0
 40
20.600831
 50
0.00001
 51
90.000008
  0
LINE
  8
2
  6
CONTINUOUS
 62
     5
  5
1DE
 10
4520.908925
 20
2515.96147
 30
0.0
 11
4520.908925
 21
2435.96147
 31
0.0
  0
LINE
  8
2
  6
CONTINUOUS
 62
     5
  5
1DF
 10
4370.908925
 20
2515.96147
 30
0.0
 11
4370.908925
 21
2435.96147
 31
0.0
  0
ARC
  8
2
  6
CONTINUOUS
 62
     5
  5
1E0
 10
4350.308094
 20
2515.96147
 30
0.0
 40
20.600831
 50
0.00001
 51
90.000008
  0
LINE
  8
2
  6
CONTINUOUS
 62
     5
  5
1E1
 10
4270.308094
 20
2536.562301
 30
0.0
 11
4350.308094
 21
2536.562301
 31
0.0
  0
ARC
  8
2
  6
CONTINUOUS
 62
     5
  5
1E2
 10
4270.308094
 20
2515.96147
 30
0.0
 40
20.600831
 50
90.000003
 51
180.000001
  0
LINE
  8
2
  6
CONTINUOUS
 62
     5
  5
1E3
 10
4249.707263
 20
2515.96147
 30
0.0
 11
4249.707263
 21
2435.96147
 31
0.0
  0
ARC
  8
2
  6
CONTINUOUS
 62
     5
  5
1E4
 10
4270.308094
 20
2435.96147
 30
0.0
 40
20.600831
 50
180.000001
 51
270.000006
  0
LINE
  8
2
  6
CONTINUOUS
 62
     5
  5
1E5
 10
4270.308094
 20
2415.36064
 30
0.0
 11
4350.308094
 21
2415.36064
 31
0.0
  0
ARC
  8
2
  6
CONTINUOUS
 62
     5
  5
1E6
 10
4350.308094
 20
2435.96147
 30
0.0
 40
20.600831
 50
270.000006
 51
0.00001
  0
ARC
  8
2
  6
CONTINUOUS
 62
     5
  5
1E7
 10
4500.308094
 20
2585.96147
 30
0.0
 40
20.600831
 50
270.000006
 51
0.00001
  0
LINE
  8
2
  6
CONTINUOUS
 62
     5
  5
1E8
 10
4420.308094
 20
2565.36064
 30
0.0
 11
4500.308094
 21
2565.36064
 31
0.0
  0
ARC
  8
2
  6
CONTINUOUS
 62
     5
  5
1E9
 10
4420.308094
 20
2585.96147
 30
0.0
 40
20.600831
 50
180.000001
 51
270.000006
  0
LINE
  8
2
  6
CONTINUOUS
 62
     5
  5
1EA
 10
4399.707263
 20
2665.96147
 30
0.0
 11
4399.707263
 21
2585.96147
 31
0.0
  0
ARC
  8
2
  6
CONTINUOUS
 62
     5
  5
1EB
 10
4420.308094
 20
2665.96147
 30
0.0
 40
20.600831
 50
90.000003
 51
180.000001
  0
LINE
  8
2
  6
CONTINUOUS
 62
     5
  5
1EC
 10
4420.308094
 20
2686.562301
 30
0.0
 11
4500.308094
 21
2686.562301
 31
0.0
  0
LINE
  8
2
  6
CONTINUOUS
 62
     5
  5
1ED
 10
4520.908925
 20
2665.96147
 30
0.0
 11
4520.908925
 21
2585.96147
 31
0.0
  0
LINE
  8
2
  6
CONTINUOUS
 62
     5
  5
1EE
 10
4420.308094
 20
2715.36064
 30
0.0
 11
4500.308094
 21
2715.36064
 31
0.0
  0
ARC
  8
2
  6
CONTINUOUS
 62
     5
  5
1EF
 10
4420.308094
 20
2735.96147
 30
0.0
 40
20.600831
 50
180.000001
 51
270.000006
  0
LINE
  8
2
  6
CONTINUOUS
 62
     5
  5
1F0
 10
4399.707263
 20
2815.96147
 30
0.0
 11
4399.707263
 21
2735.96147
 31
0.0
  0
ARC
  8
2
  6
CONTINUOUS
 62
     5
  5
1F1
 10
4420.308094
 20
2815.96147
 30
0.0
 40
20.600831
 50
90.000003
 51
180.000001
  0
LINE
  8
2
  6
CONTINUOUS
 62
     5
  5
1F2
 10
4520.908925
 20
2815.96147
 30
0.0
 11
4520.908925
 21
2735.96147
 31
0.0
  0
LINE
  8
2
  6
CONTINUOUS
 62
     5
  5
1F3
 10
4370.908925
 20
2665.96147
 30
0.0
 11
4370.908925
 21
2585.96147
 31
0.0
  0
ARC
  8
2
  6
CONTINUOUS
 62
     5
  5
1F4
 10
4350.308094
 20
2665.96147
 30
0.0
 40
20.600831
 50
0.00001
 51
90.000008
  0
LINE
  8
2
  6
CONTINUOUS
 62
     5
  5
1F5
 10
4270.308094
 20
2686.562301
 30
0.0
 11
4350.308094
 21
2686.562301
 31
0.0
  0
ARC
  8
2
  6
CONTINUOUS
 62
     5
  5
1F6
 10
4270.308094
 20
2665.96147
 30
0.0
 40
20.600831
 50
90.000003
 51
180.000001
  0
LINE
  8
2
  6
CONTINUOUS
 62
     5
  5
1F7
 10
4249.707263
 20
2665.96147
 30
0.0
 11
4249.707263
 21
2585.96147
 31
0.0
  0
ARC
  8
2
  6
CONTINUOUS
 62
     5
  5
1F8
 10
4270.308094
 20
2585.96147
 30
0.0
 40
20.600831
 50
180.000001
 51
270.000006
  0
LINE
  8
2
  6
CONTINUOUS
 62
     5
  5
1F9
 10
4270.308094
 20
2565.36064
 30
0.0
 11
4350.308094
 21
2565.36064
 31
0.0
  0
ARC
  8
2
  6
CONTINUOUS
 62
     5
  5
1FA
 10
4350.308094
 20
2585.96147
 30
0.0
 40
20.600831
 50
270.000006
 51
0.00001
  0
LINE
  8
2
  6
CONTINUOUS
 62
     5
  5
1FB
 10
4370.908925
 20
2815.96147
 30
0.0
 11
4370.908925
 21
2735.96147
 31
0.0
  0
ARC
  8
2
  6
CONTINUOUS
 62
     5
  5
1FC
 10
4350.308094
 20
2815.96147
 30
0.0
 40
20.600831
 50
0.00001
 51
90.000008
  0
LINE
  8
2
  6
CONTINUOUS
 62
     5
  5
1FD
 10
4270.308094
 20
2836.562301
 30
0.0
 11
4350.308094
 21
2836.562301
 31
0.0
  0
ARC
  8
2
  6
CONTINUOUS
 62
     5
  5
1FE
 10
4270.308094
 20
2815.96147
 30
0.0
 40
20.600831
 50
90.000003
 51
180.000001
  0
LINE
  8
2
  6
CONTINUOUS
 62
     5
  5
1FF
 10
4249.707263
 20
2815.96147
 30
0.0
 11
4249.707263
 21
2735.96147
 31
0.0
  0
ARC
  8
2
  6
CONTINUOUS
 62
     5
  5
200
 10
4270.308094
 20
2735.96147
 30
0.0
 40
20.600831
 50
180.000001
 51
270.000006
  0
LINE
  8
2
  6
CONTINUOUS
 62
     5
  5
201
 10
4270.308094
 20
2715.36064
 30
0.0
 11
4350.308094
 21
2715.36064
 31
0.0
  0
ARC
  8
2
  6
CONTINUOUS
 62
     5
  5
202
 10
4350.308094
 20
2735.96147
 30
0.0
 40
20.600831
 50
270.000006
 51
0.00001
  0
LINE
  8
2
  6
CONTINUOUS
 62
     5
  5
203
 10
4220.908925
 20
2665.96147
 30
0.0
 11
4220.908925
 21
2585.96147
 31
0.0
  0
ARC
  8
2
  6
CONTINUOUS
 62
     5
  5
204
 10
4200.308094
 20
2665.96147
 30
0.0
 40
20.600831
 50
0.00001
 51
90.000008
  0
LINE
  8
2
  6
CONTINUOUS
 62
     5
  5
205
 10
4120.308094
 20
2686.562301
 30
0.0
 11
4200.308094
 21
2686.562301
 31
0.0
  0
LINE
  8
2
  6
CONTINUOUS
 62
     5
  5
206
 10
4099.707263
 20
2665.96147
 30
0.0
 11
4099.707263
 21
2585.96147
 31
0.0
  0
ARC
  8
2
  6
CONTINUOUS
 62
     5
  5
207
 10
4120.308094
 20
2585.96147
 30
0.0
 40
20.600831
 50
180.000001
 51
270.000006
  0
LINE
  8
2
  6
CONTINUOUS
 62
     5
  5
208
 10
4120.308094
 20
2565.36064
 30
0.0
 11
4200.308094
 21
2565.36064
 31
0.0
  0
ARC
  8
2
  6
CONTINUOUS
 62
     5
  5
209
 10
4200.308094
 20
2585.96147
 30
0.0
 40
20.600831
 50
270.000006
 51
0.00001
  0
LINE
  8
2
  6
CONTINUOUS
 62
     5
  5
20A
 10
4220.908925
 20
2815.96147
 30
0.0
 11
4220.908925
 21
2735.96147
 31
0.0
  0
LINE
  8
2
  6
CONTINUOUS
 62
     5
  5
20B
 10
4099.707263
 20
2815.96147
 30
0.0
 11
4099.707263
 21
2735.96147
 31
0.0
  0
LINE
  8
2
  6
CONTINUOUS
 62
     5
  5
20C
 10
4120.308094
 20
2715.36064
 30
0.0
 11
4200.308094
 21
2715.36064
 31
0.0
  0
ARC
  8
2
  6
CONTINUOUS
 62
     5
  5
20D
 10
4200.308094
 20
2735.96147
 30
0.0
 40
20.600831
 50
270.000006
 51
0.00001
  0
ARC
  8
2
  6
CONTINUOUS
 62
     5
  5
20E
 10
4500.308094
 20
2665.96147
 30
0.0
 40
20.600831
 50
359.999999
 51
89.999997
  0
ARC
  8
2
  6
CONTINUOUS
 62
     5
  5
20F
 10
4500.308094
 20
2735.96147
 30
0.0
 40
20.600831
 50
269.999994
 51
359.999999
  0
ARC
  8
2
  6
CONTINUOUS
 62
     5
  5
210
 10
4500.308094
 20
2665.96147
 30
0.0
 40
20.600831
 50
0.000001
 51
90.000006
  0
ARC
  8
2
  6
CONTINUOUS
 62
     5
  5
211
 10
4500.308094
 20
2735.96147
 30
0.0
 40
20.600831
 50
270.000003
 51
0.000001
  0
ARC
  8
2
  6
CONTINUOUS
 62
     5
  5
212
 10
4500.308094
 20
2735.96147
 30
0.0
 40
20.600831
 50
269.999992
 51
359.99999
  0
ARC
  8
2
  6
CONTINUOUS
 62
     5
  5
213
 10
4500.308094
 20
2665.96147
 30
0.0
 40
20.600831
 50
359.99999
 51
89.999994
  0
ARC
  8
2
  6
CONTINUOUS
 62
     5
  5
214
 10
4500.308094
 20
2435.96147
 30
0.0
 40
20.600831
 50
270.000003
 51
0.000001
  0
ARC
  8
2
  6
CONTINUOUS
 62
     5
  5
215
 10
4500.308094
 20
2365.96147
 30
0.0
 40
20.600831
 50
0.000001
 51
90.000006
  0
ARC
  8
2
  6
CONTINUOUS
 62
     5
  5
216
 10
4500.308094
 20
2435.96147
 30
0.0
 40
20.600831
 50
269.999994
 51
359.999999
  0
ARC
  8
2
  6
CONTINUOUS
 62
     5
  5
217
 10
4500.308094
 20
2365.96147
 30
0.0
 40
20.600831
 50
359.999999
 51
89.999997
  0
ARC
  8
2
  6
CONTINUOUS
 62
     5
  5
218
 10
4500.308094
 20
2365.96147
 30
0.0
 40
20.600831
 50
0.00001
 51
90.000008
  0
ARC
  8
2
  6
CONTINUOUS
 62
     5
  5
219
 10
4500.308094
 20
2435.96147
 30
0.0
 40
20.600831
 50
270.000006
 51
0.00001
  0
ARC
  8
2
  6
CONTINUOUS
 62
     5
  5
21A
 10
4120.308094
 20
2665.96147
 30
0.0
 40
20.600831
 50
90.000003
 51
180.000001
  0
ARC
  8
2
  6
CONTINUOUS
 62
     5
  5
21B
 10
4120.308094
 20
2735.96147
 30
0.0
 40
20.600831
 50
180.000001
 51
270.000006
  0
ARC
  8
2
  6
CONTINUOUS
 62
     5
  5
21C
 10
4120.308094
 20
2665.96147
 30
0.0
 40
20.600831
 50
89.999994
 51
179.999999
  0
ARC
  8
2
  6
CONTINUOUS
 62
     5
  5
21D
 10
4120.308094
 20
2735.96147
 30
0.0
 40
20.600831
 50
179.999999
 51
269.999997
  0
ARC
  8
2
  6
CONTINUOUS
 62
     5
  5
21E
 10
4120.308094
 20
2735.96147
 30
0.0
 40
20.600831
 50
180.00001
 51
270.000008
  0
ARC
  8
2
  6
CONTINUOUS
 62
     5
  5
21F
 10
4120.308094
 20
2665.96147
 30
0.0
 40
20.600831
 50
90.000006
 51
180.00001
  0
ARC
  8
2
  6
CONTINUOUS
 62
     5
  5
220
 10
4120.308094
 20
2435.96147
 30
0.0
 40
20.600831
 50
179.999999
 51
269.999997
  0
ARC
  8
2
  6
CONTINUOUS
 62
     5
  5
221
 10
4120.308094
 20
2365.96147
 30
0.0
 40
20.600831
 50
89.999994
 51
179.999999
  0
ARC
  8
2
  6
CONTINUOUS
 62
     5
  5
222
 10
4120.308094
 20
2435.96147
 30
0.0
 40
20.600831
 50
180.000001
 51
270.000006
  0
ARC
  8
2
  6
CONTINUOUS
 62
     5
  5
223
 10
4120.308094
 20
2365.96147
 30
0.0
 40
20.600831
 50
90.000003
 51
180.000001
  0
ARC
  8
2
  6
CONTINUOUS
 62
     5
  5
224
 10
4120.308094
 20
2365.96147
 30
0.0
 40
20.600831
 50
89.999992
 51
179.99999
  0
ARC
  8
2
  6
CONTINUOUS
 62
     5
  5
225
 10
4120.308094
 20
2435.96147
 30
0.0
 40
20.600831
 50
179.99999
 51
269.999994
  0
ARC
  8
2
  6
CONTINUOUS
 62
     5
  5
226
 10
4200.308094
 20
2815.96147
 30
0.0
 40
20.600831
 50
0.00001
 51
90.0
  0
ARC
  8
2
  6
CONTINUOUS
 62
     5
  5
227
 10
4120.308094
 20
2815.96147
 30
0.0
 40
49.399169
 50
90.0
 51
180.000001
  0
LINE
  8
2
  6
CONTINUOUS
 62
     5
  5
228
 10
4200.308094
 20
2836.562301
 30
0.0
 11
4120.308092
 21
2836.562301
 31
0.0
  0
ARC
  8
2
  6
CONTINUOUS
 62
     5
  5
229
 10
4120.308094
 20
2815.96147
 30
0.0
 40
20.600831
 50
90.000005
 51
180.000001
  0
LINE
  8
2
  6
CONTINUOUS
 62
     5
  5
22A
 10
4420.308094
 20
2836.562301
 30
0.0
 11
4500.308096
 21
2836.562301
 31
0.0
  0
ARC
  8
2
  6
CONTINUOUS
 62
     5
  5
22B
 10
4500.308094
 20
2815.96147
 30
0.0
 40
20.600831
 50
0.00001
 51
89.999995
  0
LINE
  8
2
  6
CONTINUOUS
 62
     5
  5
22C
 10
4120.308094
 20
2865.36064
 30
0.0
 11
4500.308094
 21
2865.36064
 31
0.0
  0
ARC
  8
2
  6
CONTINUOUS
 62
     5
  5
22D
 10
4500.308094
 20
2815.96147
 30
0.0
 40
49.399169
 50
0.00001
 51
90.0
  0
LINE
  8
10
  6
CENTER
 62
     2
  5
22E
 10
4235.308094
 20
2250.96147
 30
0.0
 11
4235.308094
 21
2850.96147
 31
0.0
  0
LINE
  8
10
  6
CENTER
 62
     2
  5
22F
 10
4385.308094
 20
2250.96147
 30
0.0
 11
4385.308094
 21
2850.96147
 31
0.0
  0
LINE
  8
10
  6
CENTER
 62
     2
  5
230
 10
4535.308094
 20
2850.96147
 30
0.0
 11
4085.308094
 21
2850.96147
 31
0.0
  0
LINE
  8
10
  6
CENTER
 62
     2
  5
231
 10
4535.308094
 20
2850.96147
 30
0.0
 11
4535.308094
 21
2250.96147
 31
0.0
  0
LINE
  8
10
  6
CENTER
 62
     2
  5
232
 10
4535.308094
 20
2250.96147
 30
0.0
 11
4085.308094
 21
2250.96147
 31
0.0
  0
LINE
  8
10
  6
CENTER
 62
     2
  5
233
 10
4085.308094
 20
2850.96147
 30
0.0
 11
4085.308094
 21
2250.96147
 31
0.0
  0
LINE
  8
10
  6
CENTER
 62
     2
  5
234
 10
4085.308094
 20
2700.96147
 30
0.0
 11
4535.308094
 21
2700.96147
 31
0.0
  0
LINE
  8
10
  6
CENTER
 62
     2
  5
235
 10
4085.308094
 20
2400.96147
 30
0.0
 11
4535.308094
 21
2400.96147
 31
0.0
  0
LINE
  8
106
  6
CONTINUOUS
 62
     4
  5
236
 10
1480.308037
 20
6461.434726
 30
0.0
 11
5280.308094
 21
6461.434726
 31
0.0
  0
LINE
  8
106
  6
CONTINUOUS
 62
     4
  5
237
 10
1480.308037
 20
6461.434726
 30
0.0
 11
1480.308037
 21
6341.434724
 31
0.0
  0
LINE
  8
106
  6
CONTINUOUS
 62
     4
  5
238
 10
5280.308094
 20
6798.834731
 30
0.0
 11
5280.308094
 21
6461.434726
 31
0.0
  0
LINE
  8
106
  6
CONTINUOUS
 62
     4
  5
239
 10
680.308026
 20
7706.434744
 30
0.0
 11
5280.308094
 21
7706.434744
 31
0.0
  0
LINE
  8
106
  6
CONTINUOUS
 62
     4
  5
23A
 10
5280.308094
 20
7706.434744
 30
0.0
 11
5280.308094
 21
7398.83474
 31
0.0
  0
LINE
  8
106
  6
CONTINUOUS
 62
     4
  5
23B
 10
560.308024
 20
7916.434747
 30
0.0
 11
5460.308097
 21
7916.434747
 31
0.0
  0
LINE
  8
7
  6
CONTINUOUS
 62
     3
  5
23C
 10
4509.316542
 20
7691.40964
 30
0.0
 11
4474.257965
 21
7691.40964
 31
0.0
  0
LINE
  8
7
  6
CONTINUOUS
 62
     3
  5
23D
 10
4125.675538
 20
7706.434744
 30
0.0
 11
4125.675538
 21
7691.40964
 31
0.0
  0
LINE
  8
7
  6
CONTINUOUS
 62
     3
  5
23E
 10
4035.52491
 20
7691.40964
 30
0.0
 11
4035.52491
 21
7706.434744
 31
0.0
  0
LINE
  8
7
  6
CONTINUOUS
 62
     3
  5
23F
 10
4090.616961
 20
7691.40964
 30
0.0
 11
4090.616961
 21
7661.359431
 31
0.0
  0
LINE
  8
7
  6
CONTINUOUS
 62
     3
  5
240
 10
4070.583488
 20
7691.40964
 30
0.0
 11
4070.583488
 21
7661.359431
 31
0.0
  0
LINE
  8
40
  6
DOT
 62
     3
  5
241
 10
4503.791418
 20
7650.434394
 30
0.0
 11
4518.791438
 21
7650.434394
 31
0.0
  0
LINE
  8
40
  6
DOT
 62
     3
  5
242
 10
4503.791418
 20
7650.434394
 30
0.0
 11
4503.791418
 21
7656.434514
 31
0.0
  0
LINE
  8
40
  6
DOT
 62
     3
  5
243
 10
4518.791438
 20
7650.434394
 30
0.0
 11
4518.791438
 21
7656.434514
 31
0.0
  0
LINE
  8
40
  6
CONTINUOUS
 62
     4
  5
244
 10
4525.291358
 20
7656.434374
 30
0.0
 11
4525.291358
 21
7679.018707
 31
0.0
  0
LINE
  8
40
  6
CONTINUOUS
 62
     4
  5
245
 10
4525.291358
 20
7656.434514
 30
0.0
 11
4497.291358
 21
7656.434514
 31
0.0
  0
LINE
  8
40
  6
CONTINUOUS
 62
     4
  5
246
 10
4526.752258
 20
7686.434624
 30
0.0
 11
4495.929718
 21
7686.434624
 31
0.0
  0
LINE
  8
40
  6
CONTINUOUS
 62
     4
  5
247
 10
4489.686278
 20
7688.434594
 30
0.0
 11
4532.967278
 21
7688.434594
 31
0.0
  0
LINE
  8
40
  6
CONTINUOUS
 62
     4
  5
248
 10
4466.291438
 20
7706.434604
 30
0.0
 11
4466.291438
 21
7695.947694
 31
0.0
  0
LINE
  8
40
  6
CONTINUOUS
 62
     4
  5
249
 10
4556.291418
 20
7706.434604
 30
0.0
 11
4556.291418
 21
7695.919064
 31
0.0
  0
LINE
  8
40
  6
CONTINUOUS
 62
     4
  5
24A
 10
4555.545358
 20
7694.434644
 30
0.0
 11
4467.080898
 21
7694.434644
 31
0.0
  0
LINE
  8
1
  6
CONTINUOUS
 62
     4
  5
24B
 10
4478.980478
 20
7713.620664
 30
0.0
 11
4482.980558
 21
7714.315694
 31
0.0
  0
LINE
  8
1
  6
CONTINUOUS
 62
     4
  5
24C
 10
4478.980478
 20
7716.656984
 30
0.0
 11
4482.980558
 21
7717.366224
 31
0.0
  0
LINE
  8
1
  6
CONTINUOUS
 62
     4
  5
24D
 10
4478.980478
 20
7719.710104
 30
0.0
 11
4482.980558
 21
7720.419344
 31
0.0
  0
LINE
  8
1
  6
CONTINUOUS
 62
     4
  5
24E
 10
4478.980478
 20
7722.763224
 30
0.0
 11
4482.980558
 21
7723.472394
 31
0.0
  0
LINE
  8
1
  6
CONTINUOUS
 62
     4
  5
24F
 10
4478.980478
 20
7725.813684
 30
0.0
 11
4482.980558
 21
7726.508644
 31
0.0
  0
LINE
  8
1
  6
CONTINUOUS
 62
     4
  5
250
 10
4478.980478
 20
7728.849794
 30
0.0
 11
4482.980558
 21
7729.559034
 31
0.0
  0
LINE
  8
1
  6
CONTINUOUS
 62
     4
  5
251
 10
4482.585338
 20
7712.725504
 30
0.0
 11
4479.375698
 21
7712.157874
 31
0.0
  0
LINE
  8
1
  6
CONTINUOUS
 62
     4
  5
252
 10
4482.585338
 20
7715.758954
 30
0.0
 11
4479.375698
 21
7715.191394
 31
0.0
  0
LINE
  8
1
  6
CONTINUOUS
 62
     4
  5
253
 10
4482.585338
 20
7718.812074
 30
0.0
 11
4479.375698
 21
7718.244514
 31
0.0
  0
LINE
  8
1
  6
CONTINUOUS
 62
     4
  5
254
 10
4482.585338
 20
7721.865194
 30
0.0
 11
4479.375698
 21
7721.297704
 31
0.0
  0
LINE
  8
1
  6
CONTINUOUS
 62
     4
  5
255
 10
4482.585338
 20
7724.918384
 30
0.0
 11
4479.375698
 21
7724.350824
 31
0.0
  0
LINE
  8
1
  6
CONTINUOUS
 62
     4
  5
256
 10
4482.585338
 20
7727.951904
 30
0.0
 11
4479.375698
 21
7727.384344
 31
0.0
  0
LINE
  8
1
  6
CONTINUOUS
 62
     4
  5
257
 10
4482.585338
 20
7731.005024
 30
0.0
 11
4479.375698
 21
7730.437394
 31
0.0
  0
LINE
  8
1
  6
CONTINUOUS
 62
     4
  5
258
 10
4478.980478
 20
7710.569294
 30
0.0
 11
4482.980558
 21
7711.273494
 31
0.0
  0
LINE
  8
1
  6
CONTINUOUS
 62
     4
  5
259
 10
4480.980518
 20
7700.434624
 30
0.0
 11
4476.730538
 21
7700.434624
 31
0.0
  0
LINE
  8
1
  6
CONTINUOUS
 62
     4
  5
25A
 10
4478.980478
 20
7704.522764
 30
0.0
 11
4482.980558
 21
7705.232004
 31
0.0
  0
LINE
  8
1
  6
CONTINUOUS
 62
     4
  5
25B
 10
4478.980478
 20
7707.536614
 30
0.0
 11
4482.980558
 21
7708.245854
 31
0.0
  0
LINE
  8
1
  6
CONTINUOUS
 62
     4
  5
25C
 10
4482.585338
 20
7703.644334
 30
0.0
 11
4479.375698
 21
7703.076774
 31
0.0
  0
LINE
  8
1
  6
CONTINUOUS
 62
     4
  5
25D
 10
4482.585338
 20
7706.658254
 30
0.0
 11
4479.375698
 21
7706.090694
 31
0.0
  0
LINE
  8
1
  6
CONTINUOUS
 62
     4
  5
25E
 10
4482.585338
 20
7709.691844
 30
0.0
 11
4479.375698
 21
7709.124284
 31
0.0
  0
LINE
  8
1
  6
CONTINUOUS
 62
     4
  5
25F
 10
4478.377498
 20
7700.434624
 30
0.0
 11
4479.580518
 21
7701.637574
 31
0.0
  0
LINE
  8
1
  6
CONTINUOUS
 62
     4
  5
260
 10
4478.377498
 20
7700.434624
 30
0.0
 11
4476.730538
 21
7700.434624
 31
0.0
  0
LINE
  8
1
  6
CONTINUOUS
 62
     4
  5
261
 10
4483.583538
 20
7700.434624
 30
0.0
 11
4482.380518
 21
7701.637574
 31
0.0
  0
LINE
  8
1
  6
CONTINUOUS
 62
     4
  5
262
 10
4483.583538
 20
7700.434624
 30
0.0
 11
4485.230498
 21
7700.434624
 31
0.0
  0
LINE
  8
1
  6
CONTINUOUS
 62
     4
  5
263
 10
4482.585338
 20
7702.117774
 30
0.0
 11
4479.375698
 21
7701.550284
 31
0.0
  0
LINE
  8
1
  6
CONTINUOUS
 62
     4
  5
264
 10
4480.373758
 20
7696.943584
 30
0.0
 11
4481.587278
 21
7696.943584
 31
0.0
  0
LINE
  8
1
  6
CONTINUOUS
 62
     4
  5
265
 10
4480.373758
 20
7696.434614
 30
0.0
 11
4480.373758
 21
7696.943584
 31
0.0
  0
LINE
  8
1
  6
CONTINUOUS
 62
     4
  5
266
 10
4481.587278
 20
7696.434614
 30
0.0
 11
4481.587278
 21
7696.943584
 31
0.0
  0
LINE
  8
1
  6
CONTINUOUS
 62
     4
  5
267
 10
4480.373758
 20
7696.434614
 30
0.0
 11
4481.587278
 21
7696.434614
 31
0.0
  0
LINE
  8
1
  6
CONTINUOUS
 62
     4
  5
268
 10
4478.980478
 20
7731.902914
 30
0.0
 11
4482.980558
 21
7732.612154
 31
0.0
  0
LINE
  8
1
  6
CONTINUOUS
 62
     4
  5
269
 10
4482.371838
 20
7735.557334
 30
0.0
 11
4479.486858
 21
7735.045774
 31
0.0
  0
LINE
  8
1
  6
CONTINUOUS
 62
     4
  5
26A
 10
4482.585338
 20
7734.058074
 30
0.0
 11
4479.375698
 21
7733.490514
 31
0.0
  0
LINE
  8
1
  6
CONTINUOUS
 62
     4
  5
26B
 10
4482.078958
 20
7737.021594
 30
0.0
 11
4479.801578
 21
7736.618954
 31
0.0
  0
LINE
  8
1
  6
CONTINUOUS
 62
     4
  5
26C
 10
4539.602298
 20
7713.620664
 30
0.0
 11
4543.602238
 21
7714.315694
 31
0.0
  0
LINE
  8
1
  6
CONTINUOUS
 62
     4
  5
26D
 10
4539.602298
 20
7716.656984
 30
0.0
 11
4543.602238
 21
7717.366224
 31
0.0
  0
LINE
  8
1
  6
CONTINUOUS
 62
     4
  5
26E
 10
4539.602298
 20
7719.710104
 30
0.0
 11
4543.602238
 21
7720.419344
 31
0.0
  0
LINE
  8
1
  6
CONTINUOUS
 62
     4
  5
26F
 10
4539.602298
 20
7722.763224
 30
0.0
 11
4543.602238
 21
7723.472394
 31
0.0
  0
LINE
  8
1
  6
CONTINUOUS
 62
     4
  5
270
 10
4539.602298
 20
7725.813684
 30
0.0
 11
4543.602238
 21
7726.508644
 31
0.0
  0
LINE
  8
1
  6
CONTINUOUS
 62
     4
  5
271
 10
4539.602298
 20
7728.849794
 30
0.0
 11
4543.602238
 21
7729.559034
 31
0.0
  0
LINE
  8
1
  6
CONTINUOUS
 62
     4
  5
272
 10
4543.207158
 20
7712.725504
 30
0.0
 11
4539.997378
 21
7712.157874
 31
0.0
  0
LINE
  8
1
  6
CONTINUOUS
 62
     4
  5
273
 10
4543.207158
 20
7715.758954
 30
0.0
 11
4539.997378
 21
7715.191394
 31
0.0
  0
LINE
  8
1
  6
CONTINUOUS
 62
     4
  5
274
 10
4543.207158
 20
7718.812074
 30
0.0
 11
4539.997378
 21
7718.244514
 31
0.0
  0
LINE
  8
1
  6
CONTINUOUS
 62
     4
  5
275
 10
4543.207158
 20
7721.865194
 30
0.0
 11
4539.997378
 21
7721.297704
 31
0.0
  0
LINE
  8
1
  6
CONTINUOUS
 62
     4
  5
276
 10
4543.207158
 20
7724.918384
 30
0.0
 11
4539.997378
 21
7724.350824
 31
0.0
  0
LINE
  8
1
  6
CONTINUOUS
 62
     4
  5
277
 10
4543.207158
 20
7727.951904
 30
0.0
 11
4539.997378
 21
7727.384344
 31
0.0
  0
LINE
  8
1
  6
CONTINUOUS
 62
     4
  5
278
 10
4543.207158
 20
7731.005024
 30
0.0
 11
4539.997378
 21
7730.437394
 31
0.0
  0
LINE
  8
1
  6
CONTINUOUS
 62
     4
  5
279
 10
4539.602298
 20
7710.569294
 30
0.0
 11
4543.602238
 21
7711.273494
 31
0.0
  0
LINE
  8
1
  6
CONTINUOUS
 62
     4
  5
27A
 10
4541.602338
 20
7700.434624
 30
0.0
 11
4537.352218
 21
7700.434624
 31
0.0
  0
LINE
  8
1
  6
CONTINUOUS
 62
     4
  5
27B
 10
4539.602298
 20
7704.522764
 30
0.0
 11
4543.602238
 21
7705.232004
 31
0.0
  0
LINE
  8
1
  6
CONTINUOUS
 62
     4
  5
27C
 10
4539.602298
 20
7707.536614
 30
0.0
 11
4543.602238
 21
7708.245854
 31
0.0
  0
LINE
  8
1
  6
CONTINUOUS
 62
     4
  5
27D
 10
4543.207158
 20
7703.644334
 30
0.0
 11
4539.997378
 21
7703.076774
 31
0.0
  0
LINE
  8
1
  6
CONTINUOUS
 62
     4
  5
27E
 10
4543.207158
 20
7706.658254
 30
0.0
 11
4539.997378
 21
7706.090694
 31
0.0
  0
LINE
  8
1
  6
CONTINUOUS
 62
     4
  5
27F
 10
4543.207158
 20
7709.691844
 30
0.0
 11
4539.997378
 21
7709.124284
 31
0.0
  0
LINE
  8
1
  6
CONTINUOUS
 62
     4
  5
280
 10
4538.999318
 20
7700.434624
 30
0.0
 11
4540.202338
 21
7701.637574
 31
0.0
  0
LINE
  8
1
  6
CONTINUOUS
 62
     4
  5
281
 10
4538.999318
 20
7700.434624
 30
0.0
 11
4537.352218
 21
7700.434624
 31
0.0
  0
LINE
  8
1
  6
CONTINUOUS
 62
     4
  5
282
 10
4544.205218
 20
7700.434624
 30
0.0
 11
4543.002338
 21
7701.637574
 31
0.0
  0
LINE
  8
1
  6
CONTINUOUS
 62
     4
  5
283
 10
4544.205218
 20
7700.434624
 30
0.0
 11
4545.852318
 21
7700.434624
 31
0.0
  0
LINE
  8
1
  6
CONTINUOUS
 62
     4
  5
284
 10
4543.207158
 20
7702.117774
 30
0.0
 11
4539.997378
 21
7701.550284
 31
0.0
  0
LINE
  8
1
  6
CONTINUOUS
 62
     4
  5
285
 10
4540.995578
 20
7696.943584
 30
0.0
 11
4542.208958
 21
7696.943584
 31
0.0
  0
LINE
  8
1
  6
CONTINUOUS
 62
     4
  5
286
 10
4540.995578
 20
7696.434614
 30
0.0
 11
4540.995578
 21
7696.943584
 31
0.0
  0
LINE
  8
1
  6
CONTINUOUS
 62
     4
  5
287
 10
4542.208958
 20
7696.434614
 30
0.0
 11
4542.208958
 21
7696.943584
 31
0.0
  0
LINE
  8
1
  6
CONTINUOUS
 62
     4
  5
288
 10
4540.995578
 20
7696.434614
 30
0.0
 11
4542.208958
 21
7696.434614
 31
0.0
  0
LINE
  8
1
  6
CONTINUOUS
 62
     4
  5
289
 10
4539.602298
 20
7731.902914
 30
0.0
 11
4543.602238
 21
7732.612154
 31
0.0
  0
LINE
  8
1
  6
CONTINUOUS
 62
     4
  5
28A
 10
4542.993518
 20
7735.557334
 30
0.0
 11
4540.108678
 21
7735.045774
 31
0.0
  0
LINE
  8
1
  6
CONTINUOUS
 62
     4
  5
28B
 10
4543.207158
 20
7734.058074
 30
0.0
 11
4539.997378
 21
7733.490514
 31
0.0
  0
LINE
  8
1
  6
CONTINUOUS
 62
     4
  5
28C
 10
4542.700778
 20
7737.021594
 30
0.0
 11
4540.423258
 21
7736.618954
 31
0.0
  0
LINE
  8
40
  6
CONTINUOUS
 62
     4
  5
28D
 10
4556.266358
 20
7706.434604
 30
0.0
 11
4556.266358
 21
7695.919064
 31
0.0
  0
LINE
  8
40
  6
CONTINUOUS
 62
     4
  5
28E
 10
4553.766378
 20
7693.802124
 30
0.0
 11
4553.766378
 21
7701.434644
 31
0.0
  0
LINE
  8
40
  6
CONTINUOUS
 62
     4
  5
28F
 10
4493.561338
 20
7687.434644
 30
0.0
 11
4529.092358
 21
7687.434644
 31
0.0
  0
LINE
  8
40
  6
CONTINUOUS
 62
     4
  5
290
 10
4497.291358
 20
7686.434624
 30
0.0
 11
4525.291358
 21
7686.434624
 31
0.0
  0
LINE
  8
40
  6
CONTINUOUS
 62
     4
  5
291
 10
4525.875718
 20
7685.434604
 30
0.0
 11
4496.775318
 21
7685.434604
 31
0.0
  0
LINE
  8
40
  6
CONTINUOUS
 62
     4
  5
292
 10
4525.437378
 20
7684.434514
 30
0.0
 11
4497.172218
 21
7684.434514
 31
0.0
  0
LINE
  8
12
  6
CONTINUOUS
 62
     4
  5
293
 10
4534.678358
 20
7701.434644
 30
0.0
 11
4556.291418
 21
7701.434644
 31
0.0
  0
LINE
  8
12
  6
CONTINUOUS
 62
     4
  5
294
 10
4468.791418
 20
7693.826904
 30
0.0
 11
4468.791418
 21
7701.434644
 31
0.0
  0
LINE
  8
12
  6
CONTINUOUS
 62
     4
  5
295
 10
4489.640778
 20
7688.446424
 30
0.0
 11
4489.640778
 21
7688.416884
 31
0.0
  0
LINE
  8
12
  6
CONTINUOUS
 62
     4
  5
296
 10
4487.922838
 20
7688.889664
 30
0.0
 11
4487.922838
 21
7701.434644
 31
0.0
  0
LINE
  8
12
  6
CONTINUOUS
 62
     4
  5
297
 10
4489.634618
 20
7688.541904
 30
0.0
 11
4488.009918
 21
7701.539924
 31
0.0
  0
LINE
  8
12
  6
CONTINUOUS
 62
     4
  5
298
 10
4532.960558
 20
7688.341004
 30
0.0
 11
4532.960558
 21
7688.311534
 31
0.0
  0
LINE
  8
12
  6
CONTINUOUS
 62
     4
  5
299
 10
4534.678358
 20
7688.784314
 30
0.0
 11
4534.678358
 21
7701.329364
 31
0.0
  0
LINE
  8
12
  6
CONTINUOUS
 62
     4
  5
29A
 10
4532.966718
 20
7688.436624
 30
0.0
 11
4534.591418
 21
7701.434644
 31
0.0
  0
LINE
  8
12
  6
CONTINUOUS
 62
     4
  5
29B
 10
4488.023078
 20
7701.434644
 30
0.0
 11
4468.791418
 21
7701.434644
 31
0.0
  0
LINE
  8
12
  6
CONTINUOUS
 62
     4
  5
29C
 10
4488.023078
 20
7700.434624
 30
0.0
 11
4468.791418
 21
7700.434624
 31
0.0
  0
LINE
  8
12
  6
CONTINUOUS
 62
     4
  5
29D
 10
4534.678358
 20
7700.434624
 30
0.0
 11
4556.291418
 21
7700.434624
 31
0.0
  0
LINE
  8
12
  6
CONTINUOUS
 62
     4
  5
29E
 10
4485.230498
 20
7700.434624
 30
0.0
 11
4476.730538
 21
7700.434624
 31
0.0
  0
LINE
  8
12
  6
CONTINUOUS
 62
     4
  5
29F
 10
4476.730538
 20
7700.434624
 30
0.0
 11
4476.730538
 21
7697.434634
 31
0.0
  0
LINE
  8
12
  6
CONTINUOUS
 62
     4
  5
2A0
 10
4485.230498
 20
7700.434624
 30
0.0
 11
4485.230498
 21
7697.434634
 31
0.0
  0
LINE
  8
12
  6
CONTINUOUS
 62
     4
  5
2A1
 10
4485.230498
 20
7697.434634
 30
0.0
 11
4485.230498
 21
7700.434624
 31
0.0
  0
LINE
  8
12
  6
CONTINUOUS
 62
     4
  5
2A2
 10
4476.730538
 20
7697.434634
 30
0.0
 11
4476.730538
 21
7700.434624
 31
0.0
  0
LINE
  8
12
  6
CONTINUOUS
 62
     4
  5
2A3
 10
4476.730538
 20
7697.434634
 30
0.0
 11
4485.230498
 21
7697.434634
 31
0.0
  0
ARC
  8
12
  6
CONTINUOUS
 62
     4
  5
2A4
 10
4480.980518
 20
7705.965884
 30
0.0
 40
9.53134
 50
243.51896
 51
296.48104
  0
LINE
  8
12
  6
CONTINUOUS
 62
     4
  5
2A5
 10
4482.380518
 20
7700.434624
 30
0.0
 11
4482.380518
 21
7731.434614
 31
0.0
  0
LINE
  8
12
  6
CONTINUOUS
 62
     4
  5
2A6
 10
4479.580518
 20
7700.434624
 30
0.0
 11
4479.580518
 21
7731.434614
 31
0.0
  0
LINE
  8
12
  6
CONTINUOUS
 62
     4
  5
2A7
 10
4482.380518
 20
7731.434614
 30
0.0
 11
4479.580518
 21
7731.434614
 31
0.0
  0
LINE
  8
12
  6
CONTINUOUS
 62
     4
  5
2A8
 10
4480.980518
 20
7738.434614
 30
0.0
 11
4479.580518
 21
7731.434614
 31
0.0
  0
LINE
  8
12
  6
CONTINUOUS
 62
     4
  5
2A9
 10
4480.980518
 20
7738.434614
 30
0.0
 11
4482.380518
 21
7731.434614
 31
0.0
  0
LINE
  8
12
  6
CENTER
 62
     4
  5
2AA
 10
4480.980518
 20
7697.434634
 30
0.0
 11
4480.980518
 21
7738.434614
 31
0.0
  0
LINE
  8
12
  6
CENTER
 62
     4
  5
2AB
 10
4480.980518
 20
7738.434614
 30
0.0
 11
4480.980518
 21
7698.927594
 31
0.0
  0
LINE
  8
12
  6
CONTINUOUS
 62
     4
  5
2AC
 10
4545.852318
 20
7700.434624
 30
0.0
 11
4537.352218
 21
7700.434624
 31
0.0
  0
LINE
  8
12
  6
CONTINUOUS
 62
     4
  5
2AD
 10
4537.352218
 20
7700.434624
 30
0.0
 11
4537.352218
 21
7697.434634
 31
0.0
  0
LINE
  8
12
  6
CONTINUOUS
 62
     4
  5
2AE
 10
4545.852318
 20
7700.434624
 30
0.0
 11
4545.852318
 21
7697.434634
 31
0.0
  0
LINE
  8
12
  6
CONTINUOUS
 62
     4
  5
2AF
 10
4545.852318
 20
7697.434634
 30
0.0
 11
4545.852318
 21
7700.434624
 31
0.0
  0
LINE
  8
12
  6
CONTINUOUS
 62
     4
  5
2B0
 10
4537.352218
 20
7697.434634
 30
0.0
 11
4537.352218
 21
7700.434624
 31
0.0
  0
LINE
  8
12
  6
CONTINUOUS
 62
     4
  5
2B1
 10
4537.352218
 20
7697.434634
 30
0.0
 11
4545.852318
 21
7697.434634
 31
0.0
  0
ARC
  8
12
  6
CONTINUOUS
 62
     4
  5
2B2
 10
4541.602338
 20
7705.965884
 30
0.0
 40
9.53134
 50
243.51896
 51
296.48104
  0
LINE
  8
12
  6
CONTINUOUS
 62
     4
  5
2B3
 10
4543.002338
 20
7700.434624
 30
0.0
 11
4543.002338
 21
7731.434614
 31
0.0
  0
LINE
  8
12
  6
CONTINUOUS
 62
     4
  5
2B4
 10
4540.202338
 20
7700.434624
 30
0.0
 11
4540.202338
 21
7731.434614
 31
0.0
  0
LINE
  8
12
  6
CONTINUOUS
 62
     4
  5
2B5
 10
4543.002338
 20
7731.434614
 30
0.0
 11
4540.202338
 21
7731.434614
 31
0.0
  0
LINE
  8
12
  6
CONTINUOUS
 62
     4
  5
2B6
 10
4541.602338
 20
7738.434614
 30
0.0
 11
4540.202338
 21
7731.434614
 31
0.0
  0
LINE
  8
12
  6
CONTINUOUS
 62
     4
  5
2B7
 10
4541.602338
 20
7738.434614
 30
0.0
 11
4543.002338
 21
7731.434614
 31
0.0
  0
LINE
  8
12
  6
CENTER
 62
     4
  5
2B8
 10
4541.602338
 20
7697.434634
 30
0.0
 11
4541.602338
 21
7738.434614
 31
0.0
  0
LINE
  8
12
  6
CENTER
 62
     4
  5
2B9
 10
4541.602338
 20
7738.434614
 30
0.0
 11
4541.602338
 21
7698.927594
 31
0.0
  0
LINE
  8
12
  6
CONTINUOUS
 62
     4
  5
2BA
 10
4486.689018
 20
7700.681864
 30
0.0
 11
4475.188998
 21
7700.681864
 31
0.0
  0
LINE
  8
12
  6
CONTINUOUS
 62
     4
  5
2BB
 10
4486.689018
 20
7701.481754
 30
0.0
 11
4475.188998
 21
7701.481754
 31
0.0
  0
LINE
  8
12
  6
CONTINUOUS
 62
     4
  5
2BC
 10
4486.689018
 20
7700.681864
 30
0.0
 11
4486.689018
 21
7701.481754
 31
0.0
  0
LINE
  8
12
  6
CONTINUOUS
 62
     4
  5
2BD
 10
4483.689098
 20
7700.681864
 30
0.0
 11
4483.689098
 21
7701.481754
 31
0.0
  0
LINE
  8
12
  6
CONTINUOUS
 62
     4
  5
2BE
 10
4478.189058
 20
7700.681864
 30
0.0
 11
4478.189058
 21
7701.481754
 31
0.0
  0
LINE
  8
12
  6
CONTINUOUS
 62
     4
  5
2BF
 10
4475.188998
 20
7700.681864
 30
0.0
 11
4475.188998
 21
7701.481754
 31
0.0
  0
LINE
  8
12
  6
CONTINUOUS
 62
     4
  5
2C0
 10
4547.307198
 20
7700.681864
 30
0.0
 11
4535.807178
 21
7700.681864
 31
0.0
  0
LINE
  8
12
  6
CONTINUOUS
 62
     4
  5
2C1
 10
4547.307198
 20
7701.481754
 30
0.0
 11
4535.807178
 21
7701.481754
 31
0.0
  0
LINE
  8
12
  6
CONTINUOUS
 62
     4
  5
2C2
 10
4547.307198
 20
7700.681864
 30
0.0
 11
4547.307198
 21
7701.481754
 31
0.0
  0
LINE
  8
12
  6
CONTINUOUS
 62
     4
  5
2C3
 10
4544.307138
 20
7700.681864
 30
0.0
 11
4544.307138
 21
7701.481754
 31
0.0
  0
LINE
  8
12
  6
CONTINUOUS
 62
     4
  5
2C4
 10
4538.807098
 20
7700.681864
 30
0.0
 11
4538.807098
 21
7701.481754
 31
0.0
  0
LINE
  8
12
  6
CONTINUOUS
 62
     4
  5
2C5
 10
4535.807178
 20
7700.681864
 30
0.0
 11
4535.807178
 21
7701.481754
 31
0.0
  0
ARC
  8
8
  6
CONTINUOUS
 62
     4
  5
2C6
 10
4493.323618
 20
7683.398654
 30
0.0
 40
4.00008
 50
0.0
 51
75.529706
  0
LINE
  8
50
  6
CENTER
 62
     4
  5
2C7
 10
4480.939078
 20
7700.681864
 30
0.0
 11
4480.939078
 21
7702.803844
 31
0.0
  0
LINE
  8
50
  6
CENTER
 62
     4
  5
2C8
 10
4541.557118
 20
7700.681864
 30
0.0
 11
4541.557118
 21
7702.803844
 31
0.0
  0
ARC
  8
8
  6
CONTINUOUS
 62
     4
  5
2C9
 10
4529.285838
 20
7683.347764
 30
0.0
 40
4.00008
 50
104.470294
 51
180.0
  0
LINE
  8
40
  6
CONTINUOUS
 62
     4
  5
2CA
 10
4497.291358
 20
7656.434374
 30
0.0
 11
4497.291358
 21
7679.018707
 31
0.0
  0
LINE
  8
40
  6
DOT
 62
     3
  5
2CB
 10
4073.02489
 20
7650.434534
 30
0.0
 11
4088.02491
 21
7650.434534
 31
0.0
  0
LINE
  8
40
  6
DOT
 62
     3
  5
2CC
 10
4073.02489
 20
7650.434534
 30
0.0
 11
4073.02489
 21
7656.434654
 31
0.0
  0
LINE
  8
40
  6
DOT
 62
     3
  5
2CD
 10
4088.02491
 20
7650.434534
 30
0.0
 11
4088.02491
 21
7656.434654
 31
0.0
  0
LINE
  8
40
  6
CONTINUOUS
 62
     4
  5
2CE
 10
4094.52483
 20
7656.434514
 30
0.0
 11
4094.52483
 21
7679.018847
 31
0.0
  0
LINE
  8
40
  6
CONTINUOUS
 62
     4
  5
2CF
 10
4094.52483
 20
7656.434654
 30
0.0
 11
4066.52483
 21
7656.434654
 31
0.0
  0
LINE
  8
40
  6
CONTINUOUS
 62
     4
  5
2D0
 10
4095.98573
 20
7686.434764
 30
0.0
 11
4065.16319
 21
7686.434764
 31
0.0
  0
LINE
  8
40
  6
CONTINUOUS
 62
     4
  5
2D1
 10
4058.91975
 20
7688.434734
 30
0.0
 11
4102.20075
 21
7688.434734
 31
0.0
  0
LINE
  8
40
  6
CONTINUOUS
 62
     4
  5
2D2
 10
4035.52491
 20
7706.434744
 30
0.0
 11
4035.52491
 21
7695.947834
 31
0.0
  0
LINE
  8
40
  6
CONTINUOUS
 62
     4
  5
2D3
 10
4125.52489
 20
7706.434744
 30
0.0
 11
4125.52489
 21
7695.919204
 31
0.0
  0
LINE
  8
40
  6
CONTINUOUS
 62
     4
  5
2D4
 10
4124.77883
 20
7694.434784
 30
0.0
 11
4036.31437
 21
7694.434784
 31
0.0
  0
ARC
  8
40
  6
CONTINUOUS
 62
     4
  5
2D5
 10
4037.52481
 20
7696.050524
 30
0.0
 40
2.00004
 50
180.0
 51
255.529705
  0
ARC
  8
40
  6
CONTINUOUS
 62
     4
  5
2D6
 10
4123.52317
 20
7696.007474
 30
0.0
 40
2.00004
 50
284.069648
 51
0.0
  0
LINE
  8
1
  6
CONTINUOUS
 62
     4
  5
2D7
 10
4048.21395
 20
7713.620804
 30
0.0
 11
4052.21403
 21
7714.315834
 31
0.0
  0
LINE
  8
1
  6
CONTINUOUS
 62
     4
  5
2D8
 10
4048.21395
 20
7716.657124
 30
0.0
 11
4052.21403
 21
7717.366364
 31
0.0
  0
LINE
  8
1
  6
CONTINUOUS
 62
     4
  5
2D9
 10
4048.21395
 20
7719.710244
 30
0.0
 11
4052.21403
 21
7720.419484
 31
0.0
  0
LINE
  8
1
  6
CONTINUOUS
 62
     4
  5
2DA
 10
4048.21395
 20
7722.763364
 30
0.0
 11
4052.21403
 21
7723.472534
 31
0.0
  0
LINE
  8
1
  6
CONTINUOUS
 62
     4
  5
2DB
 10
4048.21395
 20
7725.813824
 30
0.0
 11
4052.21403
 21
7726.508784
 31
0.0
  0
LINE
  8
1
  6
CONTINUOUS
 62
     4
  5
2DC
 10
4048.21395
 20
7728.849934
 30
0.0
 11
4052.21403
 21
7729.559174
 31
0.0
  0
LINE
  8
1
  6
CONTINUOUS
 62
     4
  5
2DD
 10
4051.81881
 20
7712.725644
 30
0.0
 11
4048.60917
 21
7712.158014
 31
0.0
  0
LINE
  8
1
  6
CONTINUOUS
 62
     4
  5
2DE
 10
4051.81881
 20
7715.759094
 30
0.0
 11
4048.60917
 21
7715.191534
 31
0.0
  0
LINE
  8
1
  6
CONTINUOUS
 62
     4
  5
2DF
 10
4051.81881
 20
7718.812214
 30
0.0
 11
4048.60917
 21
7718.244654
 31
0.0
  0
LINE
  8
1
  6
CONTINUOUS
 62
     4
  5
2E0
 10
4051.81881
 20
7721.865334
 30
0.0
 11
4048.60917
 21
7721.297844
 31
0.0
  0
LINE
  8
1
  6
CONTINUOUS
 62
     4
  5
2E1
 10
4051.81881
 20
7724.918524
 30
0.0
 11
4048.60917
 21
7724.350964
 31
0.0
  0
LINE
  8
1
  6
CONTINUOUS
 62
     4
  5
2E2
 10
4051.81881
 20
7727.952044
 30
0.0
 11
4048.60917
 21
7727.384484
 31
0.0
  0
LINE
  8
1
  6
CONTINUOUS
 62
     4
  5
2E3
 10
4051.81881
 20
7731.005164
 30
0.0
 11
4048.60917
 21
7730.437534
 31
0.0
  0
LINE
  8
1
  6
CONTINUOUS
 62
     4
  5
2E4
 10
4048.21395
 20
7710.569434
 30
0.0
 11
4052.21403
 21
7711.273634
 31
0.0
  0
LINE
  8
1
  6
CONTINUOUS
 62
     4
  5
2E5
 10
4050.21399
 20
7700.434764
 30
0.0
 11
4045.96401
 21
7700.434764
 31
0.0
  0
LINE
  8
1
  6
CONTINUOUS
 62
     4
  5
2E6
 10
4048.21395
 20
7704.522904
 30
0.0
 11
4052.21403
 21
7705.232144
 31
0.0
  0
LINE
  8
1
  6
CONTINUOUS
 62
     4
  5
2E7
 10
4048.21395
 20
7707.536754
 30
0.0
 11
4052.21403
 21
7708.245994
 31
0.0
  0
LINE
  8
1
  6
CONTINUOUS
 62
     4
  5
2E8
 10
4051.81881
 20
7703.644474
 30
0.0
 11
4048.60917
 21
7703.076914
 31
0.0
  0
LINE
  8
1
  6
CONTINUOUS
 62
     4
  5
2E9
 10
4051.81881
 20
7706.658394
 30
0.0
 11
4048.60917
 21
7706.090834
 31
0.0
  0
LINE
  8
1
  6
CONTINUOUS
 62
     4
  5
2EA
 10
4051.81881
 20
7709.691984
 30
0.0
 11
4048.60917
 21
7709.124424
 31
0.0
  0
LINE
  8
1
  6
CONTINUOUS
 62
     4
  5
2EB
 10
4047.61097
 20
7700.434764
 30
0.0
 11
4048.81399
 21
7701.637714
 31
0.0
  0
LINE
  8
1
  6
CONTINUOUS
 62
     4
  5
2EC
 10
4047.61097
 20
7700.434764
 30
0.0
 11
4045.96401
 21
7700.434764
 31
0.0
  0
LINE
  8
1
  6
CONTINUOUS
 62
     4
  5
2ED
 10
4052.81701
 20
7700.434764
 30
0.0
 11
4051.61399
 21
7701.637714
 31
0.0
  0
LINE
  8
1
  6
CONTINUOUS
 62
     4
  5
2EE
 10
4052.81701
 20
7700.434764
 30
0.0
 11
4054.46397
 21
7700.434764
 31
0.0
  0
LINE
  8
1
  6
CONTINUOUS
 62
     4
  5
2EF
 10
4051.81881
 20
7702.117914
 30
0.0
 11
4048.60917
 21
7701.550424
 31
0.0
  0
LINE
  8
1
  6
CONTINUOUS
 62
     4
  5
2F0
 10
4049.60723
 20
7696.943724
 30
0.0
 11
4050.82075
 21
7696.943724
 31
0.0
  0
LINE
  8
1
  6
CONTINUOUS
 62
     4
  5
2F1
 10
4049.60723
 20
7696.434754
 30
0.0
 11
4049.60723
 21
7696.943724
 31
0.0
  0
LINE
  8
1
  6
CONTINUOUS
 62
     4
  5
2F2
 10
4050.82075
 20
7696.434754
 30
0.0
 11
4050.82075
 21
7696.943724
 31
0.0
  0
LINE
  8
1
  6
CONTINUOUS
 62
     4
  5
2F3
 10
4049.60723
 20
7696.434754
 30
0.0
 11
4050.82075
 21
7696.434754
 31
0.0
  0
LINE
  8
1
  6
CONTINUOUS
 62
     4
  5
2F4
 10
4048.21395
 20
7731.903054
 30
0.0
 11
4052.21403
 21
7732.612294
 31
0.0
  0
LINE
  8
1
  6
CONTINUOUS
 62
     4
  5
2F5
 10
4051.60531
 20
7735.557474
 30
0.0
 11
4048.72033
 21
7735.045914
 31
0.0
  0
LINE
  8
1
  6
CONTINUOUS
 62
     4
  5
2F6
 10
4051.81881
 20
7734.058214
 30
0.0
 11
4048.60917
 21
7733.490654
 31
0.0
  0
LINE
  8
1
  6
CONTINUOUS
 62
     4
  5
2F7
 10
4051.31243
 20
7737.021734
 30
0.0
 11
4049.03505
 21
7736.619094
 31
0.0
  0
LINE
  8
1
  6
CONTINUOUS
 62
     4
  5
2F8
 10
4108.83577
 20
7713.620804
 30
0.0
 11
4112.83571
 21
7714.315834
 31
0.0
  0
LINE
  8
1
  6
CONTINUOUS
 62
     4
  5
2F9
 10
4108.83577
 20
7716.657124
 30
0.0
 11
4112.83571
 21
7717.366364
 31
0.0
  0
LINE
  8
1
  6
CONTINUOUS
 62
     4
  5
2FA
 10
4108.83577
 20
7719.710244
 30
0.0
 11
4112.83571
 21
7720.419484
 31
0.0
  0
LINE
  8
1
  6
CONTINUOUS
 62
     4
  5
2FB
 10
4108.83577
 20
7722.763364
 30
0.0
 11
4112.83571
 21
7723.472534
 31
0.0
  0
LINE
  8
1
  6
CONTINUOUS
 62
     4
  5
2FC
 10
4108.83577
 20
7725.813824
 30
0.0
 11
4112.83571
 21
7726.508784
 31
0.0
  0
LINE
  8
1
  6
CONTINUOUS
 62
     4
  5
2FD
 10
4108.83577
 20
7728.849934
 30
0.0
 11
4112.83571
 21
7729.559174
 31
0.0
  0
LINE
  8
1
  6
CONTINUOUS
 62
     4
  5
2FE
 10
4112.44063
 20
7712.725644
 30
0.0
 11
4109.23085
 21
7712.158014
 31
0.0
  0
LINE
  8
1
  6
CONTINUOUS
 62
     4
  5
2FF
 10
4112.44063
 20
7715.759094
 30
0.0
 11
4109.23085
 21
7715.191534
 31
0.0
  0
LINE
  8
1
  6
CONTINUOUS
 62
     4
  5
300
 10
4112.44063
 20
7718.812214
 30
0.0
 11
4109.23085
 21
7718.244654
 31
0.0
  0
LINE
  8
1
  6
CONTINUOUS
 62
     4
  5
301
 10
4112.44063
 20
7721.865334
 30
0.0
 11
4109.23085
 21
7721.297844
 31
0.0
  0
LINE
  8
1
  6
CONTINUOUS
 62
     4
  5
302
 10
4112.44063
 20
7724.918524
 30
0.0
 11
4109.23085
 21
7724.350964
 31
0.0
  0
LINE
  8
1
  6
CONTINUOUS
 62
     4
  5
303
 10
4112.44063
 20
7727.952044
 30
0.0
 11
4109.23085
 21
7727.384484
 31
0.0
  0
LINE
  8
1
  6
CONTINUOUS
 62
     4
  5
304
 10
4112.44063
 20
7731.005164
 30
0.0
 11
4109.23085
 21
7730.437534
 31
0.0
  0
LINE
  8
1
  6
CONTINUOUS
 62
     4
  5
305
 10
4108.83577
 20
7710.569434
 30
0.0
 11
4112.83571
 21
7711.273634
 31
0.0
  0
LINE
  8
1
  6
CONTINUOUS
 62
     4
  5
306
 10
4110.83581
 20
7700.434764
 30
0.0
 11
4106.58569
 21
7700.434764
 31
0.0
  0
LINE
  8
1
  6
CONTINUOUS
 62
     4
  5
307
 10
4108.83577
 20
7704.522904
 30
0.0
 11
4112.83571
 21
7705.232144
 31
0.0
  0
LINE
  8
1
  6
CONTINUOUS
 62
     4
  5
308
 10
4108.83577
 20
7707.536754
 30
0.0
 11
4112.83571
 21
7708.245994
 31
0.0
  0
LINE
  8
1
  6
CONTINUOUS
 62
     4
  5
309
 10
4112.44063
 20
7703.644474
 30
0.0
 11
4109.23085
 21
7703.076914
 31
0.0
  0
LINE
  8
1
  6
CONTINUOUS
 62
     4
  5
30A
 10
4112.44063
 20
7706.658394
 30
0.0
 11
4109.23085
 21
7706.090834
 31
0.0
  0
LINE
  8
1
  6
CONTINUOUS
 62
     4
  5
30B
 10
4112.44063
 20
7709.691984
 30
0.0
 11
4109.23085
 21
7709.124424
 31
0.0
  0
LINE
  8
1
  6
CONTINUOUS
 62
     4
  5
30C
 10
4108.23279
 20
7700.434764
 30
0.0
 11
4109.43581
 21
7701.637714
 31
0.0
  0
LINE
  8
1
  6
CONTINUOUS
 62
     4
  5
30D
 10
4108.23279
 20
7700.434764
 30
0.0
 11
4106.58569
 21
7700.434764
 31
0.0
  0
LINE
  8
1
  6
CONTINUOUS
 62
     4
  5
30E
 10
4113.43869
 20
7700.434764
 30
0.0
 11
4112.23581
 21
7701.637714
 31
0.0
  0
LINE
  8
1
  6
CONTINUOUS
 62
     4
  5
30F
 10
4113.43869
 20
7700.434764
 30
0.0
 11
4115.08579
 21
7700.434764
 31
0.0
  0
LINE
  8
1
  6
CONTINUOUS
 62
     4
  5
310
 10
4112.44063
 20
7702.117914
 30
0.0
 11
4109.23085
 21
7701.550424
 31
0.0
  0
LINE
  8
1
  6
CONTINUOUS
 62
     4
  5
311
 10
4110.22905
 20
7696.943724
 30
0.0
 11
4111.44243
 21
7696.943724
 31
0.0
  0
LINE
  8
1
  6
CONTINUOUS
 62
     4
  5
312
 10
4110.22905
 20
7696.434754
 30
0.0
 11
4110.22905
 21
7696.943724
 31
0.0
  0
LINE
  8
1
  6
CONTINUOUS
 62
     4
  5
313
 10
4111.44243
 20
7696.434754
 30
0.0
 11
4111.44243
 21
7696.943724
 31
0.0
  0
LINE
  8
1
  6
CONTINUOUS
 62
     4
  5
314
 10
4110.22905
 20
7696.434754
 30
0.0
 11
4111.44243
 21
7696.434754
 31
0.0
  0
LINE
  8
1
  6
CONTINUOUS
 62
     4
  5
315
 10
4108.83577
 20
7731.903054
 30
0.0
 11
4112.83571
 21
7732.612294
 31
0.0
  0
LINE
  8
1
  6
CONTINUOUS
 62
     4
  5
316
 10
4112.22699
 20
7735.557474
 30
0.0
 11
4109.34215
 21
7735.045914
 31
0.0
  0
LINE
  8
1
  6
CONTINUOUS
 62
     4
  5
317
 10
4112.44063
 20
7734.058214
 30
0.0
 11
4109.23085
 21
7733.490654
 31
0.0
  0
LINE
  8
1
  6
CONTINUOUS
 62
     4
  5
318
 10
4111.93425
 20
7737.021734
 30
0.0
 11
4109.65673
 21
7736.619094
 31
0.0
  0
LINE
  8
40
  6
CONTINUOUS
 62
     4
  5
319
 10
4125.49983
 20
7706.434744
 30
0.0
 11
4125.49983
 21
7695.919204
 31
0.0
  0
LINE
  8
40
  6
CONTINUOUS
 62
     4
  5
31A
 10
4122.99985
 20
7693.802264
 30
0.0
 11
4122.99985
 21
7701.434784
 31
0.0
  0
LINE
  8
40
  6
CONTINUOUS
 62
     4
  5
31B
 10
4062.79481
 20
7687.434784
 30
0.0
 11
4098.32583
 21
7687.434784
 31
0.0
  0
LINE
  8
40
  6
CONTINUOUS
 62
     4
  5
31C
 10
4066.52483
 20
7686.434764
 30
0.0
 11
4094.52483
 21
7686.434764
 31
0.0
  0
LINE
  8
40
  6
CONTINUOUS
 62
     4
  5
31D
 10
4095.10919
 20
7685.434744
 30
0.0
 11
4066.00879
 21
7685.434744
 31
0.0
  0
LINE
  8
40
  6
CONTINUOUS
 62
     4
  5
31E
 10
4094.67085
 20
7684.434654
 30
0.0
 11
4066.40569
 21
7684.434654
 31
0.0
  0
LINE
  8
12
  6
CONTINUOUS
 62
     4
  5
31F
 10
4103.91183
 20
7701.434784
 30
0.0
 11
4125.52489
 21
7701.434784
 31
0.0
  0
LINE
  8
12
  6
CONTINUOUS
 62
     4
  5
320
 10
4038.02489
 20
7693.827044
 30
0.0
 11
4038.02489
 21
7701.434784
 31
0.0
  0
LINE
  8
12
  6
CONTINUOUS
 62
     4
  5
321
 10
4058.87425
 20
7688.446564
 30
0.0
 11
4058.87425
 21
7688.417024
 31
0.0
  0
LINE
  8
12
  6
CONTINUOUS
 62
     4
  5
322
 10
4057.15631
 20
7688.889804
 30
0.0
 11
4057.15631
 21
7701.434784
 31
0.0
  0
LINE
  8
12
  6
CONTINUOUS
 62
     4
  5
323
 10
4058.86809
 20
7688.542044
 30
0.0
 11
4057.24339
 21
7701.540064
 31
0.0
  0
LINE
  8
12
  6
CONTINUOUS
 62
     4
  5
324
 10
4102.19403
 20
7688.341144
 30
0.0
 11
4102.19403
 21
7688.311674
 31
0.0
  0
LINE
  8
12
  6
CONTINUOUS
 62
     4
  5
325
 10
4103.91183
 20
7688.784454
 30
0.0
 11
4103.91183
 21
7701.329504
 31
0.0
  0
LINE
  8
12
  6
CONTINUOUS
 62
     4
  5
326
 10
4102.20019
 20
7688.436764
 30
0.0
 11
4103.82489
 21
7701.434784
 31
0.0
  0
LINE
  8
12
  6
CONTINUOUS
 62
     4
  5
327
 10
4057.25655
 20
7701.434784
 30
0.0
 11
4038.02489
 21
7701.434784
 31
0.0
  0
LINE
  8
12
  6
CONTINUOUS
 62
     4
  5
328
 10
4057.25655
 20
7700.434764
 30
0.0
 11
4038.02489
 21
7700.434764
 31
0.0
  0
LINE
  8
12
  6
CONTINUOUS
 62
     4
  5
329
 10
4103.91183
 20
7700.434764
 30
0.0
 11
4125.52489
 21
7700.434764
 31
0.0
  0
LINE
  8
12
  6
CONTINUOUS
 62
     4
  5
32A
 10
4054.46397
 20
7700.434764
 30
0.0
 11
4045.96401
 21
7700.434764
 31
0.0
  0
LINE
  8
12
  6
CONTINUOUS
 62
     4
  5
32B
 10
4045.96401
 20
7700.434764
 30
0.0
 11
4045.96401
 21
7697.434774
 31
0.0
  0
LINE
  8
12
  6
CONTINUOUS
 62
     4
  5
32C
 10
4054.46397
 20
7700.434764
 30
0.0
 11
4054.46397
 21
7697.434774
 31
0.0
  0
LINE
  8
12
  6
CONTINUOUS
 62
     4
  5
32D
 10
4054.46397
 20
7697.434774
 30
0.0
 11
4054.46397
 21
7700.434764
 31
0.0
  0
LINE
  8
12
  6
CONTINUOUS
 62
     4
  5
32E
 10
4045.96401
 20
7697.434774
 30
0.0
 11
4045.96401
 21
7700.434764
 31
0.0
  0
LINE
  8
12
  6
CONTINUOUS
 62
     4
  5
32F
 10
4045.96401
 20
7697.434774
 30
0.0
 11
4054.46397
 21
7697.434774
 31
0.0
  0
ARC
  8
12
  6
CONTINUOUS
 62
     4
  5
330
 10
4050.21399
 20
7705.966024
 30
0.0
 40
9.53134
 50
243.51896
 51
296.48104
  0
LINE
  8
12
  6
CONTINUOUS
 62
     4
  5
331
 10
4051.61399
 20
7700.434764
 30
0.0
 11
4051.61399
 21
7731.434754
 31
0.0
  0
LINE
  8
12
  6
CONTINUOUS
 62
     4
  5
332
 10
4048.81399
 20
7700.434764
 30
0.0
 11
4048.81399
 21
7731.434754
 31
0.0
  0
LINE
  8
12
  6
CONTINUOUS
 62
     4
  5
333
 10
4051.61399
 20
7731.434754
 30
0.0
 11
4048.81399
 21
7731.434754
 31
0.0
  0
LINE
  8
12
  6
CONTINUOUS
 62
     4
  5
334
 10
4050.21399
 20
7738.434754
 30
0.0
 11
4048.81399
 21
7731.434754
 31
0.0
  0
LINE
  8
12
  6
CONTINUOUS
 62
     4
  5
335
 10
4050.21399
 20
7738.434754
 30
0.0
 11
4051.61399
 21
7731.434754
 31
0.0
  0
LINE
  8
12
  6
CENTER
 62
     4
  5
336
 10
4050.21399
 20
7697.434774
 30
0.0
 11
4050.21399
 21
7738.434754
 31
0.0
  0
LINE
  8
12
  6
CENTER
 62
     4
  5
337
 10
4050.21399
 20
7738.434754
 30
0.0
 11
4050.21399
 21
7698.927734
 31
0.0
  0
LINE
  8
12
  6
CONTINUOUS
 62
     4
  5
338
 10
4115.08579
 20
7700.434764
 30
0.0
 11
4106.58569
 21
7700.434764
 31
0.0
  0
LINE
  8
12
  6
CONTINUOUS
 62
     4
  5
339
 10
4106.58569
 20
7700.434764
 30
0.0
 11
4106.58569
 21
7697.434774
 31
0.0
  0
LINE
  8
12
  6
CONTINUOUS
 62
     4
  5
33A
 10
4115.08579
 20
7700.434764
 30
0.0
 11
4115.08579
 21
7697.434774
 31
0.0
  0
LINE
  8
12
  6
CONTINUOUS
 62
     4
  5
33B
 10
4115.08579
 20
7697.434774
 30
0.0
 11
4115.08579
 21
7700.434764
 31
0.0
  0
LINE
  8
12
  6
CONTINUOUS
 62
     4
  5
33C
 10
4106.58569
 20
7697.434774
 30
0.0
 11
4106.58569
 21
7700.434764
 31
0.0
  0
LINE
  8
12
  6
CONTINUOUS
 62
     4
  5
33D
 10
4106.58569
 20
7697.434774
 30
0.0
 11
4115.08579
 21
7697.434774
 31
0.0
  0
ARC
  8
12
  6
CONTINUOUS
 62
     4
  5
33E
 10
4110.83581
 20
7705.966024
 30
0.0
 40
9.53134
 50
243.51896
 51
296.48104
  0
LINE
  8
12
  6
CONTINUOUS
 62
     4
  5
33F
 10
4112.23581
 20
7700.434764
 30
0.0
 11
4112.23581
 21
7731.434754
 31
0.0
  0
LINE
  8
12
  6
CONTINUOUS
 62
     4
  5
340
 10
4109.43581
 20
7700.434764
 30
0.0
 11
4109.43581
 21
7731.434754
 31
0.0
  0
LINE
  8
12
  6
CONTINUOUS
 62
     4
  5
341
 10
4112.23581
 20
7731.434754
 30
0.0
 11
4109.43581
 21
7731.434754
 31
0.0
  0
LINE
  8
12
  6
CONTINUOUS
 62
     4
  5
342
 10
4110.83581
 20
7738.434754
 30
0.0
 11
4109.43581
 21
7731.434754
 31
0.0
  0
LINE
  8
12
  6
CONTINUOUS
 62
     4
  5
343
 10
4110.83581
 20
7738.434754
 30
0.0
 11
4112.23581
 21
7731.434754
 31
0.0
  0
LINE
  8
12
  6
CENTER
 62
     4
  5
344
 10
4110.83581
 20
7697.434774
 30
0.0
 11
4110.83581
 21
7738.434754
 31
0.0
  0
LINE
  8
12
  6
CENTER
 62
     4
  5
345
 10
4110.83581
 20
7738.434754
 30
0.0
 11
4110.83581
 21
7698.927734
 31
0.0
  0
LINE
  8
12
  6
CONTINUOUS
 62
     4
  5
346
 10
4055.92249
 20
7700.682004
 30
0.0
 11
4044.42247
 21
7700.682004
 31
0.0
  0
LINE
  8
12
  6
CONTINUOUS
 62
     4
  5
347
 10
4055.92249
 20
7701.481894
 30
0.0
 11
4044.42247
 21
7701.481894
 31
0.0
  0
LINE
  8
12
  6
CONTINUOUS
 62
     4
  5
348
 10
4055.92249
 20
7700.682004
 30
0.0
 11
4055.92249
 21
7701.481894
 31
0.0
  0
LINE
  8
12
  6
CONTINUOUS
 62
     4
  5
349
 10
4052.92257
 20
7700.682004
 30
0.0
 11
4052.92257
 21
7701.481894
 31
0.0
  0
LINE
  8
12
  6
CONTINUOUS
 62
     4
  5
34A
 10
4047.42253
 20
7700.682004
 30
0.0
 11
4047.42253
 21
7701.481894
 31
0.0
  0
LINE
  8
12
  6
CONTINUOUS
 62
     4
  5
34B
 10
4044.42247
 20
7700.682004
 30
0.0
 11
4044.42247
 21
7701.481894
 31
0.0
  0
LINE
  8
12
  6
CONTINUOUS
 62
     4
  5
34C
 10
4116.54067
 20
7700.682004
 30
0.0
 11
4105.04065
 21
7700.682004
 31
0.0
  0
LINE
  8
12
  6
CONTINUOUS
 62
     4
  5
34D
 10
4116.54067
 20
7701.481894
 30
0.0
 11
4105.04065
 21
7701.481894
 31
0.0
  0
LINE
  8
12
  6
CONTINUOUS
 62
     4
  5
34E
 10
4116.54067
 20
7700.682004
 30
0.0
 11
4116.54067
 21
7701.481894
 31
0.0
  0
LINE
  8
12
  6
CONTINUOUS
 62
     4
  5
34F
 10
4113.54061
 20
7700.682004
 30
0.0
 11
4113.54061
 21
7701.481894
 31
0.0
  0
LINE
  8
12
  6
CONTINUOUS
 62
     4
  5
350
 10
4108.04057
 20
7700.682004
 30
0.0
 11
4108.04057
 21
7701.481894
 31
0.0
  0
LINE
  8
12
  6
CONTINUOUS
 62
     4
  5
351
 10
4105.04065
 20
7700.682004
 30
0.0
 11
4105.04065
 21
7701.481894
 31
0.0
  0
LINE
  8
8
  6
CONTINUOUS
 62
     4
  5
352
 10
4097.52531
 20
7687.228144
 30
0.0
 11
4124.02087
 21
7694.065674
 31
0.0
  0
LINE
  8
8
  6
CONTINUOUS
 62
     4
  5
353
 10
4063.71307
 20
7687.197694
 30
0.0
 11
4036.98203
 21
7694.096054
 31
0.0
  0
ARC
  8
8
  6
CONTINUOUS
 62
     4
  5
354
 10
4062.55709
 20
7683.398794
 30
0.0
 40
4.00008
 50
0.0
 51
75.529706
  0
LINE
  8
50
  6
CENTER
 62
     4
  5
355
 10
4050.17255
 20
7700.682004
 30
0.0
 11
4050.17255
 21
7702.803984
 31
0.0
  0
LINE
  8
50
  6
CENTER
 62
     4
  5
356
 10
4110.79059
 20
7700.682004
 30
0.0
 11
4110.79059
 21
7702.803984
 31
0.0
  0
ARC
  8
8
  6
CONTINUOUS
 62
     4
  5
357
 10
4098.51931
 20
7683.347904
 30
0.0
 40
4.00008
 50
104.470294
 51
180.0
  0
LINE
  8
40
  6
CONTINUOUS
 62
     4
  5
358
 10
4066.52483
 20
7656.434514
 30
0.0
 11
4066.52483
 21
7679.018847
 31
0.0
  0
LINE
  8
8
  6
CONTINUOUS
 62
     4
  5
359
 10
4056.508094
 20
7656.434514
 30
0.0
 11
4535.308094
 21
7656.434514
 31
0.0
  0
LINE
  8
8
  6
CONTINUOUS
 62
     4
  5
35A
 10
4535.308094
 20
7641.40941
 30
0.0
 11
4535.308094
 21
7656.434514
 31
0.0
  0
ARC
  8
8
  6
CONTINUOUS
 62
     4
  5
35B
 10
4525.291358
 20
7641.40941
 30
0.0
 40
10.016736
 50
270.0
 51
0.0
  0
LINE
  8
8
  6
CONTINUOUS
 62
     4
  5
35C
 10
4066.52483
 20
7631.392673
 30
0.0
 11
4525.291358
 21
7631.392673
 31
0.0
  0
ARC
  8
8
  6
CONTINUOUS
 62
     4
  5
35D
 10
4066.52483
 20
7641.40941
 30
0.0
 40
10.016736
 50
180.0
 51
270.0
  0
LINE
  8
8
  6
CONTINUOUS
 62
     4
  5
35E
 10
4056.508094
 20
7641.40941
 30
0.0
 11
4056.508094
 21
7656.434514
 31
0.0
  0
ARC
  8
40
  6
CONTINUOUS
 62
     4
  5
35F
 10
4468.291338
 20
7696.050384
 30
0.0
 40
2.00004
 50
180.0
 51
255.529705
  0
LINE
  8
8
  6
CONTINUOUS
 62
     4
  5
360
 10
4494.479598
 20
7687.197554
 30
0.0
 11
4467.748558
 21
7694.095914
 31
0.0
  0
LINE
  8
8
  6
CONTINUOUS
 62
     4
  5
361
 10
4528.291838
 20
7687.228004
 30
0.0
 11
4554.787398
 21
7694.065534
 31
0.0
  0
ARC
  8
40
  6
CONTINUOUS
 62
     4
  5
362
 10
4554.289698
 20
7696.007334
 30
0.0
 40
2.00004
 50
284.069648
 51
0.0
  0
LINE
  8
5
  6
CONTINUOUS
 62
     3
  5
363
 10
4165.513374
 20
7631.392673
 30
0.0
 11
4078.910833
 21
7481.392673
 31
0.0
  0
TEXT
  8
5
  6
CONTINUOUS
 62
     3
  5
364
 10
4153.910833
 20
7481.392673
 30
0.0
 40
90.0
  1
テスリックス
 41
0.837
  7

 72
     5
 11
4693.910833
 21
7481.392673
 31
0.0
  0
LINE
  8
5
  6
CONTINUOUS
 62
     3
  5
365
 10
4078.910833
 20
7481.392673
 30
0.0
 11
4693.910833
 21
7481.392673
 31
0.0
  0
TEXT
  8
50
  6
CONTINUOUS
 62
     3
  5
366
 10
2251.578717
 20
6798.034731
 30
0.0
 40
90.000001
  1
アコーディオンドア
 50
360.0
 41
0.837
  7

 72
     5
 11
3061.578729
 21
6798.034731
 31
0.0
  0
LINE
  8
5
  6
CONTINUOUS
 62
     3
  5
367
 10
5150.308094
 20
3080.96147
 30
0.0
 11
5150.308094
 21
2880.96147
 31
0.0
  0
LINE
  8
1
  6
CONTINUOUS
 62
     3
  5
368
 10
5280.308094
 20
3195.96147
 30
0.0
 11
5280.308094
 21
2895.96147
 31
0.0
  0
LINE
  8
5
  6
CONTINUOUS
 62
     3
  5
369
 10
4085.308094
 20
3195.96147
 30
0.0
 11
4085.308094
 21
2895.96147
 31
0.0
  0
LINE
  8
5
  6
CONTINUOUS
 62
     3
  5
36A
 10
4535.308094
 20
3045.96147
 30
0.0
 11
4535.308094
 21
2895.96147
 31
0.0
  0
LINE
  8
5
  6
CONTINUOUS
 62
     3
  5
36B
 10
4085.308094
 20
3195.96147
 30
0.0
 11
5150.308094
 21
3195.96147
 31
0.0
  0
LINE
  8
5
  6
CONTINUOUS
 62
     3
  5
36C
 10
4085.308094
 20
3045.96147
 30
0.0
 11
4535.308094
 21
3045.96147
 31
0.0
  0
LINE
  8
5
  6
CONTINUOUS
 62
     3
  5
36D
 10
4535.308094
 20
3045.96147
 30
0.0
 11
5150.308094
 21
3045.96147
 31
0.0
  0
LINE
  8
1
  6
CONTINUOUS
 62
     3
  5
36E
 10
5150.308094
 20
3195.96147
 30
0.0
 11
5150.308094
 21
2895.96147
 31
0.0
  0
LINE
  8
1
  6
CONTINUOUS
 62
     3
  5
36F
 10
5150.308094
 20
3195.96147
 30
0.0
 11
5280.308094
 21
3195.96147
 31
0.0
  0
LINE
  8
5
  6
CONTINUOUS
 62
     3
  5
370
 10
3740.308094
 20
2850.96147
 30
0.0
 11
4040.308094
 21
2850.96147
 31
0.0
  0
LINE
  8
5
  6
CONTINUOUS
 62
     3
  5
371
 10
3740.308094
 20
1620.962301
 30
0.0
 11
4040.308094
 21
1620.962301
 31
0.0
  0
LINE
  8
5
  6
CONTINUOUS
 62
     3
  5
372
 10
3890.308094
 20
2250.96147
 30
0.0
 11
4040.308094
 21
2250.96147
 31
0.0
  0
LINE
  8
5
  6
CONTINUOUS
 62
     3
  5
373
 10
3740.308094
 20
2850.96147
 30
0.0
 11
3740.308094
 21
1620.962301
 31
0.0
  0
LINE
  8
5
  6
CONTINUOUS
 62
     3
  5
374
 10
3890.308094
 20
1620.962301
 30
0.0
 11
3890.308094
 21
2250.96147
 31
0.0
  0
LINE
  8
5
  6
CONTINUOUS
 62
     3
  5
375
 10
3890.308094
 20
2250.96147
 30
0.0
 11
3890.308094
 21
2850.96147
 31
0.0
  0
CIRCLE
  8
1
  6
CONTINUOUS
 62
     3
  5
376
 10
5280.308094
 20
3195.96147
 30
0.0
 40
7.5
  0
CIRCLE
  8
5
  6
CONTINUOUS
 62
     3
  5
377
 10
4085.308094
 20
3195.96147
 30
0.0
 40
7.5
  0
CIRCLE
  8
5
  6
CONTINUOUS
 62
     3
  5
378
 10
5150.308094
 20
3195.96147
 30
0.0
 40
7.5
  0
CIRCLE
  8
1
  6
CONTINUOUS
 62
     3
  5
379
 10
5150.308094
 20
3195.96147
 30
0.0
 40
7.5
  0
CIRCLE
  8
5
  6
CONTINUOUS
 62
     3
  5
37A
 10
4085.308094
 20
3045.96147
 30
0.0
 40
7.5
  0
CIRCLE
  8
5
  6
CONTINUOUS
 62
     3
  5
37B
 10
4535.308094
 20
3045.96147
 30
0.0
 40
7.5
  0
CIRCLE
  8
5
  6
CONTINUOUS
 62
     3
  5
37C
 10
5150.308094
 20
3045.96147
 30
0.0
 40
7.5
  0
CIRCLE
  8
5
  6
CONTINUOUS
 62
     3
  5
37D
 10
3740.308094
 20
2850.96147
 30
0.0
 40
7.5
  0
CIRCLE
  8
5
  6
CONTINUOUS
 62
     3
  5
37E
 10
3740.308094
 20
1620.962301
 30
0.0
 40
7.5
  0
CIRCLE
  8
5
  6
CONTINUOUS
 62
     3
  5
37F
 10
3890.308094
 20
1620.962301
 30
0.0
 40
7.5
  0
CIRCLE
  8
5
  6
CONTINUOUS
 62
     3
  5
380
 10
3890.308094
 20
2250.96147
 30
0.0
 40
7.5
  0
CIRCLE
  8
5
  6
CONTINUOUS
 62
     3
  5
381
 10
3890.308094
 20
2850.96147
 30
0.0
 40
7.5
  0
TEXT
  8
1
  6
CONTINUOUS
 62
     3
  5
382
 10
5125.308094
 20
3195.96147
 30
0.0
 40
90.0
  1
130
 41
0.666667
  7

 72
     5
 11
5305.308094
 21
3195.96147
 31
0.0
  0
TEXT
  8
5
  6
CONTINUOUS
 62
     3
  5
383
 10
4482.808094
 20
3195.96147
 30
0.0
 40
90.0
  1
1,065
 41
0.6
  7

 72
     5
 11
4752.808094
 21
3195.96147
 31
0.0
  0
TEXT
  8
5
  6
CONTINUOUS
 62
     3
  5
384
 10
4220.308094
 20
3045.96147
 30
0.0
 40
90.0
  1
450
 41
0.666667
  7

 72
     5
 11
4400.308094
 21
3045.96147
 31
0.0
  0
TEXT
  8
5
  6
CONTINUOUS
 62
     3
  5
385
 10
4752.808094
 20
3045.96147
 30
0.0
 40
90.0
  1
615
 41
0.666667
  7

 72
     5
 11
4932.808094
 21
3045.96147
 31
0.0
  0
TEXT
  8
5
  6
CONTINUOUS
 62
     3
  5
386
 10
3740.308094
 20
2100.961886
 30
0.0
 40
90.0
  1
1,230
 50
90.0
 41
0.6
  7

 72
     5
 11
3740.308094
 21
2370.961886
 31
0.0
  0
TEXT
  8
5
  6
CONTINUOUS
 62
     3
  5
387
 10
3890.308094
 20
1845.961886
 30
0.0
 40
90.0
  1
630
 50
90.0
 41
0.666667
  7

 72
     5
 11
3890.308094
 21
2025.961886
 31
0.0
  0
TEXT
  8
5
  6
CONTINUOUS
 62
     3
  5
388
 10
3890.308094
 20
2460.96147
 30
0.0
 40
90.0
  1
600
 50
90.0
 41
0.666667
  7

 72
     5
 11
3890.308094
 21
2640.96147
 31
0.0
  0
LINE
  8
5
  6
CONTINUOUS
 62
     3
  5
389
 10
1080.308032
 20
6536.034727
 30
0.0
 11
1080.308032
 21
6268.834723
 31
0.0
  0
LINE
  8
5
  6
CONTINUOUS
 62
     3
  5
38A
 10
620.308025
 20
6011.434724
 30
0.0
 11
620.308025
 21
6311.434724
 31
0.0
  0
LINE
  8
5
  6
CONTINUOUS
 62
     3
  5
38B
 10
5370.308095
 20
6011.434724
 30
0.0
 11
5370.308095
 21
6311.434724
 31
0.0
  0
LINE
  8
5
  6
CONTINUOUS
 62
     3
  5
38C
 10
3250.308064
 20
6161.434724
 30
0.0
 11
3250.308064
 21
6311.434724
 31
0.0
  0
LINE
  8
5
  6
CONTINUOUS
 62
     3
  5
38D
 10
1480.308037
 20
6161.434724
 30
0.0
 11
1480.308037
 21
6311.434724
 31
0.0
  0
LINE
  8
5
  6
CONTINUOUS
 62
     3
  5
38E
 10
680.308026
 20
6161.434724
 30
0.0
 11
680.308026
 21
6311.434724
 31
0.0
  0
CIRCLE
  8
5
  6
CONTINUOUS
 62
     3
  5
38F
 10
620.308025
 20
6011.434724
 30
0.0
 40
7.5
  0
CIRCLE
  8
5
  6
CONTINUOUS
 62
     3
  5
390
 10
5370.308095
 20
6011.434724
 30
0.0
 40
7.5
  0
CIRCLE
  8
5
  6
CONTINUOUS
 62
     3
  5
391
 10
620.308025
 20
6161.434724
 30
0.0
 40
7.5
  0
CIRCLE
  8
5
  6
CONTINUOUS
 62
     3
  5
392
 10
680.308026
 20
6161.434724
 30
0.0
 40
7.5
  0
CIRCLE
  8
5
  6
CONTINUOUS
 62
     3
  5
393
 10
1480.308037
 20
6161.434724
 30
0.0
 40
7.5
  0
CIRCLE
  8
5
  6
CONTINUOUS
 62
     3
  5
394
 10
3250.308064
 20
6161.434724
 30
0.0
 40
7.5
  0
CIRCLE
  8
5
  6
CONTINUOUS
 62
     3
  5
395
 10
5370.308095
 20
6161.434724
 30
0.0
 40
7.5
  0
LINE
  8
5
  6
CONTINUOUS
 62
     3
  5
396
 10
620.308025
 20
6011.434724
 30
0.0
 11
5370.308095
 21
6011.434724
 31
0.0
  0
LINE
  8
5
  6
CONTINUOUS
 62
     3
  5
397
 10
620.308025
 20
6161.434724
 30
0.0
 11
680.308026
 21
6161.434724
 31
0.0
  0
LINE
  8
5
  6
CONTINUOUS
 62
     3
  5
398
 10
680.308026
 20
6161.434724
 30
0.0
 11
1480.308037
 21
6161.434724
 31
0.0
  0
LINE
  8
5
  6
CONTINUOUS
 62
     3
  5
399
 10
1480.308037
 20
6161.434724
 30
0.0
 11
3250.308064
 21
6161.434724
 31
0.0
  0
LINE
  8
5
  6
CONTINUOUS
 62
     3
  5
39A
 10
3250.308064
 20
6161.434724
 30
0.0
 11
5370.308095
 21
6161.434724
 31
0.0
  0
LINE
  8
5
  6
CONTINUOUS
 62
     3
  5
39B
 10
5790.308097
 20
7826.434746
 30
0.0
 11
5490.308097
 21
7826.434746
 31
0.0
  0
LINE
  8
5
  6
CONTINUOUS
 62
     3
  5
39C
 10
5790.308097
 20
6401.434725
 30
0.0
 11
5490.308097
 21
6401.434725
 31
0.0
  0
LINE
  8
5
  6
CONTINUOUS
 62
     3
  5
39D
 10
5640.308097
 20
7398.83474
 30
0.0
 11
5490.308097
 21
7398.83474
 31
0.0
  0
LINE
  8
5
  6
CONTINUOUS
 62
     3
  5
39E
 10
5640.308097
 20
6798.834731
 30
0.0
 11
5490.308097
 21
6798.834731
 31
0.0
  0
CIRCLE
  8
5
  6
CONTINUOUS
 62
     3
  5
39F
 10
5790.308097
 20
7826.434746
 30
0.0
 40
7.5
  0
CIRCLE
  8
5
  6
CONTINUOUS
 62
     3
  5
3A0
 10
5790.308097
 20
6401.434725
 30
0.0
 40
7.5
  0
CIRCLE
  8
5
  6
CONTINUOUS
 62
     3
  5
3A1
 10
5640.308097
 20
6401.434725
 30
0.0
 40
7.5
  0
CIRCLE
  8
5
  6
CONTINUOUS
 62
     3
  5
3A2
 10
5640.308097
 20
6798.834731
 30
0.0
 40
7.5
  0
CIRCLE
  8
5
  6
CONTINUOUS
 62
     3
  5
3A3
 10
5640.308097
 20
7398.83474
 30
0.0
 40
7.5
  0
CIRCLE
  8
5
  6
CONTINUOUS
 62
     3
  5
3A4
 10
5640.308097
 20
7826.434746
 30
0.0
 40
7.5
  0
LINE
  8
5
  6
CONTINUOUS
 62
     3
  5
3A5
 10
5790.308097
 20
7826.434746
 30
0.0
 11
5790.308097
 21
6401.434725
 31
0.0
  0
LINE
  8
5
  6
CONTINUOUS
 62
     3
  5
3A6
 10
5640.308097
 20
6401.434725
 30
0.0
 11
5640.308097
 21
6798.834731
 31
0.0
  0
LINE
  8
5
  6
CONTINUOUS
 62
     3
  5
3A7
 10
5640.308097
 20
6798.834731
 30
0.0
 11
5640.308097
 21
7398.83474
 31
0.0
  0
LINE
  8
5
  6
CONTINUOUS
 62
     3
  5
3A8
 10
5640.308097
 20
7398.83474
 30
0.0
 11
5640.308097
 21
7826.434746
 31
0.0
  0
TEXT
  8
5
  6
CONTINUOUS
 62
     3
  5
3A9
 10
2860.30806
 20
6011.434724
 30
0.0
 40
90.0
  1
4,750
 41
0.6
  7

 72
     5
 11
3130.30806
 21
6011.434724
 31
0.0
  0
TEXT
  8
5
  6
CONTINUOUS
 62
     3
  5
3AA
 10
582.808025
 20
6161.434724
 30
0.0
 40
90.0
  1
60
 41
0.75
  7

 72
     5
 11
717.808025
 21
6161.434724
 31
0.0
  0
TEXT
  8
5
  6
CONTINUOUS
 62
     3
  5
3AB
 10
990.308032
 20
6161.434724
 30
0.0
 40
90.0
  1
800
 41
0.666667
  7

 72
     5
 11
1170.308032
 21
6161.434724
 31
0.0
  0
TEXT
  8
5
  6
CONTINUOUS
 62
     3
  5
3AC
 10
2230.308051
 20
6161.434724
 30
0.0
 40
90.0
  1
1,770
 41
0.6
  7

 72
     5
 11
2500.308051
 21
6161.434724
 31
0.0
  0
TEXT
  8
5
  6
CONTINUOUS
 62
     3
  5
3AD
 10
4175.30808
 20
6161.434724
 30
0.0
 40
90.0
  1
2,120
 41
0.6
  7

 72
     5
 11
4445.30808
 21
6161.434724
 31
0.0
  0
TEXT
  8
5
  6
CONTINUOUS
 62
     3
  5
3AE
 10
5790.308097
 20
6978.934736
 30
0.0
 40
90.0
  1
1,425
 50
90.0
 41
0.6
  7

 72
     5
 11
5790.308097
 21
7248.934736
 31
0.0
  0
TEXT
  8
5
  6
CONTINUOUS
 62
     3
  5
3AF
 10
5640.308097
 20
6465.134728
 30
0.0
 40
90.0
  1
397.4
 50
90.0
 41
0.6
  7

 72
     5
 11
5640.308097
 21
6735.134728
 31
0.0
  0
TEXT
  8
5
  6
CONTINUOUS
 62
     3
  5
3B0
 10
5640.308097
 20
7008.834735
 30
0.0
 40
90.0
  1
600
 50
90.0
 41
0.666667
  7

 72
     5
 11
5640.308097
 21
7188.834735
 31
0.0
  0
TEXT
  8
5
  6
CONTINUOUS
 62
     3
  5
3B1
 10
5640.308097
 20
7477.634743
 30
0.0
 40
90.0
  1
427.6
 50
90.0
 41
0.6
  7

 72
     5
 11
5640.308097
 21
7747.634743
 31
0.0
  0
LINE
  8
5
  6
CONTINUOUS
 62
     3
  5
3B2
 10
5610.308094
 20
3720.962301
 30
0.0
 11
5310.308094
 21
3720.962301
 31
0.0
  0
LINE
  8
5
  6
CONTINUOUS
 62
     3
  5
3B3
 10
5610.308094
 20
1620.962301
 30
0.0
 11
5310.308094
 21
1620.962301
 31
0.0
  0
CIRCLE
  8
5
  6
CONTINUOUS
 62
     3
  5
3B4
 10
5610.308094
 20
3720.962301
 30
0.0
 40
7.5
  0
CIRCLE
  8
5
  6
CONTINUOUS
 62
     3
  5
3B5
 10
5610.308094
 20
1620.962301
 30
0.0
 40
7.5
  0
TEXT
  8
5
  6
CONTINUOUS
 62
     3
  5
3B6
 10
5610.308094
 20
2580.962301
 30
0.0
 40
60.0
  1
2,100
 50
90.0
 41
0.6
  7

 72
     5
 11
5610.308094
 21
2760.962301
 31
0.0
  0
LINE
  8
5
  6
CONTINUOUS
 62
     3
  5
3B7
 10
5610.308094
 20
3720.962301
 30
0.0
 11
5610.308094
 21
1620.962301
 31
0.0
  0
LINE
  8
3
  6
CONTINUOUS
 62
     1
  5
3B8
 10
5131.114032
 20
7166.184738
 30
0.0
 11
5085.114032
 21
7166.184738
 31
0.0
  0
LINE
  8
3
  6
CONTINUOUS
 62
     1
  5
3B9
 10
5131.114032
 20
7198.684738
 30
0.0
 11
5085.114032
 21
7198.684738
 31
0.0
  0
ARC
  8
3
  6
CONTINUOUS
 62
     1
  5
3BA
 10
5111.614032
 20
7369.934738
 30
0.0
 40
30.0
 50
90.0
 51
164.78
  0
ARC
  8
3
  6
CONTINUOUS
 62
     1
  5
3BB
 10
5111.614032
 20
7369.934738
 30
0.0
 40
35.0
 50
90.0
 51
164.78
  0
ARC
  8
3
  6
CONTINUOUS
 62
     1
  5
3BC
 10
5144.114032
 20
7202.434738
 30
0.0
 40
13.0
 50
90.0
 51
180.0
  0
LINE
  8
3
  6
CONTINUOUS
 62
     1
  5
3BD
 10
5131.114032
 20
7162.434738
 30
0.0
 11
5131.114032
 21
7202.434738
 31
0.0
  0
ARC
  8
3
  6
CONTINUOUS
 62
     1
  5
3BE
 10
5144.114032
 20
7162.434738
 30
0.0
 40
13.0
 50
180.0
 51
270.0
  0
LINE
  8
3
  6
CONTINUOUS
 62
     1
  5
3BF
 10
4908.114032
 20
7269.184738
 30
0.0
 11
4908.614032
 21
7294.184738
 31
0.0
  0
LINE
  8
3
  6
CONTINUOUS
 62
     1
  5
3C0
 10
4908.614032
 20
7294.184738
 30
0.0
 11
4908.864032
 21
7302.434738
 31
0.0
  0
LINE
  8
3
  6
CONTINUOUS
 62
     1
  5
3C1
 10
5007.614032
 20
7247.434738
 30
0.0
 11
5011.364032
 21
7366.184738
 31
0.0
  0
ARC
  8
3
  6
CONTINUOUS
 62
     1
  5
3C2
 10
4907.364032
 20
7302.434738
 30
0.0
 40
200.0
 50
338.7
 51
21.2
  0
LINE
  8
3
  6
CONTINUOUS
 62
     1
  5
3C3
 10
5086.614032
 20
7247.434738
 30
0.0
 11
5083.114032
 21
7366.184738
 31
0.0
  0
ARC
  8
3
  6
CONTINUOUS
 62
     1
  5
3C4
 10
4592.114032
 20
7302.434738
 30
0.0
 40
142.5
 50
132.75
 51
227.24
  0
ARC
  8
3
  6
CONTINUOUS
 62
     1
  5
3C5
 10
4665.114032
 20
7223.684738
 30
0.0
 40
250.0
 50
105.8
 51
132.75
  0
ARC
  8
3
  6
CONTINUOUS
 62
     1
  5
3C6
 10
4726.364032
 20
6779.934738
 30
0.0
 40
700.0
 50
72.29
 51
80.55
  0
ARC
  8
3
  6
CONTINUOUS
 62
     1
  5
3C7
 10
4800.864032
 20
7373.434738
 30
0.0
 40
105.0
 50
4.55
 51
80.41
  0
ARC
  8
3
  6
CONTINUOUS
 62
     1
  5
3C8
 10
4738.864032
 20
7005.684738
 30
0.0
 40
478.25
 50
80.41
 51
90.0
  0
ARC
  8
3
  6
CONTINUOUS
 62
     1
  5
3C9
 10
4738.864032
 20
6963.934738
 30
0.0
 40
520.0
 50
90.0
 51
105.8
  0
LINE
  8
3
  6
CONTINUOUS
 62
     1
  5
3CA
 10
4908.114032
 20
7335.684738
 30
0.0
 11
4907.114032
 21
7360.684738
 31
0.0
  0
LINE
  8
3
  6
CONTINUOUS
 62
     1
  5
3CB
 10
4907.114032
 20
7360.684738
 30
0.0
 11
4905.614032
 21
7381.684738
 31
0.0
  0
ARC
  8
3
  6
CONTINUOUS
 62
     1
  5
3CC
 10
5023.364032
 20
7365.934738
 30
0.0
 40
12.0
 50
90.0
 51
177.7
  0
ARC
  8
3
  6
CONTINUOUS
 62
     1
  5
3CD
 10
4927.114032
 20
7372.184738
 30
0.0
 40
17.5
 50
270.0
 51
90.0
  0
LINE
  8
3
  6
CONTINUOUS
 62
     1
  5
3CE
 10
5081.114032
 20
7372.184738
 30
0.0
 11
5082.614032
 21
7377.684738
 31
0.0
  0
ARC
  8
3
  6
CONTINUOUS
 62
     1
  5
3CF
 10
5071.114032
 20
7365.934738
 30
0.0
 40
12.0
 50
2.29
 51
90.0
  0
LINE
  8
3
  6
CONTINUOUS
 62
     1
  5
3D0
 10
5064.364032
 20
7403.434738
 30
0.0
 11
5040.864032
 21
7412.184738
 31
0.0
  0
LINE
  8
3
  6
CONTINUOUS
 62
     1
  5
3D1
 10
5040.864032
 20
7412.184738
 30
0.0
 11
5017.364032
 21
7420.434738
 31
0.0
  0
LINE
  8
3
  6
CONTINUOUS
 62
     1
  5
3D2
 10
5017.364032
 20
7420.434738
 30
0.0
 11
4993.864032
 21
7428.684738
 31
0.0
  0
LINE
  8
3
  6
CONTINUOUS
 62
     1
  5
3D3
 10
4993.864032
 20
7428.684738
 30
0.0
 11
4970.114032
 21
7436.684738
 31
0.0
  0
LINE
  8
3
  6
CONTINUOUS
 62
     1
  5
3D4
 10
4970.114032
 20
7436.684738
 30
0.0
 11
4946.364032
 21
7444.434738
 31
0.0
  0
LINE
  8
3
  6
CONTINUOUS
 62
     1
  5
3D5
 10
4946.364032
 20
7444.434738
 30
0.0
 11
4939.364032
 21
7446.684738
 31
0.0
  0
LINE
  8
3
  6
CONTINUOUS
 62
     1
  5
3D6
 10
5071.114032
 20
7377.934738
 30
0.0
 11
5023.364032
 21
7377.934738
 31
0.0
  0
ARC
  8
3
  6
CONTINUOUS
 62
     1
  5
3D7
 10
5047.114032
 20
7356.684738
 30
0.0
 40
50.0
 50
43.12
 51
69.76
  0
LINE
  8
3
  6
CONTINUOUS
 62
     1
  5
3D8
 10
5077.114032
 20
7376.184738
 30
0.0
 11
5077.864032
 21
7378.934738
 31
0.0
  0
ARC
  8
3
  6
CONTINUOUS
 62
     1
  5
3D9
 10
5047.114032
 20
7356.684738
 30
0.0
 40
50.0
 50
21.2
 51
37.2
  0
LINE
  8
3
  6
CONTINUOUS
 62
     1
  5
3DA
 10
5035.614032
 20
7377.934738
 30
0.0
 11
5035.614032
 21
7383.934738
 31
0.0
  0
LINE
  8
3
  6
CONTINUOUS
 62
     1
  5
3DB
 10
5058.614032
 20
7377.934738
 30
0.0
 11
5058.614032
 21
7383.934738
 31
0.0
  0
LINE
  8
3
  6
CONTINUOUS
 62
     1
  5
3DC
 10
5056.614032
 20
7385.934738
 30
0.0
 11
5037.614032
 21
7385.934738
 31
0.0
  0
ARC
  8
3
  6
CONTINUOUS
 62
     1
  5
3DD
 10
5056.614032
 20
7383.934738
 30
0.0
 40
2.0
 50
0.0
 51
90.0
  0
ARC
  8
3
  6
CONTINUOUS
 62
     1
  5
3DE
 10
5037.614032
 20
7383.934738
 30
0.0
 40
2.0
 50
90.0
 51
180.0
  0
LINE
  8
3
  6
CONTINUOUS
 62
     1
  5
3DF
 10
4927.114032
 20
7389.934738
 30
0.0
 11
4904.614032
 21
7389.934738
 31
0.0
  0
LINE
  8
3
  6
CONTINUOUS
 62
     1
  5
3E0
 10
4908.864032
 20
7302.434738
 30
0.0
 11
4908.364032
 21
7327.184738
 31
0.0
  0
LINE
  8
3
  6
CONTINUOUS
 62
     1
  5
3E1
 10
4908.364032
 20
7327.184738
 30
0.0
 11
4908.114032
 21
7335.684738
 31
0.0
  0
LINE
  8
3
  6
CONTINUOUS
 62
     1
  5
3E2
 10
4927.114032
 20
7354.934738
 30
0.0
 11
4907.864032
 21
7354.934738
 31
0.0
  0
LINE
  8
3
  6
CONTINUOUS
 62
     1
  5
3E3
 10
4845.614032
 20
7309.434738
 30
0.0
 11
4859.864032
 21
7295.434738
 31
0.0
  0
LINE
  8
3
  6
CONTINUOUS
 62
     1
  5
3E4
 10
4859.864032
 20
7309.434738
 30
0.0
 11
4845.614032
 21
7295.434738
 31
0.0
  0
ARC
  8
3
  6
CONTINUOUS
 62
     1
  5
3E5
 10
4665.114032
 20
7381.184738
 30
0.0
 40
250.0
 50
227.24
 51
254.19
  0
ARC
  8
3
  6
CONTINUOUS
 62
     1
  5
3E6
 10
4738.864032
 20
7640.934738
 30
0.0
 40
520.0
 50
254.19
 51
270.0
  0
ARC
  8
3
  6
CONTINUOUS
 62
     1
  5
3E7
 10
4726.364032
 20
7824.934738
 30
0.0
 40
700.0
 50
279.44
 51
287.7
  0
ARC
  8
3
  6
CONTINUOUS
 62
     1
  5
3E8
 10
4800.864032
 20
7231.434738
 30
0.0
 40
105.0
 50
279.58
 51
355.44
  0
ARC
  8
3
  6
CONTINUOUS
 62
     1
  5
3E9
 10
4972.114032
 20
7226.934738
 30
0.0
 40
10.0
 50
180.0
 51
345.52
  0
LINE
  8
3
  6
CONTINUOUS
 62
     1
  5
3EA
 10
5027.614032
 20
7214.934738
 30
0.0
 11
5027.614032
 21
7226.934738
 31
0.0
  0
ARC
  8
3
  6
CONTINUOUS
 62
     1
  5
3EB
 10
4927.114032
 20
7232.434738
 30
0.0
 40
17.5
 50
270.0
 51
90.0
  0
LINE
  8
3
  6
CONTINUOUS
 62
     1
  5
3EC
 10
5066.614032
 20
7214.934738
 30
0.0
 11
5066.614032
 21
7226.934738
 31
0.0
  0
ARC
  8
3
  6
CONTINUOUS
 62
     1
  5
3ED
 10
5047.114032
 20
7248.184738
 30
0.0
 40
50.0
 50
296.0
 51
338.7
  0
CIRCLE
  8
3
  6
CONTINUOUS
 62
     1
  5
3EE
 10
5020.114032
 20
7253.434738
 30
0.0
 40
4.0
  0
CIRCLE
  8
3
  6
CONTINUOUS
 62
     1
  5
3EF
 10
5074.114032
 20
7253.434738
 30
0.0
 40
4.0
  0
LINE
  8
3
  6
CONTINUOUS
 62
     1
  5
3F0
 10
5028.864032
 20
7226.934738
 30
0.0
 11
5047.114032
 21
7226.934738
 31
0.0
  0
LINE
  8
3
  6
CONTINUOUS
 62
     1
  5
3F1
 10
5028.864032
 20
7236.934738
 30
0.0
 11
5047.114032
 21
7236.934738
 31
0.0
  0
LINE
  8
3
  6
CONTINUOUS
 62
     1
  5
3F2
 10
5086.614032
 20
7247.434738
 30
0.0
 11
5007.614032
 21
7247.434738
 31
0.0
  0
LINE
  8
3
  6
CONTINUOUS
 62
     1
  5
3F3
 10
5027.614032
 20
7226.934738
 30
0.0
 11
5066.614032
 21
7226.934738
 31
0.0
  0
LINE
  8
3
  6
CONTINUOUS
 62
     1
  5
3F4
 10
5064.614032
 20
7236.934738
 30
0.0
 11
5029.614032
 21
7236.934738
 31
0.0
  0
LINE
  8
3
  6
CONTINUOUS
 62
     1
  5
3F5
 10
5047.114032
 20
7236.934738
 30
0.0
 11
5047.114032
 21
7226.934738
 31
0.0
  0
LINE
  8
3
  6
CONTINUOUS
 62
     1
  5
3F6
 10
5051.864032
 20
7236.934738
 30
0.0
 11
5051.864032
 21
7226.934738
 31
0.0
  0
LINE
  8
3
  6
CONTINUOUS
 62
     1
  5
3F7
 10
5042.614032
 20
7236.934738
 30
0.0
 11
5042.614032
 21
7226.934738
 31
0.0
  0
LINE
  8
3
  6
CONTINUOUS
 62
     1
  5
3F8
 10
5065.614032
 20
7226.934738
 30
0.0
 11
5065.614032
 21
7236.934738
 31
0.0
  0
LINE
  8
3
  6
CONTINUOUS
 62
     1
  5
3F9
 10
5064.614032
 20
7247.434738
 30
0.0
 11
5064.614032
 21
7236.934738
 31
0.0
  0
LINE
  8
3
  6
CONTINUOUS
 62
     1
  5
3FA
 10
5065.614032
 20
7236.934738
 30
0.0
 11
5042.614032
 21
7236.934738
 31
0.0
  0
LINE
  8
3
  6
CONTINUOUS
 62
     1
  5
3FB
 10
5065.614032
 20
7226.934738
 30
0.0
 11
5047.114032
 21
7226.934738
 31
0.0
  0
LINE
  8
3
  6
CONTINUOUS
 62
     1
  5
3FC
 10
4992.114032
 20
7239.434738
 30
0.0
 11
4992.114032
 21
7224.434738
 31
0.0
  0
LINE
  8
3
  6
CONTINUOUS
 62
     1
  5
3FD
 10
5028.864032
 20
7226.934738
 30
0.0
 11
5028.864032
 21
7236.934738
 31
0.0
  0
LINE
  8
3
  6
CONTINUOUS
 62
     1
  5
3FE
 10
4962.114032
 20
7226.934738
 30
0.0
 11
4962.114032
 21
7236.934738
 31
0.0
  0
LINE
  8
3
  6
CONTINUOUS
 62
     1
  5
3FF
 10
5029.614032
 20
7247.434738
 30
0.0
 11
5029.614032
 21
7236.934738
 31
0.0
  0
ARC
  8
3
  6
CONTINUOUS
 62
     1
  5
400
 10
4972.114032
 20
7236.934738
 30
0.0
 40
10.0
 50
14.47
 51
180.0
  0
LINE
  8
3
  6
CONTINUOUS
 62
     1
  5
401
 10
4992.114032
 20
7239.434738
 30
0.0
 11
4981.864032
 21
7239.434738
 31
0.0
  0
LINE
  8
3
  6
CONTINUOUS
 62
     1
  5
402
 10
4992.114032
 20
7228.434738
 30
0.0
 11
5024.114032
 21
7228.434738
 31
0.0
  0
LINE
  8
3
  6
CONTINUOUS
 62
     1
  5
403
 10
4992.114032
 20
7235.434738
 30
0.0
 11
5024.114032
 21
7235.434738
 31
0.0
  0
LINE
  8
3
  6
CONTINUOUS
 62
     1
  5
404
 10
5024.114032
 20
7227.434738
 30
0.0
 11
5028.864032
 21
7227.434738
 31
0.0
  0
LINE
  8
3
  6
CONTINUOUS
 62
     1
  5
405
 10
5024.114032
 20
7236.434738
 30
0.0
 11
5028.864032
 21
7236.434738
 31
0.0
  0
LINE
  8
3
  6
CONTINUOUS
 62
     1
  5
406
 10
5024.114032
 20
7227.434738
 30
0.0
 11
5024.114032
 21
7236.434738
 31
0.0
  0
LINE
  8
3
  6
CONTINUOUS
 62
     1
  5
407
 10
4992.114032
 20
7224.434738
 30
0.0
 11
4981.864032
 21
7224.434738
 31
0.0
  0
LINE
  8
3
  6
CONTINUOUS
 62
     1
  5
408
 10
4905.614032
 20
7223.184738
 30
0.0
 11
4907.364032
 21
7248.184738
 31
0.0
  0
LINE
  8
3
  6
CONTINUOUS
 62
     1
  5
409
 10
4907.364032
 20
7248.184738
 30
0.0
 11
4908.114032
 21
7269.184738
 31
0.0
  0
LINE
  8
3
  6
CONTINUOUS
 62
     1
  5
40A
 10
4927.114032
 20
7249.934738
 30
0.0
 11
4907.864032
 21
7249.934738
 31
0.0
  0
LINE
  8
3
  6
CONTINUOUS
 62
     1
  5
40B
 10
4939.364032
 20
7158.184738
 30
0.0
 11
4963.114032
 21
7165.934738
 31
0.0
  0
LINE
  8
3
  6
CONTINUOUS
 62
     1
  5
40C
 10
4963.114032
 20
7165.934738
 30
0.0
 11
4986.864032
 21
7173.684738
 31
0.0
  0
LINE
  8
3
  6
CONTINUOUS
 62
     1
  5
40D
 10
4986.864032
 20
7173.684738
 30
0.0
 11
5010.364032
 21
7181.934738
 31
0.0
  0
LINE
  8
3
  6
CONTINUOUS
 62
     1
  5
40E
 10
5010.114032
 20
7191.184738
 30
0.0
 11
5010.114032
 21
7174.184738
 31
0.0
  0
LINE
  8
3
  6
CONTINUOUS
 62
     1
  5
40F
 10
5019.114032
 20
7190.934738
 30
0.0
 11
5019.114032
 21
7173.934738
 31
0.0
  0
LINE
  8
3
  6
CONTINUOUS
 62
     1
  5
410
 10
5028.114032
 20
7201.434738
 30
0.0
 11
5028.114032
 21
7163.434738
 31
0.0
  0
LINE
  8
3
  6
CONTINUOUS
 62
     1
  5
411
 10
5024.114032
 20
7201.434738
 30
0.0
 11
5024.114032
 21
7163.434738
 31
0.0
  0
LINE
  8
3
  6
CONTINUOUS
 62
     1
  5
412
 10
5085.114032
 20
7201.684738
 30
0.0
 11
5085.114032
 21
7163.184738
 31
0.0
  0
LINE
  8
3
  6
CONTINUOUS
 62
     1
  5
413
 10
5066.614032
 20
7214.934738
 30
0.0
 11
5027.614032
 21
7214.934738
 31
0.0
  0
ARC
  8
3
  6
CONTINUOUS
 62
     1
  5
414
 10
5070.614032
 20
7212.684738
 30
0.0
 40
11.0
 50
247.22
 51
293.2
  0
ARC
  8
3
  6
CONTINUOUS
 62
     1
  5
415
 10
5079.114032
 20
7192.684738
 30
0.0
 40
11.0
 50
56.94
 51
113.2
  0
ARC
  8
3
  6
CONTINUOUS
 62
     1
  5
416
 10
5068.114032
 20
7207.184738
 30
0.0
 40
5.0
 50
180.0
 51
247.31
  0
LINE
  8
3
  6
CONTINUOUS
 62
     1
  5
417
 10
5063.114032
 20
7207.184738
 30
0.0
 11
5063.114032
 21
7214.934738
 31
0.0
  0
LINE
  8
3
  6
CONTINUOUS
 62
     1
  5
418
 10
5024.114032
 20
7201.434738
 30
0.0
 11
5028.114032
 21
7201.434738
 31
0.0
  0
ARC
  8
3
  6
CONTINUOUS
 62
     1
  5
419
 10
5026.114032
 20
7205.684738
 30
0.0
 40
5.0
 50
293.57
 51
0.0
  0
LINE
  8
3
  6
CONTINUOUS
 62
     1
  5
41A
 10
5031.114032
 20
7205.684738
 30
0.0
 11
5031.114032
 21
7214.934738
 31
0.0
  0
LINE
  8
3
  6
CONTINUOUS
 62
     1
  5
41B
 10
5019.114032
 20
7190.934738
 30
0.0
 11
5010.114032
 21
7190.934738
 31
0.0
  0
LINE
  8
3
  6
CONTINUOUS
 62
     1
  5
41C
 10
5019.114032
 20
7190.434738
 30
0.0
 11
5024.114032
 21
7190.434738
 31
0.0
  0
LINE
  8
3
  6
CONTINUOUS
 62
     1
  5
41D
 10
5044.114032
 20
7162.184738
 30
0.0
 11
5028.114032
 21
7163.934738
 31
0.0
  0
ARC
  8
3
  6
CONTINUOUS
 62
     1
  5
41E
 10
5070.614032
 20
7152.184738
 30
0.0
 40
11.0
 50
66.79
 51
101.57
  0
ARC
  8
3
  6
CONTINUOUS
 62
     1
  5
41F
 10
5079.114032
 20
7172.434738
 30
0.0
 40
11.0
 50
246.79
 51
303.05
  0
ARC
  8
3
  6
CONTINUOUS
 62
     1
  5
420
 10
5053.364032
 20
7236.434738
 30
0.0
 40
75.0
 50
263.05
 51
281.47
  0
LINE
  8
3
  6
CONTINUOUS
 62
     1
  5
421
 10
5024.114032
 20
7163.434738
 30
0.0
 11
5028.114032
 21
7163.434738
 31
0.0
  0
LINE
  8
3
  6
CONTINUOUS
 62
     1
  5
422
 10
5010.114032
 20
7173.934738
 30
0.0
 11
5019.114032
 21
7173.934738
 31
0.0
  0
LINE
  8
3
  6
CONTINUOUS
 62
     1
  5
423
 10
5019.114032
 20
7174.434738
 30
0.0
 11
5024.114032
 21
7174.434738
 31
0.0
  0
LINE
  8
3
  6
CONTINUOUS
 62
     1
  5
424
 10
4927.114032
 20
7214.934738
 30
0.0
 11
4904.614032
 21
7214.934738
 31
0.0
  0
ARC
  8
3
  6
CONTINUOUS
 62
     1
  5
425
 10
4738.864032
 20
7599.184738
 30
0.0
 40
478.25
 50
270.0
 51
279.58
  0
LINE
  8
3
  6
CONTINUOUS
 62
     1
  5
426
 10
4733.606523
 20
7113.072661
 30
0.0
 11
4758.606523
 21
7111.322661
 31
0.0
  0
LINE
  8
3
  6
CONTINUOUS
 62
     1
  5
427
 10
4758.606523
 20
7111.322661
 30
0.0
 11
4783.606523
 21
7110.072661
 31
0.0
  0
LINE
  8
3
  6
CONTINUOUS
 62
     1
  5
428
 10
4783.606523
 20
7110.072661
 30
0.0
 11
4808.606523
 21
7109.072661
 31
0.0
  0
LINE
  8
3
  6
CONTINUOUS
 62
     1
  5
429
 10
4808.606523
 20
7109.072661
 30
0.0
 11
4833.606523
 21
7108.822661
 31
0.0
  0
LINE
  8
3
  6
CONTINUOUS
 62
     1
  5
42A
 10
4833.606523
 20
7108.822661
 30
0.0
 11
4849.106523
 21
7108.572661
 31
0.0
  0
LINE
  8
3
  6
CONTINUOUS
 62
     1
  5
42B
 10
5005.606523
 20
7109.072661
 30
0.0
 11
5005.606523
 21
7106.822661
 31
0.0
  0
ARC
  8
3
  6
CONTINUOUS
 62
     1
  5
42C
 10
5005.606523
 20
7100.072661
 30
0.0
 40
17.25
 50
147.07
 51
150.76
  0
ARC
  8
3
  6
CONTINUOUS
 62
     1
  5
42D
 10
4903.106523
 20
7121.322661
 30
0.0
 40
39.5
 50
340.6
 51
342.55
  0
ARC
  8
3
  6
CONTINUOUS
 62
     1
  5
42E
 10
4915.606523
 20
7111.572661
 30
0.0
 40
3.0
 50
270.0
 51
0.0
  0
ARC
  8
3
  6
CONTINUOUS
 62
     1
  5
42F
 10
4177.106523
 20
7302.572661
 30
0.0
 40
778.0
 50
348.83
 51
11.16
  0
ARC
  8
3
  6
CONTINUOUS
 62
     1
  5
430
 10
5607.606523
 20
7384.072661
 30
0.0
 40
600.0
 50
171.94
 51
178.33
  0
LINE
  8
3
  6
CONTINUOUS
 62
     1
  5
431
 10
4996.856523
 20
7457.572661
 30
0.0
 11
4995.856523
 21
7443.322661
 31
0.0
  0
LINE
  8
3
  6
CONTINUOUS
 62
     1
  5
432
 10
5005.606523
 20
7451.822661
 30
0.0
 11
5005.606523
 21
7448.072661
 31
0.0
  0
LINE
  8
3
  6
CONTINUOUS
 62
     1
  5
433
 10
4918.606523
 20
7444.822661
 30
0.0
 11
4918.606523
 21
7493.322661
 31
0.0
  0
LINE
  8
3
  6
CONTINUOUS
 62
     1
  5
434
 10
4938.106523
 20
7496.322661
 30
0.0
 11
4938.106523
 21
7440.822661
 31
0.0
  0
LINE
  8
3
  6
CONTINUOUS
 62
     1
  5
435
 10
4746.606523
 20
7501.322661
 30
0.0
 11
4842.106523
 21
7501.322661
 31
0.0
  0
LINE
  8
3
  6
CONTINUOUS
 62
     1
  5
436
 10
4849.106523
 20
7496.572661
 30
0.0
 11
4824.106523
 21
7496.322661
 31
0.0
  0
LINE
  8
3
  6
CONTINUOUS
 62
     1
  5
437
 10
4824.106523
 20
7496.322661
 30
0.0
 11
4799.106523
 21
7495.572661
 31
0.0
  0
LINE
  8
3
  6
CONTINUOUS
 62
     1
  5
438
 10
4799.106523
 20
7495.572661
 30
0.0
 11
4774.106523
 21
7494.572661
 31
0.0
  0
LINE
  8
3
  6
CONTINUOUS
 62
     1
  5
439
 10
4774.106523
 20
7494.572661
 30
0.0
 11
4749.106523
 21
7493.072661
 31
0.0
  0
LINE
  8
3
  6
CONTINUOUS
 62
     1
  5
43A
 10
4749.106523
 20
7493.072661
 30
0.0
 11
4724.106523
 21
7491.322661
 31
0.0
  0
ARC
  8
3
  6
CONTINUOUS
 62
     1
  5
43B
 10
4846.356523
 20
7231.572661
 30
0.0
 40
335.75
 50
90.22
 51
92.16
  0
ARC
  8
3
  6
CONTINUOUS
 62
     1
  5
43C
 10
4851.856523
 20
7367.822661
 30
0.0
 40
192.5
 50
91.99
 51
93.98
  0
ARC
  8
3
  6
CONTINUOUS
 62
     1
  5
43D
 10
4841.606523
 20
7529.572661
 30
0.0
 40
18.25
 50
259.04
 51
266.75
  0
LINE
  8
3
  6
CONTINUOUS
 62
     1
  5
43E
 10
5005.606523
 20
7540.572661
 30
0.0
 11
5005.606523
 21
7523.822661
 31
0.0
  0
LINE
  8
3
  6
CONTINUOUS
 62
     1
  5
43F
 10
5015.106523
 20
7544.822661
 30
0.0
 11
5015.106523
 21
7534.072661
 31
0.0
  0
ARC
  8
3
  6
CONTINUOUS
 62
     1
  5
440
 10
4942.106523
 20
7518.572661
 30
0.0
 40
55.0
 50
19.37
 51
20.32
  0
ARC
  8
3
  6
CONTINUOUS
 62
     1
  5
441
 10
4958.856523
 20
7526.072661
 30
0.0
 40
30.0
 50
20.07
 51
22.26
  0
LINE
  8
3
  6
CONTINUOUS
 62
     1
  5
442
 10
4998.606523
 20
7566.572661
 30
0.0
 11
4973.606523
 21
7566.822661
 31
0.0
  0
LINE
  8
3
  6
CONTINUOUS
 62
     1
  5
443
 10
4973.606523
 20
7566.822661
 30
0.0
 11
4973.106523
 21
7566.822661
 31
0.0
  0
ARC
  8
3
  6
CONTINUOUS
 62
     1
  5
444
 10
4960.106523
 20
7528.072661
 30
0.0
 40
34.75
 50
33.87
 51
35.13
  0
LINE
  8
3
  6
CONTINUOUS
 62
     1
  5
445
 10
5005.606523
 20
7559.572661
 30
0.0
 11
5005.606523
 21
7540.572661
 31
0.0
  0
ARC
  8
3
  6
CONTINUOUS
 62
     1
  5
446
 10
4998.606523
 20
7559.572661
 30
0.0
 40
7.0
 50
359.99
 51
89.12
  0
ARC
  8
3
  6
CONTINUOUS
 62
     1
  5
447
 10
5011.606523
 20
7549.322661
 30
0.0
 40
5.5
 50
31.48
 51
43.15
  0
ARC
  8
3
  6
CONTINUOUS
 62
     1
  5
448
 10
5011.606523
 20
7549.572661
 30
0.0
 40
5.5
 50
324.08
 51
334.33
  0
ARC
  8
3
  6
CONTINUOUS
 62
     1
  5
449
 10
5011.606523
 20
7549.572661
 30
0.0
 40
5.25
 50
19.75
 51
31.48
  0
ARC
  8
3
  6
CONTINUOUS
 62
     1
  5
44A
 10
5011.606523
 20
7549.572661
 30
0.0
 40
5.25
 50
8.03
 51
19.76
  0
ARC
  8
3
  6
CONTINUOUS
 62
     1
  5
44B
 10
5011.606523
 20
7549.322661
 30
0.0
 40
5.5
 50
356.36
 51
8.03
  0
ARC
  8
3
  6
CONTINUOUS
 62
     1
  5
44C
 10
5011.606523
 20
7549.322661
 30
0.0
 40
5.25
 50
344.64
 51
356.36
  0
ARC
  8
3
  6
CONTINUOUS
 62
     1
  5
44D
 10
5011.606523
 20
7549.322661
 30
0.0
 40
5.25
 50
334.33
 51
344.64
  0
ARC
  8
3
  6
CONTINUOUS
 62
     1
  5
44E
 10
5011.606523
 20
7549.322661
 30
0.0
 40
5.25
 50
313.81
 51
324.08
  0
ARC
  8
3
  6
CONTINUOUS
 62
     1
  5
44F
 10
4958.606523
 20
7527.072661
 30
0.0
 40
36.5
 50
32.68
 51
33.87
  0
ARC
  8
3
  6
CONTINUOUS
 62
     1
  5
450
 10
4955.606523
 20
7525.072661
 30
0.0
 40
40.0
 50
30.4
 51
31.53
  0
LINE
  8
3
  6
CONTINUOUS
 62
     1
  5
451
 10
5005.606523
 20
7554.822661
 30
0.0
 11
5011.606523
 21
7554.822661
 31
0.0
  0
ARC
  8
3
  6
CONTINUOUS
 62
     1
  5
452
 10
5011.606523
 20
7549.572661
 30
0.0
 40
5.25
 50
78.27
 51
90.0
  0
ARC
  8
3
  6
CONTINUOUS
 62
     1
  5
453
 10
5011.606523
 20
7549.322661
 30
0.0
 40
5.5
 50
66.6
 51
78.27
  0
ARC
  8
3
  6
CONTINUOUS
 62
     1
  5
454
 10
5011.606523
 20
7549.572661
 30
0.0
 40
5.25
 50
54.87
 51
66.6
  0
ARC
  8
3
  6
CONTINUOUS
 62
     1
  5
455
 10
5011.606523
 20
7549.572661
 30
0.0
 40
5.25
 50
43.15
 51
54.88
  0
ARC
  8
3
  6
CONTINUOUS
 62
     1
  5
456
 10
4957.106523
 20
7526.072661
 30
0.0
 40
38.25
 50
31.53
 51
32.68
  0
ARC
  8
3
  6
CONTINUOUS
 62
     1
  5
457
 10
4946.606523
 20
7520.572661
 30
0.0
 40
50.0
 50
24.22
 51
25.2
  0
ARC
  8
3
  6
CONTINUOUS
 62
     1
  5
458
 10
5016.106523
 20
7544.822661
 30
0.0
 40
1.0
 50
133.81
 51
180.0
  0
ARC
  8
3
  6
CONTINUOUS
 62
     1
  5
459
 10
4954.356523
 20
7524.572661
 30
0.0
 40
41.5
 50
29.31
 51
30.4
  0
ARC
  8
3
  6
CONTINUOUS
 62
     1
  5
45A
 10
4953.106523
 20
7523.822661
 30
0.0
 40
43.0
 50
28.25
 51
29.31
  0
ARC
  8
3
  6
CONTINUOUS
 62
     1
  5
45B
 10
4951.606523
 20
7522.822661
 30
0.0
 40
44.5
 50
27.2
 51
28.25
  0
ARC
  8
3
  6
CONTINUOUS
 62
     1
  5
45C
 10
4949.856523
 20
7522.072661
 30
0.0
 40
46.5
 50
26.18
 51
27.2
  0
ARC
  8
3
  6
CONTINUOUS
 62
     1
  5
45D
 10
4948.106523
 20
7521.322661
 30
0.0
 40
48.25
 50
25.2
 51
26.18
  0
LINE
  8
3
  6
CONTINUOUS
 62
     1
  5
45E
 10
5015.106523
 20
7538.822661
 30
0.0
 11
5005.606523
 21
7538.822661
 31
0.0
  0
ARC
  8
3
  6
CONTINUOUS
 62
     1
  5
45F
 10
4946.106523
 20
7520.322661
 30
0.0
 40
50.75
 50
23.24
 51
24.22
  0
ARC
  8
3
  6
CONTINUOUS
 62
     1
  5
460
 10
4945.356523
 20
7520.072661
 30
0.0
 40
51.5
 50
22.28
 51
23.24
  0
ARC
  8
3
  6
CONTINUOUS
 62
     1
  5
461
 10
4944.606523
 20
7519.572661
 30
0.0
 40
52.5
 50
21.28
 51
22.28
  0
ARC
  8
3
  6
CONTINUOUS
 62
     1
  5
462
 10
4943.356523
 20
7519.072661
 30
0.0
 40
53.75
 50
20.32
 51
21.28
  0
LINE
  8
3
  6
CONTINUOUS
 62
     1
  5
463
 10
4921.606523
 20
7567.322661
 30
0.0
 11
4896.606523
 21
7567.322661
 31
0.0
  0
LINE
  8
3
  6
CONTINUOUS
 62
     1
  5
464
 10
4896.606523
 20
7567.322661
 30
0.0
 11
4896.106523
 21
7567.322661
 31
0.0
  0
LINE
  8
3
  6
CONTINUOUS
 62
     1
  5
465
 10
4918.606523
 20
7560.822661
 30
0.0
 11
4913.856523
 21
7560.822661
 31
0.0
  0
LINE
  8
3
  6
CONTINUOUS
 62
     1
  5
466
 10
4963.856523
 20
7558.572661
 30
0.0
 11
4954.856523
 21
7559.072661
 31
0.0
  0
ARC
  8
3
  6
CONTINUOUS
 62
     1
  5
467
 10
4943.106523
 20
7471.072661
 30
0.0
 40
88.25
 50
81.85
 51
83.74
  0
LINE
  8
3
  6
CONTINUOUS
 62
     1
  5
468
 10
4973.106523
 20
7566.822661
 30
0.0
 11
4948.106523
 21
7567.072661
 31
0.0
  0
LINE
  8
3
  6
CONTINUOUS
 62
     1
  5
469
 10
4948.106523
 20
7567.072661
 30
0.0
 11
4947.356523
 21
7567.072661
 31
0.0
  0
ARC
  8
3
  6
CONTINUOUS
 62
     1
  5
46A
 10
4940.356523
 20
7448.322661
 30
0.0
 40
111.25
 50
83.73
 51
84.88
  0
LINE
  8
3
  6
CONTINUOUS
 62
     1
  5
46B
 10
4954.856523
 20
7559.072661
 30
0.0
 11
4945.856523
 21
7559.572661
 31
0.0
  0
LINE
  8
3
  6
CONTINUOUS
 62
     1
  5
46C
 10
4947.356523
 20
7567.072661
 30
0.0
 11
4922.356523
 21
7567.322661
 31
0.0
  0
LINE
  8
3
  6
CONTINUOUS
 62
     1
  5
46D
 10
4922.356523
 20
7567.322661
 30
0.0
 11
4921.606523
 21
7567.322661
 31
0.0
  0
ARC
  8
3
  6
CONTINUOUS
 62
     1
  5
46E
 10
4921.106523
 20
7170.072661
 30
0.0
 40
390.5
 50
86.96
 51
87.09
  0
ARC
  8
3
  6
CONTINUOUS
 62
     1
  5
46F
 10
4937.106523
 20
7411.322661
 30
0.0
 40
148.25
 50
84.88
 51
85.76
  0
ARC
  8
3
  6
CONTINUOUS
 62
     1
  5
470
 10
4932.106523
 20
7344.322661
 30
0.0
 40
215.5
 50
85.76
 51
86.38
  0
ARC
  8
3
  6
CONTINUOUS
 62
     1
  5
471
 10
4926.856523
 20
7259.572661
 30
0.0
 40
300.75
 50
86.36
 51
86.5
  0
ARC
  8
3
  6
CONTINUOUS
 62
     1
  5
472
 10
4922.606523
 20
7192.572661
 30
0.0
 40
368.0
 50
86.5
 51
86.61
  0
ARC
  8
3
  6
CONTINUOUS
 62
     1
  5
473
 10
4916.606523
 20
7090.072661
 30
0.0
 40
470.75
 50
86.61
 51
86.7
  0
ARC
  8
3
  6
CONTINUOUS
 62
     1
  5
474
 10
4921.356523
 20
7171.822661
 30
0.0
 40
388.75
 50
86.7
 51
86.83
  0
ARC
  8
3
  6
CONTINUOUS
 62
     1
  5
475
 10
4921.106523
 20
7170.572661
 30
0.0
 40
389.75
 50
86.83
 51
86.96
  0
LINE
  8
3
  6
CONTINUOUS
 62
     1
  5
476
 10
4938.606523
 20
7560.072661
 30
0.0
 11
4938.356523
 21
7560.072661
 31
0.0
  0
ARC
  8
3
  6
CONTINUOUS
 62
     1
  5
477
 10
4926.106523
 20
7266.822661
 30
0.0
 40
293.5
 50
87.09
 51
87.2
  0
ARC
  8
3
  6
CONTINUOUS
 62
     1
  5
478
 10
4918.856523
 20
7117.572661
 30
0.0
 40
443.0
 50
87.2
 51
87.27
  0
LINE
  8
3
  6
CONTINUOUS
 62
     1
  5
479
 10
4939.856523
 20
7559.822661
 30
0.0
 11
4939.356523
 21
7560.072661
 31
0.0
  0
LINE
  8
3
  6
CONTINUOUS
 62
     1
  5
47A
 10
4939.356523
 20
7560.072661
 30
0.0
 11
4939.106523
 21
7560.072661
 31
0.0
  0
LINE
  8
3
  6
CONTINUOUS
 62
     1
  5
47B
 10
4939.106523
 20
7560.072661
 30
0.0
 11
4938.606523
 21
7560.072661
 31
0.0
  0
LINE
  8
3
  6
CONTINUOUS
 62
     1
  5
47C
 10
4928.606523
 20
7560.322661
 30
0.0
 11
4923.606523
 21
7560.572661
 31
0.0
  0
LINE
  8
3
  6
CONTINUOUS
 62
     1
  5
47D
 10
4938.356523
 20
7560.072661
 30
0.0
 11
4933.356523
 21
7560.322661
 31
0.0
  0
LINE
  8
3
  6
CONTINUOUS
 62
     1
  5
47E
 10
4933.356523
 20
7560.322661
 30
0.0
 11
4928.606523
 21
7560.322661
 31
0.0
  0
LINE
  8
3
  6
CONTINUOUS
 62
     1
  5
47F
 10
4923.606523
 20
7560.572661
 30
0.0
 11
4918.606523
 21
7560.822661
 31
0.0
  0
ARC
  8
3
  6
CONTINUOUS
 62
     1
  5
480
 10
4969.356523
 20
7535.822661
 30
0.0
 40
15.75
 50
47.58
 51
49.03
  0
ARC
  8
3
  6
CONTINUOUS
 62
     1
  5
481
 10
4971.356523
 20
7539.072661
 30
0.0
 40
18.75
 50
61.8
 51
63.88
  0
ARC
  8
3
  6
CONTINUOUS
 62
     1
  5
482
 10
4958.106523
 20
7525.572661
 30
0.0
 40
30.75
 50
40.21
 51
41.61
  0
ARC
  8
3
  6
CONTINUOUS
 62
     1
  5
483
 10
4958.856523
 20
7526.322661
 30
0.0
 40
29.75
 50
41.61
 51
43.06
  0
ARC
  8
3
  6
CONTINUOUS
 62
     1
  5
484
 10
4959.606523
 20
7527.072661
 30
0.0
 40
28.75
 50
43.06
 51
44.55
  0
ARC
  8
3
  6
CONTINUOUS
 62
     1
  5
485
 10
4974.606523
 20
7541.822661
 30
0.0
 40
7.75
 50
44.67
 51
47.58
  0
ARC
  8
3
  6
CONTINUOUS
 62
     1
  5
486
 10
4971.356523
 20
7538.822661
 30
0.0
 40
19.0
 50
59.76
 51
61.8
  0
ARC
  8
3
  6
CONTINUOUS
 62
     1
  5
487
 10
4971.106523
 20
7538.322661
 30
0.0
 40
19.5
 50
57.75
 51
59.75
  0
ARC
  8
3
  6
CONTINUOUS
 62
     1
  5
488
 10
4970.856523
 20
7538.072661
 30
0.0
 40
20.0
 50
55.8
 51
57.75
  0
ARC
  8
3
  6
CONTINUOUS
 62
     1
  5
489
 10
4970.606523
 20
7537.572661
 30
0.0
 40
20.5
 50
53.89
 51
55.8
  0
ARC
  8
3
  6
CONTINUOUS
 62
     1
  5
48A
 10
4970.106523
 20
7537.072661
 30
0.0
 40
21.0
 50
52.02
 51
53.89
  0
ARC
  8
3
  6
CONTINUOUS
 62
     1
  5
48B
 10
4969.606523
 20
7536.572661
 30
0.0
 40
21.75
 50
50.22
 51
52.02
  0
ARC
  8
3
  6
CONTINUOUS
 62
     1
  5
48C
 10
4969.106523
 20
7536.072661
 30
0.0
 40
22.5
 50
48.48
 51
50.22
  0
ARC
  8
3
  6
CONTINUOUS
 62
     1
  5
48D
 10
4968.606523
 20
7535.322661
 30
0.0
 40
23.5
 50
46.77
 51
48.48
  0
ARC
  8
3
  6
CONTINUOUS
 62
     1
  5
48E
 10
4968.106523
 20
7534.572661
 30
0.0
 40
24.5
 50
45.13
 51
46.77
  0
ARC
  8
3
  6
CONTINUOUS
 62
     1
  5
48F
 10
4967.356523
 20
7533.822661
 30
0.0
 40
25.25
 50
43.55
 51
45.13
  0
ARC
  8
3
  6
CONTINUOUS
 62
     1
  5
490
 10
4966.606523
 20
7533.072661
 30
0.0
 40
26.5
 50
42.01
 51
43.55
  0
ARC
  8
3
  6
CONTINUOUS
 62
     1
  5
491
 10
4965.606523
 20
7532.322661
 30
0.0
 40
27.75
 50
40.53
 51
42.01
  0
ARC
  8
3
  6
CONTINUOUS
 62
     1
  5
492
 10
4964.606523
 20
7531.572661
 30
0.0
 40
29.0
 50
39.11
 51
40.53
  0
ARC
  8
3
  6
CONTINUOUS
 62
     1
  5
493
 10
4963.356523
 20
7530.572661
 30
0.0
 40
30.5
 50
37.73
 51
39.12
  0
ARC
  8
3
  6
CONTINUOUS
 62
     1
  5
494
 10
4962.356523
 20
7529.822661
 30
0.0
 40
31.75
 50
36.4
 51
37.73
  0
ARC
  8
3
  6
CONTINUOUS
 62
     1
  5
495
 10
4961.356523
 20
7528.822661
 30
0.0
 40
33.25
 50
35.13
 51
36.4
  0
ARC
  8
3
  6
CONTINUOUS
 62
     1
  5
496
 10
4958.606523
 20
7525.822661
 30
0.0
 40
30.25
 50
29.0
 51
31.24
  0
ARC
  8
3
  6
CONTINUOUS
 62
     1
  5
497
 10
4958.606523
 20
7526.072661
 30
0.0
 40
30.25
 50
31.24
 51
33.49
  0
ARC
  8
3
  6
CONTINUOUS
 62
     1
  5
498
 10
4958.606523
 20
7526.072661
 30
0.0
 40
30.25
 50
33.49
 51
35.74
  0
ARC
  8
3
  6
CONTINUOUS
 62
     1
  5
499
 10
4958.606523
 20
7526.072661
 30
0.0
 40
30.25
 50
35.74
 51
37.97
  0
ARC
  8
3
  6
CONTINUOUS
 62
     1
  5
49A
 10
4958.606523
 20
7526.072661
 30
0.0
 40
30.25
 50
37.97
 51
40.21
  0
ARC
  8
3
  6
CONTINUOUS
 62
     1
  5
49B
 10
4958.856523
 20
7526.072661
 30
0.0
 40
30.0
 50
22.26
 51
23.77
  0
ARC
  8
3
  6
CONTINUOUS
 62
     1
  5
49C
 10
4958.606523
 20
7526.072661
 30
0.0
 40
30.25
 50
23.77
 51
25.27
  0
ARC
  8
3
  6
CONTINUOUS
 62
     1
  5
49D
 10
4958.606523
 20
7526.072661
 30
0.0
 40
30.25
 50
25.27
 51
26.76
  0
ARC
  8
3
  6
CONTINUOUS
 62
     1
  5
49E
 10
4958.356523
 20
7525.822661
 30
0.0
 40
30.5
 50
26.76
 51
29.0
  0
ARC
  8
3
  6
CONTINUOUS
 62
     1
  5
49F
 10
4971.606523
 20
7539.322661
 30
0.0
 40
18.25
 50
70.32
 51
72.49
  0
ARC
  8
3
  6
CONTINUOUS
 62
     1
  5
4A0
 10
4946.106523
 20
7510.072661
 30
0.0
 40
50.5
 50
51.03
 51
51.98
  0
LINE
  8
3
  6
CONTINUOUS
 62
     1
  5
4A1
 10
4979.606523
 20
7547.822661
 30
0.0
 11
4979.356523
 21
7548.072661
 31
0.0
  0
ARC
  8
3
  6
CONTINUOUS
 62
     1
  5
4A2
 10
4942.856523
 20
7506.072661
 30
0.0
 40
55.5
 50
48.89
 51
49.29
  0
ARC
  8
3
  6
CONTINUOUS
 62
     1
  5
4A3
 10
4943.856523
 20
7507.322661
 30
0.0
 40
54.0
 50
49.29
 51
49.69
  0
ARC
  8
3
  6
CONTINUOUS
 62
     1
  5
4A4
 10
4944.606523
 20
7508.322661
 30
0.0
 40
52.5
 50
49.69
 51
50.11
  0
ARC
  8
3
  6
CONTINUOUS
 62
     1
  5
4A5
 10
4944.856523
 20
7508.572661
 30
0.0
 40
52.5
 50
50.1
 51
51.03
  0
ARC
  8
3
  6
CONTINUOUS
 62
     1
  5
4A6
 10
4971.606523
 20
7539.322661
 30
0.0
 40
18.5
 50
68.16
 51
70.32
  0
ARC
  8
3
  6
CONTINUOUS
 62
     1
  5
4A7
 10
4971.606523
 20
7539.322661
 30
0.0
 40
18.25
 50
66.0
 51
68.16
  0
ARC
  8
3
  6
CONTINUOUS
 62
     1
  5
4A8
 10
4971.606523
 20
7539.322661
 30
0.0
 40
18.5
 50
63.88
 51
65.99
  0
ARC
  8
3
  6
CONTINUOUS
 62
     1
  5
4A9
 10
4947.356523
 20
7511.822661
 30
0.0
 40
48.25
 50
51.98
 51
52.97
  0
ARC
  8
3
  6
CONTINUOUS
 62
     1
  5
4AA
 10
4947.606523
 20
7500.072661
 30
0.0
 40
59.0
 50
76.76
 51
79.52
  0
ARC
  8
3
  6
CONTINUOUS
 62
     1
  5
4AB
 10
4949.856523
 20
7514.822661
 30
0.0
 40
44.25
 50
52.95
 51
56.74
  0
ARC
  8
3
  6
CONTINUOUS
 62
     1
  5
4AC
 10
4951.606523
 20
7517.572661
 30
0.0
 40
41.25
 50
56.74
 51
60.72
  0
ARC
  8
3
  6
CONTINUOUS
 62
     1
  5
4AD
 10
4952.856523
 20
7520.072661
 30
0.0
 40
38.25
 50
60.72
 51
64.91
  0
ARC
  8
3
  6
CONTINUOUS
 62
     1
  5
4AE
 10
4953.106523
 20
7520.322661
 30
0.0
 40
38.0
 50
64.94
 51
68.61
  0
ARC
  8
3
  6
CONTINUOUS
 62
     1
  5
4AF
 10
4952.606523
 20
7519.072661
 30
0.0
 40
39.5
 50
68.61
 51
72.13
  0
ARC
  8
3
  6
CONTINUOUS
 62
     1
  5
4B0
 10
4951.856523
 20
7516.822661
 30
0.0
 40
41.75
 50
72.13
 51
75.45
  0
ARC
  8
3
  6
CONTINUOUS
 62
     1
  5
4B1
 10
4949.106523
 20
7506.572661
 30
0.0
 40
52.5
 50
75.44
 51
75.87
  0
ARC
  8
3
  6
CONTINUOUS
 62
     1
  5
4B2
 10
4948.856523
 20
7505.572661
 30
0.0
 40
53.25
 50
75.87
 51
76.3
  0
ARC
  8
3
  6
CONTINUOUS
 62
     1
  5
4B3
 10
4948.606523
 20
7504.572661
 30
0.0
 40
54.25
 50
76.3
 51
76.72
  0
LINE
  8
3
  6
CONTINUOUS
 62
     1
  5
4B4
 10
4972.856523
 20
7557.822661
 30
0.0
 11
4963.856523
 21
7558.572661
 31
0.0
  0
ARC
  8
3
  6
CONTINUOUS
 62
     1
  5
4B5
 10
4971.356523
 20
7537.822661
 30
0.0
 40
20.0
 50
83.53
 51
85.67
  0
ARC
  8
3
  6
CONTINUOUS
 62
     1
  5
4B6
 10
4971.356523
 20
7538.072661
 30
0.0
 40
19.75
 50
81.34
 51
83.53
  0
ARC
  8
3
  6
CONTINUOUS
 62
     1
  5
4B7
 10
4971.356523
 20
7538.822661
 30
0.0
 40
19.0
 50
79.1
 51
81.34
  0
ARC
  8
3
  6
CONTINUOUS
 62
     1
  5
4B8
 10
4971.356523
 20
7539.072661
 30
0.0
 40
18.75
 50
76.9
 51
79.09
  0
ARC
  8
3
  6
CONTINUOUS
 62
     1
  5
4B9
 10
4971.356523
 20
7539.072661
 30
0.0
 40
18.75
 50
74.71
 51
76.9
  0
ARC
  8
3
  6
CONTINUOUS
 62
     1
  5
4BA
 10
4971.606523
 20
7539.322661
 30
0.0
 40
18.5
 50
72.49
 51
74.71
  0
ARC
  8
3
  6
CONTINUOUS
 62
     1
  5
4BB
 10
4945.606523
 20
7488.572661
 30
0.0
 40
70.75
 50
79.52
 51
81.85
  0
LINE
  8
3
  6
CONTINUOUS
 62
     1
  5
4BC
 10
4896.106523
 20
7567.322661
 30
0.0
 11
4871.106523
 21
7567.322661
 31
0.0
  0
LINE
  8
3
  6
CONTINUOUS
 62
     1
  5
4BD
 10
4871.106523
 20
7567.322661
 30
0.0
 11
4870.606523
 21
7567.322661
 31
0.0
  0
LINE
  8
3
  6
CONTINUOUS
 62
     1
  5
4BE
 10
4882.106523
 20
7561.322661
 30
0.0
 11
4875.356523
 21
7561.072661
 31
0.0
  0
LINE
  8
3
  6
CONTINUOUS
 62
     1
  5
4BF
 10
4903.356523
 20
7561.072661
 30
0.0
 11
4897.606523
 21
7561.072661
 31
0.0
  0
LINE
  8
3
  6
CONTINUOUS
 62
     1
  5
4C0
 10
4913.856523
 20
7560.822661
 30
0.0
 11
4908.856523
 21
7561.072661
 31
0.0
  0
LINE
  8
3
  6
CONTINUOUS
 62
     1
  5
4C1
 10
4908.856523
 20
7561.072661
 30
0.0
 11
4903.356523
 21
7561.072661
 31
0.0
  0
LINE
  8
3
  6
CONTINUOUS
 62
     1
  5
4C2
 10
4891.106523
 20
7561.322661
 30
0.0
 11
4889.856523
 21
7561.322661
 31
0.0
  0
LINE
  8
3
  6
CONTINUOUS
 62
     1
  5
4C3
 10
4897.606523
 20
7561.072661
 30
0.0
 11
4892.106523
 21
7561.322661
 31
0.0
  0
LINE
  8
3
  6
CONTINUOUS
 62
     1
  5
4C4
 10
4892.106523
 20
7561.322661
 30
0.0
 11
4891.106523
 21
7561.322661
 31
0.0
  0
LINE
  8
3
  6
CONTINUOUS
 62
     1
  5
4C5
 10
4889.856523
 20
7561.322661
 30
0.0
 11
4888.606523
 21
7561.322661
 31
0.0
  0
LINE
  8
3
  6
CONTINUOUS
 62
     1
  5
4C6
 10
4888.606523
 20
7561.322661
 30
0.0
 11
4882.106523
 21
7561.322661
 31
0.0
  0
LINE
  8
3
  6
CONTINUOUS
 62
     1
  5
4C7
 10
4870.606523
 20
7567.322661
 30
0.0
 11
4845.606523
 21
7567.322661
 31
0.0
  0
LINE
  8
3
  6
CONTINUOUS
 62
     1
  5
4C8
 10
4845.606523
 20
7567.322661
 30
0.0
 11
4845.106523
 21
7567.322661
 31
0.0
  0
LINE
  8
3
  6
CONTINUOUS
 62
     1
  5
4C9
 10
4868.606523
 20
7561.072661
 30
0.0
 11
4862.856523
 21
7561.072661
 31
0.0
  0
LINE
  8
3
  6
CONTINUOUS
 62
     1
  5
4CA
 10
4875.356523
 20
7561.072661
 30
0.0
 11
4868.606523
 21
7561.072661
 31
0.0
  0
LINE
  8
3
  6
CONTINUOUS
 62
     1
  5
4CB
 10
4862.856523
 20
7561.072661
 30
0.0
 11
4856.856523
 21
7560.822661
 31
0.0
  0
LINE
  8
3
  6
CONTINUOUS
 62
     1
  5
4CC
 10
4856.856523
 20
7560.822661
 30
0.0
 11
4851.106523
 21
7560.822661
 31
0.0
  0
LINE
  8
3
  6
CONTINUOUS
 62
     1
  5
4CD
 10
4851.106523
 20
7560.822661
 30
0.0
 11
4849.106523
 21
7560.572661
 31
0.0
  0
LINE
  8
3
  6
CONTINUOUS
 62
     1
  5
4CE
 10
4849.106523
 20
7560.572661
 30
0.0
 11
4847.106523
 21
7560.572661
 31
0.0
  0
LINE
  8
3
  6
CONTINUOUS
 62
     1
  5
4CF
 10
4847.106523
 20
7560.572661
 30
0.0
 11
4845.106523
 21
7560.572661
 31
0.0
  0
ARC
  8
3
  6
CONTINUOUS
 62
     1
  5
4D0
 10
4987.606523
 20
7189.322661
 30
0.0
 40
309.75
 50
89.55
 51
90.39
  0
ARC
  8
3
  6
CONTINUOUS
 62
     1
  5
4D1
 10
4793.856523
 20
7502.072661
 30
0.0
 40
205.25
 50
357.36
 51
358.11
  0
LINE
  8
3
  6
CONTINUOUS
 62
     1
  5
4D2
 10
5005.606523
 20
7497.072661
 30
0.0
 11
5005.606523
 21
7491.822661
 31
0.0
  0
LINE
  8
3
  6
CONTINUOUS
 62
     1
  5
4D3
 10
5015.106523
 20
7523.572661
 30
0.0
 11
5015.106523
 21
7510.072661
 31
0.0
  0
LINE
  8
3
  6
CONTINUOUS
 62
     1
  5
4D4
 10
5005.606523
 20
7523.822661
 30
0.0
 11
5005.606523
 21
7507.072661
 31
0.0
  0
ARC
  8
3
  6
CONTINUOUS
 62
     1
  5
4D5
 10
4841.856523
 20
7497.322661
 30
0.0
 40
157.5
 50
5.57
 51
6.91
  0
LINE
  8
3
  6
CONTINUOUS
 62
     1
  5
4D6
 10
5015.106523
 20
7534.072661
 30
0.0
 11
5015.106523
 21
7523.572661
 31
0.0
  0
ARC
  8
3
  6
CONTINUOUS
 62
     1
  5
4D7
 10
4864.106523
 20
7500.822661
 30
0.0
 40
135.0
 50
11.35
 51
12.95
  0
ARC
  8
3
  6
CONTINUOUS
 62
     1
  5
4D8
 10
4942.356523
 20
7518.822661
 30
0.0
 40
54.75
 50
18.35
 51
19.37
  0
ARC
  8
3
  6
CONTINUOUS
 62
     1
  5
4D9
 10
4942.356523
 20
7518.822661
 30
0.0
 40
54.75
 50
17.34
 51
18.35
  0
ARC
  8
3
  6
CONTINUOUS
 62
     1
  5
4DA
 10
4942.606523
 20
7518.822661
 30
0.0
 40
54.5
 50
16.32
 51
17.34
  0
ARC
  8
3
  6
CONTINUOUS
 62
     1
  5
4DB
 10
4943.106523
 20
7519.072661
 30
0.0
 40
54.0
 50
15.21
 51
16.32
  0
ARC
  8
3
  6
CONTINUOUS
 62
     1
  5
4DC
 10
4943.856523
 20
7519.072661
 30
0.0
 40
53.25
 50
14.09
 51
15.21
  0
ARC
  8
3
  6
CONTINUOUS
 62
     1
  5
4DD
 10
4944.606523
 20
7519.322661
 30
0.0
 40
52.25
 50
12.95
 51
14.09
  0
ARC
  8
3
  6
CONTINUOUS
 62
     1
  5
4DE
 10
4848.356523
 20
7498.322661
 30
0.0
 40
151.0
 50
6.91
 51
8.32
  0
ARC
  8
3
  6
CONTINUOUS
 62
     1
  5
4DF
 10
4859.356523
 20
7500.072661
 30
0.0
 40
139.75
 50
9.81
 51
11.35
  0
ARC
  8
3
  6
CONTINUOUS
 62
     1
  5
4E0
 10
4855.356523
 20
7499.322661
 30
0.0
 40
143.75
 50
8.32
 51
9.81
  0
ARC
  8
3
  6
CONTINUOUS
 62
     1
  5
4E1
 10
4835.356523
 20
7496.822661
 30
0.0
 40
164.25
 50
4.29
 51
5.57
  0
ARC
  8
3
  6
CONTINUOUS
 62
     1
  5
4E2
 10
4905.856523
 20
7502.072661
 30
0.0
 40
93.25
 50
3.73
 51
4.29
  0
ARC
  8
3
  6
CONTINUOUS
 62
     1
  5
4E3
 10
4904.106523
 20
7502.072661
 30
0.0
 40
95.0
 50
3.19
 51
3.73
  0
ARC
  8
3
  6
CONTINUOUS
 62
     1
  5
4E4
 10
4902.356523
 20
7501.822661
 30
0.0
 40
96.75
 50
2.65
 51
3.19
  0
ARC
  8
3
  6
CONTINUOUS
 62
     1
  5
4E5
 10
4889.606523
 20
7501.322661
 30
0.0
 40
109.75
 50
1.9
 51
2.64
  0
ARC
  8
3
  6
CONTINUOUS
 62
     1
  5
4E6
 10
4881.106523
 20
7501.072661
 30
0.0
 40
118.0
 50
1.21
 51
1.9
  0
ARC
  8
3
  6
CONTINUOUS
 62
     1
  5
4E7
 10
4871.356523
 20
7500.822661
 30
0.0
 40
128.0
 50
0.57
 51
1.21
  0
ARC
  8
3
  6
CONTINUOUS
 62
     1
  5
4E8
 10
4861.356523
 20
7500.822661
 30
0.0
 40
138.0
 50
0.01
 51
0.57
  0
ARC
  8
3
  6
CONTINUOUS
 62
     1
  5
4E9
 10
4851.106523
 20
7500.822661
 30
0.0
 40
148.25
 50
359.48
 51
0.01
  0
ARC
  8
3
  6
CONTINUOUS
 62
     1
  5
4EA
 10
4839.356523
 20
7500.822661
 30
0.0
 40
159.75
 50
358.99
 51
359.48
  0
ARC
  8
3
  6
CONTINUOUS
 62
     1
  5
4EB
 10
4821.606523
 20
7501.072661
 30
0.0
 40
177.5
 50
358.11
 51
358.98
  0
LINE
  8
3
  6
CONTINUOUS
 62
     1
  5
4EC
 10
5015.106523
 20
7510.072661
 30
0.0
 11
5005.606523
 21
7509.822661
 31
0.0
  0
LINE
  8
3
  6
CONTINUOUS
 62
     1
  5
4ED
 10
5005.606523
 20
7507.072661
 30
0.0
 11
5005.606523
 21
7502.072661
 31
0.0
  0
LINE
  8
3
  6
CONTINUOUS
 62
     1
  5
4EE
 10
5005.606523
 20
7502.072661
 30
0.0
 11
5005.606523
 21
7497.072661
 31
0.0
  0
ARC
  8
3
  6
CONTINUOUS
 62
     1
  5
4EF
 10
4987.356523
 20
7174.322661
 30
0.0
 40
324.75
 50
88.74
 51
89.55
  0
LINE
  8
3
  6
CONTINUOUS
 62
     1
  5
4F0
 10
5005.606523
 20
7471.822661
 30
0.0
 11
5005.606523
 21
7474.822661
 31
0.0
  0
ARC
  8
3
  6
CONTINUOUS
 62
     1
  5
4F1
 10
5319.606523
 20
7450.572661
 30
0.0
 40
322.75
 50
175.93
 51
176.22
  0
LINE
  8
3
  6
CONTINUOUS
 62
     1
  5
4F2
 10
5005.606523
 20
7477.572661
 30
0.0
 11
5005.606523
 21
7480.572661
 31
0.0
  0
LINE
  8
3
  6
CONTINUOUS
 62
     1
  5
4F3
 10
4998.356523
 20
7479.822661
 30
0.0
 11
4998.106523
 21
7478.322661
 31
0.0
  0
LINE
  8
3
  6
CONTINUOUS
 62
     1
  5
4F4
 10
5005.606523
 20
7480.572661
 30
0.0
 11
5005.606523
 21
7483.572661
 31
0.0
  0
ARC
  8
3
  6
CONTINUOUS
 62
     1
  5
4F5
 10
4323.356523
 20
7534.072661
 30
0.0
 40
677.0
 50
355.52
 51
355.76
  0
LINE
  8
3
  6
CONTINUOUS
 62
     1
  5
4F6
 10
5005.606523
 20
7491.822661
 30
0.0
 11
5005.606523
 21
7491.572661
 31
0.0
  0
LINE
  8
3
  6
CONTINUOUS
 62
     1
  5
4F7
 10
5005.606523
 20
7491.572661
 30
0.0
 11
5005.606523
 21
7491.072661
 31
0.0
  0
LINE
  8
3
  6
CONTINUOUS
 62
     1
  5
4F8
 10
5005.606523
 20
7491.072661
 30
0.0
 11
5005.606523
 21
7490.572661
 31
0.0
  0
LINE
  8
3
  6
CONTINUOUS
 62
     1
  5
4F9
 10
5005.606523
 20
7490.572661
 30
0.0
 11
5005.606523
 21
7490.322661
 31
0.0
  0
LINE
  8
3
  6
CONTINUOUS
 62
     1
  5
4FA
 10
5005.606523
 20
7490.322661
 30
0.0
 11
5005.606523
 21
7489.822661
 31
0.0
  0
LINE
  8
3
  6
CONTINUOUS
 62
     1
  5
4FB
 10
5005.606523
 20
7489.822661
 30
0.0
 11
5005.606523
 21
7489.322661
 31
0.0
  0
LINE
  8
3
  6
CONTINUOUS
 62
     1
  5
4FC
 10
5005.606523
 20
7486.572661
 30
0.0
 11
5005.606523
 21
7489.322661
 31
0.0
  0
LINE
  8
3
  6
CONTINUOUS
 62
     1
  5
4FD
 10
5005.606523
 20
7483.572661
 30
0.0
 11
5005.606523
 21
7486.572661
 31
0.0
  0
ARC
  8
3
  6
CONTINUOUS
 62
     1
  5
4FE
 10
4758.606523
 20
7503.572661
 30
0.0
 40
240.75
 50
356.72
 51
357.36
  0
ARC
  8
3
  6
CONTINUOUS
 62
     1
  5
4FF
 10
4705.606523
 20
7506.822661
 30
0.0
 40
293.75
 50
356.16
 51
356.71
  0
ARC
  8
3
  6
CONTINUOUS
 62
     1
  5
500
 10
4587.356523
 20
7514.572661
 30
0.0
 40
412.5
 50
355.76
 51
356.16
  0
LINE
  8
3
  6
CONTINUOUS
 62
     1
  5
501
 10
4998.356523
 20
7479.822661
 30
0.0
 11
4998.356523
 21
7481.322661
 31
0.0
  0
LINE
  8
3
  6
CONTINUOUS
 62
     1
  5
502
 10
5005.606523
 20
7474.822661
 30
0.0
 11
5005.606523
 21
7477.572661
 31
0.0
  0
LINE
  8
3
  6
CONTINUOUS
 62
     1
  5
503
 10
4998.106523
 20
7478.322661
 30
0.0
 11
4998.106523
 21
7476.822661
 31
0.0
  0
ARC
  8
3
  6
CONTINUOUS
 62
     1
  5
504
 10
5652.356523
 20
7426.072661
 30
0.0
 40
656.25
 50
175.56
 51
175.7
  0
ARC
  8
3
  6
CONTINUOUS
 62
     1
  5
505
 10
5430.106523
 20
7442.572661
 30
0.0
 40
433.5
 50
175.7
 51
175.93
  0
LINE
  8
3
  6
CONTINUOUS
 62
     1
  5
506
 10
5005.606523
 20
7468.322661
 30
0.0
 11
5005.606523
 21
7465.072661
 31
0.0
  0
LINE
  8
3
  6
CONTINUOUS
 62
     1
  5
507
 10
4997.606523
 20
7471.822661
 30
0.0
 11
4996.856523
 21
7457.572661
 31
0.0
  0
LINE
  8
3
  6
CONTINUOUS
 62
     1
  5
508
 10
5015.606523
 20
7471.072661
 30
0.0
 11
5007.356523
 21
7471.822661
 31
0.0
  0
LINE
  8
3
  6
CONTINUOUS
 62
     1
  5
509
 10
5005.606523
 20
7471.822661
 30
0.0
 11
5005.606523
 21
7468.322661
 31
0.0
  0
LINE
  8
3
  6
CONTINUOUS
 62
     1
  5
50A
 10
5005.606523
 20
7465.072661
 30
0.0
 11
5005.606523
 21
7461.822661
 31
0.0
  0
LINE
  8
3
  6
CONTINUOUS
 62
     1
  5
50B
 10
5005.606523
 20
7461.822661
 30
0.0
 11
5005.606523
 21
7458.572661
 31
0.0
  0
LINE
  8
3
  6
CONTINUOUS
 62
     1
  5
50C
 10
5005.606523
 20
7458.572661
 30
0.0
 11
5005.606523
 21
7455.072661
 31
0.0
  0
LINE
  8
3
  6
CONTINUOUS
 62
     1
  5
50D
 10
5005.606523
 20
7455.072661
 30
0.0
 11
5005.606523
 21
7451.822661
 31
0.0
  0
ARC
  8
3
  6
CONTINUOUS
 62
     1
  5
50E
 10
4972.106523
 20
7355.572661
 30
0.0
 40
142.25
 50
101.63
 51
102.5
  0
ARC
  8
3
  6
CONTINUOUS
 62
     1
  5
50F
 10
4915.606523
 20
7493.322661
 30
0.0
 40
3.0
 50
0.0
 51
90.0
  0
LINE
  8
3
  6
CONTINUOUS
 62
     1
  5
510
 10
4932.856523
 20
7504.322661
 30
0.0
 11
4842.106523
 21
7501.322661
 31
0.0
  0
LINE
  8
3
  6
CONTINUOUS
 62
     1
  5
511
 10
4915.606523
 20
7496.572661
 30
0.0
 11
4849.106523
 21
7496.572661
 31
0.0
  0
LINE
  8
3
  6
CONTINUOUS
 62
     1
  5
512
 10
4926.106523
 20
7513.572661
 30
0.0
 11
4914.606523
 21
7513.572661
 31
0.0
  0
ARC
  8
3
  6
CONTINUOUS
 62
     1
  5
513
 10
4973.106523
 20
7529.822661
 30
0.0
 40
15.0
 50
293.92
 51
304.65
  0
ARC
  8
3
  6
CONTINUOUS
 62
     1
  5
514
 10
4972.856523
 20
7530.572661
 30
0.0
 40
15.75
 50
283.59
 51
293.98
  0
ARC
  8
3
  6
CONTINUOUS
 62
     1
  5
515
 10
4973.356523
 20
7530.072661
 30
0.0
 40
15.0
 50
350.57
 51
359.96
  0
ARC
  8
3
  6
CONTINUOUS
 62
     1
  5
516
 10
4973.106523
 20
7530.072661
 30
0.0
 40
15.25
 50
0.03
 51
1.92
  0
ARC
  8
3
  6
CONTINUOUS
 62
     1
  5
517
 10
4973.106523
 20
7530.072661
 30
0.0
 40
15.25
 50
1.92
 51
3.79
  0
ARC
  8
3
  6
CONTINUOUS
 62
     1
  5
518
 10
4972.856523
 20
7530.072661
 30
0.0
 40
15.25
 50
3.79
 51
5.66
  0
ARC
  8
3
  6
CONTINUOUS
 62
     1
  5
519
 10
4973.106523
 20
7530.072661
 30
0.0
 40
15.25
 50
5.66
 51
9.03
  0
ARC
  8
3
  6
CONTINUOUS
 62
     1
  5
51A
 10
4972.856523
 20
7530.072661
 30
0.0
 40
15.25
 50
9.03
 51
12.38
  0
ARC
  8
3
  6
CONTINUOUS
 62
     1
  5
51B
 10
4973.106523
 20
7530.072661
 30
0.0
 40
15.25
 50
12.38
 51
15.75
  0
ARC
  8
3
  6
CONTINUOUS
 62
     1
  5
51C
 10
4958.356523
 20
7525.822661
 30
0.0
 40
30.5
 50
15.76
 51
17.91
  0
ARC
  8
3
  6
CONTINUOUS
 62
     1
  5
51D
 10
4958.606523
 20
7526.072661
 30
0.0
 40
30.25
 50
17.91
 51
20.08
  0
ARC
  8
3
  6
CONTINUOUS
 62
     1
  5
51E
 10
4972.856523
 20
7530.322661
 30
0.0
 40
15.5
 50
313.98
 51
323.0
  0
ARC
  8
3
  6
CONTINUOUS
 62
     1
  5
51F
 10
4972.606523
 20
7530.072661
 30
0.0
 40
15.75
 50
341.6
 51
350.61
  0
ARC
  8
3
  6
CONTINUOUS
 62
     1
  5
520
 10
4973.106523
 20
7530.072661
 30
0.0
 40
15.0
 50
322.97
 51
332.28
  0
ARC
  8
3
  6
CONTINUOUS
 62
     1
  5
521
 10
4973.106523
 20
7530.072661
 30
0.0
 40
15.0
 50
332.41
 51
341.65
  0
ARC
  8
3
  6
CONTINUOUS
 62
     1
  5
522
 10
4973.106523
 20
7529.822661
 30
0.0
 40
15.25
 50
304.8
 51
314.02
  0
LINE
  8
3
  6
CONTINUOUS
 62
     1
  5
523
 10
4951.356523
 20
7513.822661
 30
0.0
 11
4962.606523
 21
7514.322661
 31
0.0
  0
ARC
  8
3
  6
CONTINUOUS
 62
     1
  5
524
 10
4977.606523
 20
7325.322661
 30
0.0
 40
172.75
 50
98.53
 51
99.25
  0
ARC
  8
3
  6
CONTINUOUS
 62
     1
  5
525
 10
4987.106523
 20
7219.822661
 30
0.0
 40
279.0
 50
91.28
 51
92.2
  0
ARC
  8
3
  6
CONTINUOUS
 62
     1
  5
526
 10
4987.356523
 20
7203.572661
 30
0.0
 40
295.25
 50
90.39
 51
91.28
  0
ARC
  8
3
  6
CONTINUOUS
 62
     1
  5
527
 10
4982.606523
 20
7288.572661
 30
0.0
 40
210.25
 50
95.35
 51
96.55
  0
LINE
  8
3
  6
CONTINUOUS
 62
     1
  5
528
 10
4962.606523
 20
7514.322661
 30
0.0
 11
4973.856523
 21
7514.572661
 31
0.0
  0
ARC
  8
3
  6
CONTINUOUS
 62
     1
  5
529
 10
4973.106523
 20
7529.822661
 30
0.0
 40
15.0
 50
272.81
 51
283.65
  0
ARC
  8
3
  6
CONTINUOUS
 62
     1
  5
52A
 10
4986.356523
 20
7237.572661
 30
0.0
 40
261.5
 50
92.2
 51
93.19
  0
ARC
  8
3
  6
CONTINUOUS
 62
     1
  5
52B
 10
4985.606523
 20
7253.822661
 30
0.0
 40
245.25
 50
93.19
 51
94.23
  0
ARC
  8
3
  6
CONTINUOUS
 62
     1
  5
52C
 10
4984.356523
 20
7270.572661
 30
0.0
 40
228.25
 50
94.23
 51
95.35
  0
ARC
  8
3
  6
CONTINUOUS
 62
     1
  5
52D
 10
4980.606523
 20
7304.322661
 30
0.0
 40
194.0
 50
96.55
 51
97.84
  0
ARC
  8
3
  6
CONTINUOUS
 62
     1
  5
52E
 10
4979.106523
 20
7315.822661
 30
0.0
 40
182.5
 50
97.85
 51
98.53
  0
LINE
  8
3
  6
CONTINUOUS
 62
     1
  5
52F
 10
4940.106523
 20
7513.572661
 30
0.0
 11
4951.356523
 21
7513.822661
 31
0.0
  0
ARC
  8
3
  6
CONTINUOUS
 62
     1
  5
530
 10
4976.356523
 20
7334.072661
 30
0.0
 40
164.0
 50
99.25
 51
100.01
  0
ARC
  8
3
  6
CONTINUOUS
 62
     1
  5
531
 10
4974.856523
 20
7341.822661
 30
0.0
 40
156.25
 50
100.01
 51
100.8
  0
ARC
  8
3
  6
CONTINUOUS
 62
     1
  5
532
 10
4973.606523
 20
7349.072661
 30
0.0
 40
148.75
 50
100.8
 51
101.63
  0
LINE
  8
3
  6
CONTINUOUS
 62
     1
  5
533
 10
4938.106523
 20
7513.572661
 30
0.0
 11
4939.106523
 21
7513.572661
 31
0.0
  0
ARC
  8
3
  6
CONTINUOUS
 62
     1
  5
534
 10
4929.106523
 20
7496.322661
 30
0.0
 40
9.0
 50
0.0
 51
90.0
  0
LINE
  8
3
  6
CONTINUOUS
 62
     1
  5
535
 10
4939.106523
 20
7513.572661
 30
0.0
 11
4940.106523
 21
7513.572661
 31
0.0
  0
LINE
  8
3
  6
CONTINUOUS
 62
     1
  5
536
 10
4926.106523
 20
7513.572661
 30
0.0
 11
4927.356523
 21
7513.572661
 31
0.0
  0
LINE
  8
3
  6
CONTINUOUS
 62
     1
  5
537
 10
4927.356523
 20
7513.572661
 30
0.0
 11
4928.606523
 21
7513.572661
 31
0.0
  0
LINE
  8
3
  6
CONTINUOUS
 62
     1
  5
538
 10
4928.606523
 20
7513.572661
 30
0.0
 11
4929.856523
 21
7513.572661
 31
0.0
  0
LINE
  8
3
  6
CONTINUOUS
 62
     1
  5
539
 10
4929.856523
 20
7513.572661
 30
0.0
 11
4932.106523
 21
7513.572661
 31
0.0
  0
LINE
  8
3
  6
CONTINUOUS
 62
     1
  5
53A
 10
4932.106523
 20
7513.572661
 30
0.0
 11
4934.606523
 21
7513.572661
 31
0.0
  0
LINE
  8
3
  6
CONTINUOUS
 62
     1
  5
53B
 10
4934.606523
 20
7513.572661
 30
0.0
 11
4937.106523
 21
7513.572661
 31
0.0
  0
LINE
  8
3
  6
CONTINUOUS
 62
     1
  5
53C
 10
4937.106523
 20
7513.572661
 30
0.0
 11
4938.106523
 21
7513.572661
 31
0.0
  0
ARC
  8
3
  6
CONTINUOUS
 62
     1
  5
53D
 10
4873.606523
 20
7529.322661
 30
0.0
 40
18.0
 50
277.51
 51
283.2
  0
LINE
  8
3
  6
CONTINUOUS
 62
     1
  5
53E
 10
4914.856523
 20
7513.572661
 30
0.0
 11
4903.106523
 21
7513.322661
 31
0.0
  0
LINE
  8
3
  6
CONTINUOUS
 62
     1
  5
53F
 10
4891.106523
 20
7513.572661
 30
0.0
 11
4902.856523
 21
7513.572661
 31
0.0
  0
LINE
  8
3
  6
CONTINUOUS
 62
     1
  5
540
 10
4889.356523
 20
7513.572661
 30
0.0
 11
4890.106523
 21
7513.572661
 31
0.0
  0
LINE
  8
3
  6
CONTINUOUS
 62
     1
  5
541
 10
4890.106523
 20
7513.572661
 30
0.0
 11
4890.356523
 21
7513.572661
 31
0.0
  0
LINE
  8
3
  6
CONTINUOUS
 62
     1
  5
542
 10
4890.356523
 20
7513.572661
 30
0.0
 11
4890.606523
 21
7513.572661
 31
0.0
  0
LINE
  8
3
  6
CONTINUOUS
 62
     1
  5
543
 10
4890.606523
 20
7513.572661
 30
0.0
 11
4890.856523
 21
7513.572661
 31
0.0
  0
LINE
  8
3
  6
CONTINUOUS
 62
     1
  5
544
 10
4890.856523
 20
7513.572661
 30
0.0
 11
4891.106523
 21
7513.572661
 31
0.0
  0
ARC
  8
3
  6
CONTINUOUS
 62
     1
  5
545
 10
4873.606523
 20
7529.072661
 30
0.0
 40
17.75
 50
283.19
 51
288.89
  0
ARC
  8
3
  6
CONTINUOUS
 62
     1
  5
546
 10
4887.356523
 20
7489.072661
 30
0.0
 40
24.5
 50
102.6
 51
108.88
  0
ARC
  8
3
  6
CONTINUOUS
 62
     1
  5
547
 10
4887.356523
 20
7488.572661
 30
0.0
 40
24.75
 50
96.39
 51
102.62
  0
ARC
  8
3
  6
CONTINUOUS
 62
     1
  5
548
 10
4887.356523
 20
7489.072661
 30
0.0
 40
24.5
 50
90.04
 51
96.4
  0
LINE
  8
3
  6
CONTINUOUS
 62
     1
  5
549
 10
4888.356523
 20
7513.572661
 30
0.0
 11
4887.356523
 21
7513.572661
 31
0.0
  0
LINE
  8
3
  6
CONTINUOUS
 62
     1
  5
54A
 10
4889.356523
 20
7513.572661
 30
0.0
 11
4888.356523
 21
7513.572661
 31
0.0
  0
ARC
  8
3
  6
CONTINUOUS
 62
     1
  5
54B
 10
4857.606523
 20
7500.822661
 30
0.0
 40
14.5
 50
60.58
 51
63.96
  0
ARC
  8
3
  6
CONTINUOUS
 62
     1
  5
54C
 10
4873.856523
 20
7529.572661
 30
0.0
 40
18.0
 50
241.27
 51
245.43
  0
ARC
  8
3
  6
CONTINUOUS
 62
     1
  5
54D
 10
4873.606523
 20
7529.322661
 30
0.0
 40
18.0
 50
245.43
 51
249.63
  0
ARC
  8
3
  6
CONTINUOUS
 62
     1
  5
54E
 10
4873.606523
 20
7528.822661
 30
0.0
 40
17.5
 50
249.62
 51
253.92
  0
LINE
  8
3
  6
CONTINUOUS
 62
     1
  5
54F
 10
4868.606523
 20
7512.072661
 30
0.0
 11
4868.606523
 21
7511.822661
 31
0.0
  0
LINE
  8
3
  6
CONTINUOUS
 62
     1
  5
550
 10
4868.606523
 20
7511.822661
 30
0.0
 11
4868.856523
 21
7511.822661
 31
0.0
  0
ARC
  8
3
  6
CONTINUOUS
 62
     1
  5
551
 10
4873.606523
 20
7528.822661
 30
0.0
 40
17.25
 50
254.11
 51
260.12
  0
ARC
  8
3
  6
CONTINUOUS
 62
     1
  5
552
 10
4873.606523
 20
7529.322661
 30
0.0
 40
17.75
 50
260.11
 51
265.93
  0
ARC
  8
3
  6
CONTINUOUS
 62
     1
  5
553
 10
4873.606523
 20
7529.072661
 30
0.0
 40
17.75
 50
265.92
 51
271.7
  0
ARC
  8
3
  6
CONTINUOUS
 62
     1
  5
554
 10
4873.606523
 20
7529.072661
 30
0.0
 40
17.75
 50
271.73
 51
277.52
  0
ARC
  8
3
  6
CONTINUOUS
 62
     1
  5
555
 10
4857.606523
 20
7500.822661
 30
0.0
 40
14.75
 50
77.28
 51
83.21
  0
ARC
  8
3
  6
CONTINUOUS
 62
     1
  5
556
 10
4857.606523
 20
7501.072661
 30
0.0
 40
14.25
 50
71.22
 51
77.29
  0
ARC
  8
3
  6
CONTINUOUS
 62
     1
  5
557
 10
4857.606523
 20
7500.822661
 30
0.0
 40
14.5
 50
67.31
 51
70.67
  0
ARC
  8
3
  6
CONTINUOUS
 62
     1
  5
558
 10
4857.606523
 20
7500.822661
 30
0.0
 40
14.5
 50
63.95
 51
67.31
  0
ARC
  8
3
  6
CONTINUOUS
 62
     1
  5
559
 10
4857.606523
 20
7500.822661
 30
0.0
 40
14.5
 50
101.2
 51
107.21
  0
ARC
  8
3
  6
CONTINUOUS
 62
     1
  5
55A
 10
4857.606523
 20
7500.822661
 30
0.0
 40
14.75
 50
95.25
 51
101.22
  0
ARC
  8
3
  6
CONTINUOUS
 62
     1
  5
55B
 10
4857.606523
 20
7500.822661
 30
0.0
 40
14.5
 50
89.19
 51
95.26
  0
ARC
  8
3
  6
CONTINUOUS
 62
     1
  5
55C
 10
4857.606523
 20
7500.822661
 30
0.0
 40
14.5
 50
83.2
 51
89.16
  0
ARC
  8
3
  6
CONTINUOUS
 62
     1
  5
55D
 10
4841.606523
 20
7529.072661
 30
0.0
 40
17.5
 50
266.72
 51
274.57
  0
ARC
  8
3
  6
CONTINUOUS
 62
     1
  5
55E
 10
4841.606523
 20
7529.322661
 30
0.0
 40
18.0
 50
274.61
 51
278.31
  0
ARC
  8
3
  6
CONTINUOUS
 62
     1
  5
55F
 10
4841.606523
 20
7529.072661
 30
0.0
 40
17.75
 50
278.31
 51
282.06
  0
ARC
  8
3
  6
CONTINUOUS
 62
     1
  5
560
 10
4841.856523
 20
7528.572661
 30
0.0
 40
17.25
 50
282.06
 51
285.89
  0
LINE
  8
3
  6
CONTINUOUS
 62
     1
  5
561
 10
4846.356523
 20
7511.822661
 30
0.0
 11
4846.606523
 21
7511.822661
 31
0.0
  0
LINE
  8
3
  6
CONTINUOUS
 62
     1
  5
562
 10
4846.606523
 20
7511.822661
 30
0.0
 11
4846.606523
 21
7512.072661
 31
0.0
  0
ARC
  8
3
  6
CONTINUOUS
 62
     1
  5
563
 10
4841.856523
 20
7528.572661
 30
0.0
 40
17.25
 50
286.06
 51
290.39
  0
ARC
  8
3
  6
CONTINUOUS
 62
     1
  5
564
 10
4841.606523
 20
7529.072661
 30
0.0
 40
17.75
 50
290.38
 51
294.61
  0
ARC
  8
3
  6
CONTINUOUS
 62
     1
  5
565
 10
4841.606523
 20
7529.322661
 30
0.0
 40
18.0
 50
294.6
 51
298.76
  0
LINE
  8
3
  6
CONTINUOUS
 62
     1
  5
566
 10
4850.106523
 20
7513.572661
 30
0.0
 11
4850.356523
 21
7513.572661
 31
0.0
  0
ARC
  8
3
  6
CONTINUOUS
 62
     1
  5
567
 10
4857.606523
 20
7500.822661
 30
0.0
 40
14.5
 50
115.55
 51
119.46
  0
ARC
  8
3
  6
CONTINUOUS
 62
     1
  5
568
 10
4857.606523
 20
7500.822661
 30
0.0
 40
14.5
 50
111.66
 51
115.56
  0
ARC
  8
3
  6
CONTINUOUS
 62
     1
  5
569
 10
4857.606523
 20
7500.822661
 30
0.0
 40
14.5
 50
107.72
 51
111.66
  0
LINE
  8
3
  6
CONTINUOUS
 62
     1
  5
56A
 10
4853.106523
 20
7514.822661
 30
0.0
 11
4853.356523
 21
7514.822661
 31
0.0
  0
ARC
  8
3
  6
CONTINUOUS
 62
     1
  5
56B
 10
4729.356523
 20
7530.572661
 30
0.0
 40
40.25
 50
336.86
 51
24.62
  0
ARC
  8
3
  6
CONTINUOUS
 62
     1
  5
56C
 10
5147.356523
 20
7480.822661
 30
0.0
 40
358.25
 50
170.54
 51
170.99
  0
ARC
  8
3
  6
CONTINUOUS
 62
     1
  5
56D
 10
4812.356523
 20
7530.322661
 30
0.0
 40
32.5
 50
166.36
 51
168.05
  0
ARC
  8
3
  6
CONTINUOUS
 62
     1
  5
56E
 10
4716.106523
 20
7531.322661
 30
0.0
 40
41.75
 50
4.06
 51
8.47
  0
ARC
  8
3
  6
CONTINUOUS
 62
     1
  5
56F
 10
4773.606523
 20
7528.572661
 30
0.0
 40
30.0
 50
161.31
 51
163.49
  0
ARC
  8
3
  6
CONTINUOUS
 62
     1
  5
570
 10
4786.356523
 20
7531.322661
 30
0.0
 40
40.75
 50
170.8
 51
175.28
  0
LINE
  8
3
  6
CONTINUOUS
 62
     1
  5
571
 10
4763.356523
 20
7554.322661
 30
0.0
 11
4776.606523
 21
7550.072661
 31
0.0
  0
ARC
  8
3
  6
CONTINUOUS
 62
     1
  5
572
 10
4773.606523
 20
7528.572661
 30
0.0
 40
29.75
 50
103.75
 51
106.11
  0
ARC
  8
3
  6
CONTINUOUS
 62
     1
  5
573
 10
4761.356523
 20
7545.322661
 30
0.0
 40
5.0
 50
24.62
 51
102.76
  0
ARC
  8
3
  6
CONTINUOUS
 62
     1
  5
574
 10
4852.606523
 20
7360.072661
 30
0.0
 40
200.5
 50
95.93
 51
97.84
  0
ARC
  8
3
  6
CONTINUOUS
 62
     1
  5
575
 10
4846.356523
 20
7231.322661
 30
0.0
 40
336.25
 50
102.29
 51
103.02
  0
ARC
  8
3
  6
CONTINUOUS
 62
     1
  5
576
 10
4846.356523
 20
7231.572661
 30
0.0
 40
336.0
 50
95.98
 51
97.87
  0
ARC
  8
3
  6
CONTINUOUS
 62
     1
  5
577
 10
4846.356523
 20
7230.572661
 30
0.0
 40
337.0
 50
92.16
 51
94.08
  0
ARC
  8
3
  6
CONTINUOUS
 62
     1
  5
578
 10
4852.106523
 20
7364.072661
 30
0.0
 40
196.5
 50
93.98
 51
95.93
  0
ARC
  8
3
  6
CONTINUOUS
 62
     1
  5
579
 10
4846.356523
 20
7231.572661
 30
0.0
 40
335.75
 50
94.08
 51
95.98
  0
ARC
  8
3
  6
CONTINUOUS
 62
     1
  5
57A
 10
4846.356523
 20
7231.572661
 30
0.0
 40
335.75
 50
99.72
 51
101.55
  0
ARC
  8
3
  6
CONTINUOUS
 62
     1
  5
57B
 10
4846.606523
 20
7230.822661
 30
0.0
 40
336.75
 50
97.87
 51
99.72
  0
ARC
  8
3
  6
CONTINUOUS
 62
     1
  5
57C
 10
4846.356523
 20
7231.322661
 30
0.0
 40
336.0
 50
101.55
 51
102.29
  0
ARC
  8
3
  6
CONTINUOUS
 62
     1
  5
57D
 10
4814.606523
 20
7534.322661
 30
0.0
 40
21.75
 50
118.68
 51
123.53
  0
ARC
  8
3
  6
CONTINUOUS
 62
     1
  5
57E
 10
4740.856523
 20
7800.322661
 30
0.0
 40
253.5
 50
283.96
 51
284.13
  0
ARC
  8
3
  6
CONTINUOUS
 62
     1
  5
57F
 10
4852.856523
 20
7357.072661
 30
0.0
 40
203.5
 50
98.45
 51
99.06
  0
ARC
  8
3
  6
CONTINUOUS
 62
     1
  5
580
 10
4852.856523
 20
7358.072661
 30
0.0
 40
202.5
 50
97.83
 51
98.45
  0
ARC
  8
3
  6
CONTINUOUS
 62
     1
  5
581
 10
4855.106523
 20
7347.072661
 30
0.0
 40
213.75
 50
103.28
 51
104.13
  0
ARC
  8
3
  6
CONTINUOUS
 62
     1
  5
582
 10
4853.106523
 20
7356.072661
 30
0.0
 40
204.5
 50
99.06
 51
99.67
  0
ARC
  8
3
  6
CONTINUOUS
 62
     1
  5
583
 10
4853.106523
 20
7355.572661
 30
0.0
 40
205.0
 50
99.66
 51
99.82
  0
ARC
  8
3
  6
CONTINUOUS
 62
     1
  5
584
 10
4853.106523
 20
7355.322661
 30
0.0
 40
205.25
 50
99.82
 51
99.97
  0
ARC
  8
3
  6
CONTINUOUS
 62
     1
  5
585
 10
4853.356523
 20
7355.072661
 30
0.0
 40
205.5
 50
99.97
 51
100.12
  0
ARC
  8
3
  6
CONTINUOUS
 62
     1
  5
586
 10
4866.606523
 20
7281.072661
 30
0.0
 40
281.0
 50
100.11
 51
100.2
  0
ARC
  8
3
  6
CONTINUOUS
 62
     1
  5
587
 10
4847.606523
 20
7385.572661
 30
0.0
 40
174.5
 50
100.2
 51
100.34
  0
ARC
  8
3
  6
CONTINUOUS
 62
     1
  5
588
 10
4839.106523
 20
7432.072661
 30
0.0
 40
127.25
 50
100.34
 51
100.53
  0
LINE
  8
3
  6
CONTINUOUS
 62
     1
  5
589
 10
4815.856523
 20
7557.322661
 30
0.0
 11
4815.606523
 21
7557.322661
 31
0.0
  0
ARC
  8
3
  6
CONTINUOUS
 62
     1
  5
58A
 10
4830.356523
 20
7479.572661
 30
0.0
 40
79.0
 50
100.74
 51
101.53
  0
ARC
  8
3
  6
CONTINUOUS
 62
     1
  5
58B
 10
4830.106523
 20
7480.572661
 30
0.0
 40
77.75
 50
101.53
 51
102.35
  0
ARC
  8
3
  6
CONTINUOUS
 62
     1
  5
58C
 10
4829.606523
 20
7482.822661
 30
0.0
 40
75.5
 50
102.35
 51
103.2
  0
ARC
  8
3
  6
CONTINUOUS
 62
     1
  5
58D
 10
4822.856523
 20
7510.822661
 30
0.0
 40
46.75
 50
103.12
 51
106.17
  0
ARC
  8
3
  6
CONTINUOUS
 62
     1
  5
58E
 10
4819.356523
 20
7522.572661
 30
0.0
 40
34.5
 50
106.16
 51
110.27
  0
ARC
  8
3
  6
CONTINUOUS
 62
     1
  5
58F
 10
4816.856523
 20
7530.072661
 30
0.0
 40
26.5
 50
110.26
 51
115.52
  0
ARC
  8
3
  6
CONTINUOUS
 62
     1
  5
590
 10
4815.856523
 20
7532.072661
 30
0.0
 40
24.25
 50
115.63
 51
116.61
  0
ARC
  8
3
  6
CONTINUOUS
 62
     1
  5
591
 10
4815.356523
 20
7533.072661
 30
0.0
 40
23.5
 50
116.61
 51
117.64
  0
ARC
  8
3
  6
CONTINUOUS
 62
     1
  5
592
 10
4815.106523
 20
7533.572661
 30
0.0
 40
22.5
 50
117.64
 51
118.69
  0
ARC
  8
3
  6
CONTINUOUS
 62
     1
  5
593
 10
4854.356523
 20
7351.072661
 30
0.0
 40
209.75
 50
101.54
 51
102.41
  0
ARC
  8
3
  6
CONTINUOUS
 62
     1
  5
594
 10
4854.606523
 20
7349.072661
 30
0.0
 40
211.75
 50
102.41
 51
103.28
  0
ARC
  8
3
  6
CONTINUOUS
 62
     1
  5
595
 10
4798.856523
 20
7537.822661
 30
0.0
 40
17.0
 50
131.24
 51
135.62
  0
ARC
  8
3
  6
CONTINUOUS
 62
     1
  5
596
 10
4813.106523
 20
7536.322661
 30
0.0
 40
19.25
 50
143.0
 51
152.06
  0
ARC
  8
3
  6
CONTINUOUS
 62
     1
  5
597
 10
4792.856523
 20
7544.572661
 30
0.0
 40
8.0
 50
91.45
 51
131.11
  0
ARC
  8
3
  6
CONTINUOUS
 62
     1
  5
598
 10
4814.106523
 20
7535.322661
 30
0.0
 40
20.75
 50
123.53
 51
128.65
  0
ARC
  8
3
  6
CONTINUOUS
 62
     1
  5
599
 10
4813.356523
 20
7536.072661
 30
0.0
 40
19.75
 50
128.65
 51
134.02
  0
ARC
  8
3
  6
CONTINUOUS
 62
     1
  5
59A
 10
4813.106523
 20
7536.322661
 30
0.0
 40
19.25
 50
134.07
 51
143.04
  0
ARC
  8
3
  6
CONTINUOUS
 62
     1
  5
59B
 10
4754.856523
 20
7744.822661
 30
0.0
 40
196.25
 50
283.75
 51
283.96
  0
ARC
  8
3
  6
CONTINUOUS
 62
     1
  5
59C
 10
4764.356523
 20
7705.572661
 30
0.0
 40
156.0
 50
283.49
 51
283.75
  0
ARC
  8
3
  6
CONTINUOUS
 62
     1
  5
59D
 10
4771.356523
 20
7676.572661
 30
0.0
 40
126.0
 50
283.18
 51
283.49
  0
ARC
  8
3
  6
CONTINUOUS
 62
     1
  5
59E
 10
4776.606523
 20
7654.322661
 30
0.0
 40
103.25
 50
282.81
 51
283.18
  0
ARC
  8
3
  6
CONTINUOUS
 62
     1
  5
59F
 10
4780.606523
 20
7636.822661
 30
0.0
 40
85.25
 50
282.37
 51
282.81
  0
ARC
  8
3
  6
CONTINUOUS
 62
     1
  5
5A0
 10
4783.106523
 20
7624.572661
 30
0.0
 40
72.75
 50
281.88
 51
282.37
  0
ARC
  8
3
  6
CONTINUOUS
 62
     1
  5
5A1
 10
4785.106523
 20
7615.322661
 30
0.0
 40
63.25
 50
281.33
 51
281.88
  0
ARC
  8
3
  6
CONTINUOUS
 62
     1
  5
5A2
 10
4786.856523
 20
7607.322661
 30
0.0
 40
55.0
 50
280.73
 51
281.33
  0
ARC
  8
3
  6
CONTINUOUS
 62
     1
  5
5A3
 10
4788.106523
 20
7600.072661
 30
0.0
 40
47.75
 50
280.06
 51
280.73
  0
ARC
  8
3
  6
CONTINUOUS
 62
     1
  5
5A4
 10
4789.106523
 20
7594.072661
 30
0.0
 40
41.5
 50
279.31
 51
280.06
  0
ARC
  8
3
  6
CONTINUOUS
 62
     1
  5
5A5
 10
4790.106523
 20
7588.572661
 30
0.0
 40
36.0
 50
278.49
 51
279.31
  0
ARC
  8
3
  6
CONTINUOUS
 62
     1
  5
5A6
 10
4790.606523
 20
7584.322661
 30
0.0
 40
31.75
 50
277.58
 51
278.49
  0
ARC
  8
3
  6
CONTINUOUS
 62
     1
  5
5A7
 10
4791.106523
 20
7580.822661
 30
0.0
 40
28.25
 50
276.61
 51
277.58
  0
ARC
  8
3
  6
CONTINUOUS
 62
     1
  5
5A8
 10
4791.606523
 20
7577.572661
 30
0.0
 40
25.0
 50
275.56
 51
276.61
  0
ARC
  8
3
  6
CONTINUOUS
 62
     1
  5
5A9
 10
4791.856523
 20
7574.572661
 30
0.0
 40
22.0
 50
274.41
 51
275.56
  0
ARC
  8
3
  6
CONTINUOUS
 62
     1
  5
5AA
 10
4792.106523
 20
7572.072661
 30
0.0
 40
19.5
 50
273.17
 51
274.41
  0
ARC
  8
3
  6
CONTINUOUS
 62
     1
  5
5AB
 10
4792.106523
 20
7569.822661
 30
0.0
 40
17.0
 50
271.82
 51
273.17
  0
ARC
  8
3
  6
CONTINUOUS
 62
     1
  5
5AC
 10
4814.106523
 20
7536.322661
 30
0.0
 40
20.25
 50
164.67
 51
167.6
  0
ARC
  8
3
  6
CONTINUOUS
 62
     1
  5
5AD
 10
4812.106523
 20
7536.822661
 30
0.0
 40
18.0
 50
152.02
 51
161.67
  0
ARC
  8
3
  6
CONTINUOUS
 62
     1
  5
5AE
 10
4814.106523
 20
7536.322661
 30
0.0
 40
20.25
 50
161.75
 51
164.67
  0
ARC
  8
3
  6
CONTINUOUS
 62
     1
  5
5AF
 10
4814.106523
 20
7536.322661
 30
0.0
 40
20.25
 50
167.6
 51
170.53
  0
ARC
  8
3
  6
CONTINUOUS
 62
     1
  5
5B0
 10
4805.106523
 20
7533.072661
 30
0.0
 40
25.0
 50
150.62
 51
153.87
  0
ARC
  8
3
  6
CONTINUOUS
 62
     1
  5
5B1
 10
4803.856523
 20
7533.822661
 30
0.0
 40
23.25
 50
147.2
 51
150.63
  0
ARC
  8
3
  6
CONTINUOUS
 62
     1
  5
5B2
 10
4799.856523
 20
7536.572661
 30
0.0
 40
18.5
 50
135.61
 51
139.71
  0
ARC
  8
3
  6
CONTINUOUS
 62
     1
  5
5B3
 10
4801.106523
 20
7535.572661
 30
0.0
 40
20.0
 50
139.71
 51
143.57
  0
ARC
  8
3
  6
CONTINUOUS
 62
     1
  5
5B4
 10
4802.356523
 20
7534.822661
 30
0.0
 40
21.5
 50
143.57
 51
147.2
  0
ARC
  8
3
  6
CONTINUOUS
 62
     1
  5
5B5
 10
4775.856523
 20
7548.072661
 30
0.0
 40
2.0
 50
347.54
 51
71.99
  0
ARC
  8
3
  6
CONTINUOUS
 62
     1
  5
5B6
 10
4846.356523
 20
7231.322661
 30
0.0
 40
336.0
 50
103.02
 51
103.75
  0
ARC
  8
3
  6
CONTINUOUS
 62
     1
  5
5B7
 10
4809.856523
 20
7531.072661
 30
0.0
 40
30.0
 50
159.89
 51
162.72
  0
ARC
  8
3
  6
CONTINUOUS
 62
     1
  5
5B8
 10
4806.856523
 20
7532.322661
 30
0.0
 40
26.75
 50
153.87
 51
156.95
  0
ARC
  8
3
  6
CONTINUOUS
 62
     1
  5
5B9
 10
4808.356523
 20
7531.572661
 30
0.0
 40
28.25
 50
156.95
 51
159.9
  0
ARC
  8
3
  6
CONTINUOUS
 62
     1
  5
5BA
 10
4810.856523
 20
7530.822661
 30
0.0
 40
31.0
 50
162.71
 51
163.94
  0
ARC
  8
3
  6
CONTINUOUS
 62
     1
  5
5BB
 10
4811.356523
 20
7530.572661
 30
0.0
 40
31.5
 50
163.94
 51
165.15
  0
ARC
  8
3
  6
CONTINUOUS
 62
     1
  5
5BC
 10
4811.856523
 20
7530.572661
 30
0.0
 40
32.0
 50
165.15
 51
166.35
  0
ARC
  8
3
  6
CONTINUOUS
 62
     1
  5
5BD
 10
4755.606523
 20
7541.322661
 30
0.0
 40
8.0
 50
137.73
 51
150.82
  0
ARC
  8
3
  6
CONTINUOUS
 62
     1
  5
5BE
 10
4747.356523
 20
7541.072661
 30
0.0
 40
9.0
 50
27.64
 51
39.9
  0
LINE
  8
3
  6
CONTINUOUS
 62
     1
  5
5BF
 10
4760.356523
 20
7550.072661
 30
0.0
 11
4751.356523
 21
7548.072661
 31
0.0
  0
ARC
  8
3
  6
CONTINUOUS
 62
     1
  5
5C0
 10
4773.606523
 20
7528.572661
 30
0.0
 40
29.75
 50
139.63
 51
140.2
  0
ARC
  8
3
  6
CONTINUOUS
 62
     1
  5
5C1
 10
4773.606523
 20
7528.572661
 30
0.0
 40
29.75
 50
139.06
 51
139.63
  0
ARC
  8
3
  6
CONTINUOUS
 62
     1
  5
5C2
 10
4773.606523
 20
7528.572661
 30
0.0
 40
29.75
 50
138.49
 51
139.06
  0
ARC
  8
3
  6
CONTINUOUS
 62
     1
  5
5C3
 10
4773.606523
 20
7528.572661
 30
0.0
 40
29.75
 50
131.6
 51
138.49
  0
ARC
  8
3
  6
CONTINUOUS
 62
     1
  5
5C4
 10
4773.606523
 20
7528.572661
 30
0.0
 40
30.0
 50
124.74
 51
131.6
  0
ARC
  8
3
  6
CONTINUOUS
 62
     1
  5
5C5
 10
4773.606523
 20
7528.572661
 30
0.0
 40
29.75
 50
117.84
 51
124.75
  0
ARC
  8
3
  6
CONTINUOUS
 62
     1
  5
5C6
 10
4773.606523
 20
7528.572661
 30
0.0
 40
29.75
 50
115.49
 51
117.83
  0
ARC
  8
3
  6
CONTINUOUS
 62
     1
  5
5C7
 10
4773.606523
 20
7528.572661
 30
0.0
 40
30.0
 50
113.15
 51
115.49
  0
ARC
  8
3
  6
CONTINUOUS
 62
     1
  5
5C8
 10
4773.606523
 20
7528.572661
 30
0.0
 40
30.0
 50
110.81
 51
113.15
  0
ARC
  8
3
  6
CONTINUOUS
 62
     1
  5
5C9
 10
4773.606523
 20
7528.572661
 30
0.0
 40
30.0
 50
108.46
 51
110.81
  0
ARC
  8
3
  6
CONTINUOUS
 62
     1
  5
5CA
 10
4773.606523
 20
7528.572661
 30
0.0
 40
30.0
 50
106.11
 51
108.46
  0
ARC
  8
3
  6
CONTINUOUS
 62
     1
  5
5CB
 10
4750.606523
 20
7543.822661
 30
0.0
 40
4.5
 50
39.56
 51
58.75
  0
ARC
  8
3
  6
CONTINUOUS
 62
     1
  5
5CC
 10
4751.856523
 20
7545.572661
 30
0.0
 40
2.5
 50
58.88
 51
86.92
  0
ARC
  8
3
  6
CONTINUOUS
 62
     1
  5
5CD
 10
4751.856523
 20
7545.572661
 30
0.0
 40
2.25
 50
88.17
 51
117.19
  0
ARC
  8
3
  6
CONTINUOUS
 62
     1
  5
5CE
 10
4752.606523
 20
7544.072661
 30
0.0
 40
4.0
 50
117.5
 51
138.06
  0
ARC
  8
3
  6
CONTINUOUS
 62
     1
  5
5CF
 10
4732.856523
 20
7534.572661
 30
0.0
 40
24.75
 50
13.4
 51
19.63
  0
ARC
  8
3
  6
CONTINUOUS
 62
     1
  5
5D0
 10
4741.106523
 20
7537.572661
 30
0.0
 40
16.0
 50
19.51
 51
27.86
  0
ARC
  8
3
  6
CONTINUOUS
 62
     1
  5
5D1
 10
4723.856523
 20
7532.322661
 30
0.0
 40
34.0
 50
8.43
 51
13.47
  0
ARC
  8
3
  6
CONTINUOUS
 62
     1
  5
5D2
 10
4773.606523
 20
7528.572661
 30
0.0
 40
30.0
 50
153.81
 51
156.47
  0
ARC
  8
3
  6
CONTINUOUS
 62
     1
  5
5D3
 10
4769.356523
 20
7535.072661
 30
0.0
 40
23.5
 50
159.26
 51
165.74
  0
ARC
  8
3
  6
CONTINUOUS
 62
     1
  5
5D4
 10
4761.356523
 20
7538.072661
 30
0.0
 40
14.75
 50
150.58
 51
159.39
  0
ARC
  8
3
  6
CONTINUOUS
 62
     1
  5
5D5
 10
4773.606523
 20
7528.572661
 30
0.0
 40
30.0
 50
151.16
 51
153.81
  0
ARC
  8
3
  6
CONTINUOUS
 62
     1
  5
5D6
 10
4773.606523
 20
7528.572661
 30
0.0
 40
29.75
 50
159.14
 51
161.31
  0
ARC
  8
3
  6
CONTINUOUS
 62
     1
  5
5D7
 10
4773.606523
 20
7528.572661
 30
0.0
 40
29.75
 50
156.47
 51
159.14
  0
ARC
  8
3
  6
CONTINUOUS
 62
     1
  5
5D8
 10
4778.356523
 20
7532.822661
 30
0.0
 40
32.75
 50
165.67
 51
170.85
  0
ARC
  8
3
  6
CONTINUOUS
 62
     1
  5
5D9
 10
4761.856523
 20
7516.572661
 30
0.0
 40
5.0
 50
239.43
 51
336.86
  0
ARC
  8
3
  6
CONTINUOUS
 62
     1
  5
5DA
 10
4764.106523
 20
7514.322661
 30
0.0
 40
6.5
 50
281.98
 51
283.66
  0
ARC
  8
3
  6
CONTINUOUS
 62
     1
  5
5DB
 10
4808.856523
 20
7530.322661
 30
0.0
 40
17.0
 50
236.78
 51
239.91
  0
ARC
  8
3
  6
CONTINUOUS
 62
     1
  5
5DC
 10
5085.106523
 20
7489.072661
 30
0.0
 40
308.5
 50
174.53
 51
175.27
  0
ARC
  8
3
  6
CONTINUOUS
 62
     1
  5
5DD
 10
4748.606523
 20
7526.072661
 30
0.0
 40
26.5
 50
337.34
 51
338.26
  0
ARC
  8
3
  6
CONTINUOUS
 62
     1
  5
5DE
 10
4808.106523
 20
7529.072661
 30
0.0
 40
15.5
 50
178.49
 51
185.03
  0
ARC
  8
3
  6
CONTINUOUS
 62
     1
  5
5DF
 10
5083.356523
 20
7489.072661
 30
0.0
 40
306.75
 50
172.32
 51
172.81
  0
ARC
  8
3
  6
CONTINUOUS
 62
     1
  5
5E0
 10
5149.106523
 20
7480.572661
 30
0.0
 40
359.75
 50
170.99
 51
171.45
  0
ARC
  8
3
  6
CONTINUOUS
 62
     1
  5
5E1
 10
5150.356523
 20
7480.322661
 30
0.0
 40
361.0
 50
171.45
 51
171.9
  0
ARC
  8
3
  6
CONTINUOUS
 62
     1
  5
5E2
 10
4807.856523
 20
7529.072661
 30
0.0
 40
15.25
 50
171.91
 51
178.5
  0
ARC
  8
3
  6
CONTINUOUS
 62
     1
  5
5E3
 10
4812.856523
 20
7530.322661
 30
0.0
 40
33.0
 50
168.05
 51
169.72
  0
ARC
  8
3
  6
CONTINUOUS
 62
     1
  5
5E4
 10
4813.106523
 20
7530.072661
 30
0.0
 40
33.5
 50
169.72
 51
171.38
  0
ARC
  8
3
  6
CONTINUOUS
 62
     1
  5
5E5
 10
5083.106523
 20
7489.322661
 30
0.0
 40
306.25
 50
171.37
 51
171.56
  0
ARC
  8
3
  6
CONTINUOUS
 62
     1
  5
5E6
 10
5083.106523
 20
7489.322661
 30
0.0
 40
306.5
 50
171.56
 51
171.75
  0
ARC
  8
3
  6
CONTINUOUS
 62
     1
  5
5E7
 10
5083.106523
 20
7489.322661
 30
0.0
 40
306.5
 50
171.75
 51
171.94
  0
ARC
  8
3
  6
CONTINUOUS
 62
     1
  5
5E8
 10
5083.106523
 20
7489.322661
 30
0.0
 40
306.5
 50
171.94
 51
172.07
  0
ARC
  8
3
  6
CONTINUOUS
 62
     1
  5
5E9
 10
5083.106523
 20
7489.322661
 30
0.0
 40
306.5
 50
172.07
 51
172.2
  0
ARC
  8
3
  6
CONTINUOUS
 62
     1
  5
5EA
 10
5083.356523
 20
7489.072661
 30
0.0
 40
306.5
 50
172.2
 51
172.32
  0
ARC
  8
3
  6
CONTINUOUS
 62
     1
  5
5EB
 10
4807.856523
 20
7528.822661
 30
0.0
 40
15.25
 50
213.69
 51
221.45
  0
ARC
  8
3
  6
CONTINUOUS
 62
     1
  5
5EC
 10
4807.856523
 20
7528.822661
 30
0.0
 40
15.25
 50
185.02
 51
191.61
  0
ARC
  8
3
  6
CONTINUOUS
 62
     1
  5
5ED
 10
4807.856523
 20
7528.822661
 30
0.0
 40
15.25
 50
191.63
 51
199.01
  0
ARC
  8
3
  6
CONTINUOUS
 62
     1
  5
5EE
 10
4808.106523
 20
7529.072661
 30
0.0
 40
15.5
 50
199.0
 51
206.3
  0
ARC
  8
3
  6
CONTINUOUS
 62
     1
  5
5EF
 10
4807.856523
 20
7528.822661
 30
0.0
 40
15.25
 50
206.29
 51
213.66
  0
ARC
  8
3
  6
CONTINUOUS
 62
     1
  5
5F0
 10
4808.106523
 20
7529.072661
 30
0.0
 40
15.5
 50
221.44
 51
229.09
  0
ARC
  8
3
  6
CONTINUOUS
 62
     1
  5
5F1
 10
4807.856523
 20
7528.822661
 30
0.0
 40
15.25
 50
229.07
 51
236.79
  0
ARC
  8
3
  6
CONTINUOUS
 62
     1
  5
5F2
 10
5084.356523
 20
7489.072661
 30
0.0
 40
307.75
 50
173.8
 51
174.53
  0
ARC
  8
3
  6
CONTINUOUS
 62
     1
  5
5F3
 10
5083.606523
 20
7489.072661
 30
0.0
 40
307.0
 50
172.81
 51
173.3
  0
ARC
  8
3
  6
CONTINUOUS
 62
     1
  5
5F4
 10
5083.856523
 20
7489.072661
 30
0.0
 40
307.25
 50
173.3
 51
173.78
  0
ARC
  8
3
  6
CONTINUOUS
 62
     1
  5
5F5
 10
4747.606523
 20
7526.322661
 30
0.0
 40
27.5
 50
338.26
 51
339.15
  0
ARC
  8
3
  6
CONTINUOUS
 62
     1
  5
5F6
 10
4807.106523
 20
7527.322661
 30
0.0
 40
13.5
 50
251.32
 51
255.09
  0
LINE
  8
3
  6
CONTINUOUS
 62
     1
  5
5F7
 10
4825.606523
 20
7513.572661
 30
0.0
 11
4825.856523
 21
7513.572661
 31
0.0
  0
LINE
  8
3
  6
CONTINUOUS
 62
     1
  5
5F8
 10
4825.856523
 20
7513.572661
 30
0.0
 11
4826.606523
 21
7513.572661
 31
0.0
  0
LINE
  8
3
  6
CONTINUOUS
 62
     1
  5
5F9
 10
4826.606523
 20
7513.572661
 30
0.0
 11
4827.106523
 21
7513.572661
 31
0.0
  0
LINE
  8
3
  6
CONTINUOUS
 62
     1
  5
5FA
 10
4827.856523
 20
7513.572661
 30
0.0
 11
4827.106523
 21
7513.572661
 31
0.0
  0
ARC
  8
3
  6
CONTINUOUS
 62
     1
  5
5FB
 10
4827.856523
 20
7489.072661
 30
0.0
 40
24.5
 50
83.67
 51
89.95
  0
ARC
  8
3
  6
CONTINUOUS
 62
     1
  5
5FC
 10
4827.856523
 20
7488.572661
 30
0.0
 40
24.75
 50
77.46
 51
83.68
  0
ARC
  8
3
  6
CONTINUOUS
 62
     1
  5
5FD
 10
4827.856523
 20
7489.072661
 30
0.0
 40
24.5
 50
71.11
 51
77.47
  0
ARC
  8
3
  6
CONTINUOUS
 62
     1
  5
5FE
 10
4841.606523
 20
7529.072661
 30
0.0
 40
17.75
 50
251.13
 51
259.07
  0
LINE
  8
3
  6
CONTINUOUS
 62
     1
  5
5FF
 10
4819.356523
 20
7513.572661
 30
0.0
 11
4824.106523
 21
7513.572661
 31
0.0
  0
LINE
  8
3
  6
CONTINUOUS
 62
     1
  5
600
 10
4824.106523
 20
7513.572661
 30
0.0
 11
4824.356523
 21
7513.572661
 31
0.0
  0
LINE
  8
3
  6
CONTINUOUS
 62
     1
  5
601
 10
4824.356523
 20
7513.572661
 30
0.0
 11
4824.606523
 21
7513.572661
 31
0.0
  0
LINE
  8
3
  6
CONTINUOUS
 62
     1
  5
602
 10
4824.606523
 20
7513.572661
 30
0.0
 11
4824.856523
 21
7513.572661
 31
0.0
  0
LINE
  8
3
  6
CONTINUOUS
 62
     1
  5
603
 10
4824.856523
 20
7513.572661
 30
0.0
 11
4825.106523
 21
7513.572661
 31
0.0
  0
LINE
  8
3
  6
CONTINUOUS
 62
     1
  5
604
 10
4825.106523
 20
7513.572661
 30
0.0
 11
4825.356523
 21
7513.572661
 31
0.0
  0
LINE
  8
3
  6
CONTINUOUS
 62
     1
  5
605
 10
4825.356523
 20
7513.572661
 30
0.0
 11
4825.606523
 21
7513.572661
 31
0.0
  0
LINE
  8
3
  6
CONTINUOUS
 62
     1
  5
606
 10
4814.606523
 20
7513.572661
 30
0.0
 11
4819.356523
 21
7513.572661
 31
0.0
  0
ARC
  8
3
  6
CONTINUOUS
 62
     1
  5
607
 10
4807.356523
 20
7528.072661
 30
0.0
 40
14.25
 50
255.09
 51
258.67
  0
ARC
  8
3
  6
CONTINUOUS
 62
     1
  5
608
 10
4808.106523
 20
7532.072661
 30
0.0
 40
18.25
 50
258.8
 51
264.41
  0
ARC
  8
3
  6
CONTINUOUS
 62
     1
  5
609
 10
4808.856523
 20
7540.822661
 30
0.0
 40
27.0
 50
264.42
 51
268.2
  0
ARC
  8
3
  6
CONTINUOUS
 62
     1
  5
60A
 10
4809.856523
 20
7566.322661
 30
0.0
 40
52.75
 50
268.2
 51
270.15
  0
LINE
  8
3
  6
CONTINUOUS
 62
     1
  5
60B
 10
4814.606523
 20
7513.572661
 30
0.0
 11
4809.856523
 21
7513.572661
 31
0.0
  0
ARC
  8
3
  6
CONTINUOUS
 62
     1
  5
60C
 10
4807.856523
 20
7528.822661
 30
0.0
 40
15.25
 50
239.91
 51
243.41
  0
ARC
  8
3
  6
CONTINUOUS
 62
     1
  5
60D
 10
4807.106523
 20
7527.322661
 30
0.0
 40
13.5
 50
243.41
 51
247.3
  0
ARC
  8
3
  6
CONTINUOUS
 62
     1
  5
60E
 10
4807.106523
 20
7526.822661
 30
0.0
 40
13.0
 50
247.35
 51
251.32
  0
ARC
  8
3
  6
CONTINUOUS
 62
     1
  5
60F
 10
4764.106523
 20
7514.322661
 30
0.0
 40
6.5
 50
283.66
 51
285.35
  0
ARC
  8
3
  6
CONTINUOUS
 62
     1
  5
610
 10
5085.856523
 20
7488.822661
 30
0.0
 40
309.25
 50
175.27
 51
175.99
  0
LINE
  8
3
  6
CONTINUOUS
 62
     1
  5
611
 10
4777.356523
 20
7510.572661
 30
0.0
 11
4777.356523
 21
7510.322661
 31
0.0
  0
LINE
  8
3
  6
CONTINUOUS
 62
     1
  5
612
 10
4777.356523
 20
7510.322661
 30
0.0
 11
4777.106523
 21
7510.072661
 31
0.0
  0
LINE
  8
3
  6
CONTINUOUS
 62
     1
  5
613
 10
4777.106523
 20
7510.072661
 30
0.0
 11
4777.106523
 21
7509.572661
 31
0.0
  0
ARC
  8
3
  6
CONTINUOUS
 62
     1
  5
614
 10
4749.606523
 20
7525.572661
 30
0.0
 40
25.25
 50
336.38
 51
337.34
  0
ARC
  8
3
  6
CONTINUOUS
 62
     1
  5
615
 10
4751.606523
 20
7524.822661
 30
0.0
 40
23.25
 50
333.71
 51
336.41
  0
ARC
  8
3
  6
CONTINUOUS
 62
     1
  5
616
 10
4754.106523
 20
7523.572661
 30
0.0
 40
20.5
 50
330.7
 51
333.71
  0
ARC
  8
3
  6
CONTINUOUS
 62
     1
  5
617
 10
4756.106523
 20
7522.322661
 30
0.0
 40
18.0
 50
327.37
 51
330.71
  0
ARC
  8
3
  6
CONTINUOUS
 62
     1
  5
618
 10
4758.106523
 20
7521.072661
 30
0.0
 40
15.75
 50
323.64
 51
327.39
  0
ARC
  8
3
  6
CONTINUOUS
 62
     1
  5
619
 10
4760.106523
 20
7519.572661
 30
0.0
 40
13.5
 50
319.36
 51
323.65
  0
ARC
  8
3
  6
CONTINUOUS
 62
     1
  5
61A
 10
4761.356523
 20
7518.572661
 30
0.0
 40
11.5
 50
314.51
 51
319.36
  0
ARC
  8
3
  6
CONTINUOUS
 62
     1
  5
61B
 10
4762.106523
 20
7517.822661
 30
0.0
 40
10.5
 50
313.19
 51
314.46
  0
ARC
  8
3
  6
CONTINUOUS
 62
     1
  5
61C
 10
4762.356523
 20
7517.322661
 30
0.0
 40
10.0
 50
311.88
 51
313.19
  0
ARC
  8
3
  6
CONTINUOUS
 62
     1
  5
61D
 10
4762.606523
 20
7517.072661
 30
0.0
 40
9.75
 50
310.54
 51
311.88
  0
ARC
  8
3
  6
CONTINUOUS
 62
     1
  5
61E
 10
4762.856523
 20
7516.822661
 30
0.0
 40
9.5
 50
309.85
 51
310.53
  0
ARC
  8
3
  6
CONTINUOUS
 62
     1
  5
61F
 10
4763.106523
 20
7516.822661
 30
0.0
 40
9.25
 50
309.15
 51
309.85
  0
ARC
  8
3
  6
CONTINUOUS
 62
     1
  5
620
 10
4763.106523
 20
7516.572661
 30
0.0
 40
9.0
 50
308.45
 51
309.15
  0
ARC
  8
3
  6
CONTINUOUS
 62
     1
  5
621
 10
4763.106523
 20
7516.572661
 30
0.0
 40
9.0
 50
307.73
 51
308.45
  0
ARC
  8
3
  6
CONTINUOUS
 62
     1
  5
622
 10
4763.356523
 20
7516.322661
 30
0.0
 40
8.75
 50
307.02
 51
307.73
  0
ARC
  8
3
  6
CONTINUOUS
 62
     1
  5
623
 10
4763.356523
 20
7516.322661
 30
0.0
 40
8.75
 50
306.29
 51
307.02
  0
ARC
  8
3
  6
CONTINUOUS
 62
     1
  5
624
 10
4761.856523
 20
7518.322661
 30
0.0
 40
11.0
 50
302.66
 51
306.34
  0
ARC
  8
3
  6
CONTINUOUS
 62
     1
  5
625
 10
4762.856523
 20
7516.572661
 30
0.0
 40
9.25
 50
298.4
 51
302.67
  0
ARC
  8
3
  6
CONTINUOUS
 62
     1
  5
626
 10
4763.606523
 20
7515.322661
 30
0.0
 40
7.75
 50
293.47
 51
298.4
  0
ARC
  8
3
  6
CONTINUOUS
 62
     1
  5
627
 10
4763.856523
 20
7514.822661
 30
0.0
 40
7.0
 50
290.78
 51
293.41
  0
ARC
  8
3
  6
CONTINUOUS
 62
     1
  5
628
 10
4764.106523
 20
7514.572661
 30
0.0
 40
6.75
 50
288.09
 51
290.78
  0
ARC
  8
3
  6
CONTINUOUS
 62
     1
  5
629
 10
4764.106523
 20
7514.322661
 30
0.0
 40
6.5
 50
285.36
 51
288.09
  0
ARC
  8
3
  6
CONTINUOUS
 62
     1
  5
62A
 10
4787.606523
 20
7509.072661
 30
0.0
 40
10.25
 50
176.04
 51
179.95
  0
ARC
  8
3
  6
CONTINUOUS
 62
     1
  5
62B
 10
4784.606523
 20
7509.072661
 30
0.0
 40
7.25
 50
179.93
 51
185.03
  0
ARC
  8
3
  6
CONTINUOUS
 62
     1
  5
62C
 10
4782.356523
 20
7508.822661
 30
0.0
 40
5.0
 50
185.01
 51
191.57
  0
ARC
  8
3
  6
CONTINUOUS
 62
     1
  5
62D
 10
4781.106523
 20
7508.572661
 30
0.0
 40
3.75
 50
191.56
 51
199.76
  0
ARC
  8
3
  6
CONTINUOUS
 62
     1
  5
62E
 10
4780.356523
 20
7508.322661
 30
0.0
 40
3.0
 50
199.78
 51
209.58
  0
ARC
  8
3
  6
CONTINUOUS
 62
     1
  5
62F
 10
4779.856523
 20
7508.072661
 30
0.0
 40
2.5
 50
209.65
 51
220.57
  0
ARC
  8
3
  6
CONTINUOUS
 62
     1
  5
630
 10
4779.856523
 20
7508.072661
 30
0.0
 40
2.5
 50
220.67
 51
231.79
  0
LINE
  8
3
  6
CONTINUOUS
 62
     1
  5
631
 10
4759.106523
 20
7512.322661
 30
0.0
 11
4751.606523
 21
7516.822661
 31
0.0
  0
ARC
  8
3
  6
CONTINUOUS
 62
     1
  5
632
 10
5041.106523
 20
7491.822661
 30
0.0
 40
299.75
 50
174.86
 51
176.18
  0
ARC
  8
3
  6
CONTINUOUS
 62
     1
  5
633
 10
4766.606523
 20
7527.072661
 30
0.0
 40
18.5
 50
195.16
 51
201.82
  0
ARC
  8
3
  6
CONTINUOUS
 62
     1
  5
634
 10
4719.106523
 20
7530.822661
 30
0.0
 40
39.0
 50
355.92
 51
359.99
  0
ARC
  8
3
  6
CONTINUOUS
 62
     1
  5
635
 10
4711.856523
 20
7531.072661
 30
0.0
 40
46.25
 50
359.97
 51
4.09
  0
ARC
  8
3
  6
CONTINUOUS
 62
     1
  5
636
 10
4760.106523
 20
7524.572661
 30
0.0
 40
11.5
 50
201.68
 51
210.82
  0
ARC
  8
3
  6
CONTINUOUS
 62
     1
  5
637
 10
4743.606523
 20
7525.322661
 30
0.0
 40
13.75
 50
332.66
 51
340.77
  0
ARC
  8
3
  6
CONTINUOUS
 62
     1
  5
638
 10
4722.606523
 20
7530.572661
 30
0.0
 40
35.25
 50
351.61
 51
355.95
  0
ARC
  8
3
  6
CONTINUOUS
 62
     1
  5
639
 10
4736.606523
 20
7527.822661
 30
0.0
 40
21.25
 50
340.66
 51
346.75
  0
ARC
  8
3
  6
CONTINUOUS
 62
     1
  5
63A
 10
4729.106523
 20
7529.822661
 30
0.0
 40
29.0
 50
346.69
 51
351.65
  0
ARC
  8
3
  6
CONTINUOUS
 62
     1
  5
63B
 10
4755.606523
 20
7521.822661
 30
0.0
 40
6.25
 50
210.57
 51
224.23
  0
ARC
  8
3
  6
CONTINUOUS
 62
     1
  5
63C
 10
4753.356523
 20
7519.572661
 30
0.0
 40
3.25
 50
223.93
 51
245.25
  0
ARC
  8
3
  6
CONTINUOUS
 62
     1
  5
63D
 10
4752.856523
 20
7518.572661
 30
0.0
 40
2.0
 50
245.69
 51
274.85
  0
ARC
  8
3
  6
CONTINUOUS
 62
     1
  5
63E
 10
4752.856523
 20
7518.822661
 30
0.0
 40
2.25
 50
276.01
 51
303.06
  0
ARC
  8
3
  6
CONTINUOUS
 62
     1
  5
63F
 10
4751.856523
 20
7520.322661
 30
0.0
 40
4.0
 50
303.1
 51
321.41
  0
ARC
  8
3
  6
CONTINUOUS
 62
     1
  5
640
 10
4748.856523
 20
7522.572661
 30
0.0
 40
7.75
 50
321.09
 51
332.87
  0
ARC
  8
3
  6
CONTINUOUS
 62
     1
  5
641
 10
4785.606523
 20
7530.822661
 30
0.0
 40
38.0
 50
181.39
 51
185.52
  0
ARC
  8
3
  6
CONTINUOUS
 62
     1
  5
642
 10
5041.106523
 20
7491.822661
 30
0.0
 40
300.0
 50
172.18
 51
173.53
  0
ARC
  8
3
  6
CONTINUOUS
 62
     1
  5
643
 10
4773.606523
 20
7528.572661
 30
0.0
 40
30.0
 50
165.66
 51
167.83
  0
LINE
  8
3
  6
CONTINUOUS
 62
     1
  5
644
 10
4746.606523
 20
7530.822661
 30
0.0
 11
4746.106523
 21
7530.822661
 31
0.0
  0
ARC
  8
3
  6
CONTINUOUS
 62
     1
  5
645
 10
4746.106523
 20
7531.322661
 30
0.0
 40
0.5
 50
179.38
 51
270.0
  0
ARC
  8
3
  6
CONTINUOUS
 62
     1
  5
646
 10
4746.606523
 20
7529.822661
 30
0.0
 40
1.0
 50
1.41
 51
90.0
  0
ARC
  8
3
  6
CONTINUOUS
 62
     1
  5
647
 10
4773.606523
 20
7528.572661
 30
0.0
 40
30.0
 50
163.49
 51
165.66
  0
ARC
  8
3
  6
CONTINUOUS
 62
     1
  5
648
 10
4791.356523
 20
7531.072661
 30
0.0
 40
45.75
 50
175.25
 51
179.4
  0
ARC
  8
3
  6
CONTINUOUS
 62
     1
  5
649
 10
4773.606523
 20
7528.572661
 30
0.0
 40
30.0
 50
167.83
 51
170.0
  0
ARC
  8
3
  6
CONTINUOUS
 62
     1
  5
64A
 10
4773.606523
 20
7528.572661
 30
0.0
 40
29.75
 50
170.0
 51
172.18
  0
ARC
  8
3
  6
CONTINUOUS
 62
     1
  5
64B
 10
4780.856523
 20
7530.322661
 30
0.0
 40
33.25
 50
185.49
 51
190.0
  0
ARC
  8
3
  6
CONTINUOUS
 62
     1
  5
64C
 10
4774.106523
 20
7529.072661
 30
0.0
 40
26.25
 50
189.95
 51
195.23
  0
ARC
  8
3
  6
CONTINUOUS
 62
     1
  5
64D
 10
5040.856523
 20
7491.822661
 30
0.0
 40
299.75
 50
173.53
 51
174.86
  0
LINE
  8
3
  6
CONTINUOUS
 62
     1
  5
64E
 10
4745.356523
 20
7504.072661
 30
0.0
 11
4765.356523
 21
7507.822661
 31
0.0
  0
ARC
  8
3
  6
CONTINUOUS
 62
     1
  5
64F
 10
4764.106523
 20
7514.322661
 30
0.0
 40
6.75
 50
280.33
 51
281.98
  0
ARC
  8
3
  6
CONTINUOUS
 62
     1
  5
650
 10
4746.606523
 20
7506.322661
 30
0.0
 40
5.0
 50
177.53
 51
270.0
  0
ARC
  8
3
  6
CONTINUOUS
 62
     1
  5
651
 10
5041.606523
 20
7491.822661
 30
0.0
 40
300.5
 50
177.01
 51
177.17
  0
ARC
  8
3
  6
CONTINUOUS
 62
     1
  5
652
 10
4875.356523
 20
7500.822661
 30
0.0
 40
133.75
 50
176.8
 51
177.53
  0
ARC
  8
3
  6
CONTINUOUS
 62
     1
  5
653
 10
5041.606523
 20
7491.822661
 30
0.0
 40
300.5
 50
176.69
 51
176.85
  0
ARC
  8
3
  6
CONTINUOUS
 62
     1
  5
654
 10
5040.856523
 20
7491.822661
 30
0.0
 40
299.75
 50
176.52
 51
176.69
  0
ARC
  8
3
  6
CONTINUOUS
 62
     1
  5
655
 10
5040.606523
 20
7492.072661
 30
0.0
 40
299.25
 50
176.35
 51
176.52
  0
ARC
  8
3
  6
CONTINUOUS
 62
     1
  5
656
 10
5040.106523
 20
7492.072661
 30
0.0
 40
299.0
 50
176.18
 51
176.35
  0
LINE
  8
3
  6
CONTINUOUS
 62
     1
  5
657
 10
4863.606523
 20
7439.822661
 30
0.0
 11
4863.606523
 21
7165.072661
 31
0.0
  0
LINE
  8
3
  6
CONTINUOUS
 62
     1
  5
658
 10
4880.356523
 20
7440.822661
 30
0.0
 11
4880.356523
 21
7164.322661
 31
0.0
  0
LINE
  8
3
  6
CONTINUOUS
 62
     1
  5
659
 10
4930.856523
 20
7437.822661
 30
0.0
 11
4929.106523
 21
7412.822661
 31
0.0
  0
LINE
  8
3
  6
CONTINUOUS
 62
     1
  5
65A
 10
4929.106523
 20
7412.822661
 30
0.0
 11
4927.856523
 21
7388.072661
 31
0.0
  0
LINE
  8
3
  6
CONTINUOUS
 62
     1
  5
65B
 10
4927.856523
 20
7388.072661
 30
0.0
 11
4926.856523
 21
7363.072661
 31
0.0
  0
LINE
  8
3
  6
CONTINUOUS
 62
     1
  5
65C
 10
4926.856523
 20
7363.072661
 30
0.0
 11
4926.356523
 21
7338.072661
 31
0.0
  0
LINE
  8
3
  6
CONTINUOUS
 62
     1
  5
65D
 10
4926.356523
 20
7338.072661
 30
0.0
 11
4925.856523
 21
7313.072661
 31
0.0
  0
LINE
  8
3
  6
CONTINUOUS
 62
     1
  5
65E
 10
4925.856523
 20
7313.072661
 30
0.0
 11
4926.106523
 21
7288.322661
 31
0.0
  0
LINE
  8
3
  6
CONTINUOUS
 62
     1
  5
65F
 10
4926.106523
 20
7288.322661
 30
0.0
 11
4926.356523
 21
7263.322661
 31
0.0
  0
LINE
  8
3
  6
CONTINUOUS
 62
     1
  5
660
 10
4926.356523
 20
7263.322661
 30
0.0
 11
4927.106523
 21
7238.322661
 31
0.0
  0
LINE
  8
3
  6
CONTINUOUS
 62
     1
  5
661
 10
4927.106523
 20
7238.322661
 30
0.0
 11
4928.106523
 21
7213.322661
 31
0.0
  0
LINE
  8
3
  6
CONTINUOUS
 62
     1
  5
662
 10
4928.106523
 20
7213.322661
 30
0.0
 11
4929.356523
 21
7188.322661
 31
0.0
  0
LINE
  8
3
  6
CONTINUOUS
 62
     1
  5
663
 10
4929.356523
 20
7188.322661
 30
0.0
 11
4930.856523
 21
7167.322661
 31
0.0
  0
LINE
  8
3
  6
CONTINUOUS
 62
     1
  5
664
 10
5008.106523
 20
7401.322661
 30
0.0
 11
5007.606523
 21
7376.572661
 31
0.0
  0
LINE
  8
3
  6
CONTINUOUS
 62
     1
  5
665
 10
5007.606523
 20
7376.572661
 30
0.0
 11
5007.106523
 21
7351.572661
 31
0.0
  0
LINE
  8
3
  6
CONTINUOUS
 62
     1
  5
666
 10
5007.106523
 20
7351.572661
 30
0.0
 11
5006.856523
 21
7326.572661
 31
0.0
  0
LINE
  8
3
  6
CONTINUOUS
 62
     1
  5
667
 10
5006.856523
 20
7326.572661
 30
0.0
 11
5006.606523
 21
7301.822661
 31
0.0
  0
LINE
  8
3
  6
CONTINUOUS
 62
     1
  5
668
 10
5006.606523
 20
7301.822661
 30
0.0
 11
5006.856523
 21
7276.822661
 31
0.0
  0
LINE
  8
3
  6
CONTINUOUS
 62
     1
  5
669
 10
5006.856523
 20
7276.822661
 30
0.0
 11
5007.106523
 21
7251.822661
 31
0.0
  0
LINE
  8
3
  6
CONTINUOUS
 62
     1
  5
66A
 10
5007.106523
 20
7251.822661
 30
0.0
 11
5007.606523
 21
7226.822661
 31
0.0
  0
LINE
  8
3
  6
CONTINUOUS
 62
     1
  5
66B
 10
5007.606523
 20
7226.822661
 30
0.0
 11
5008.106523
 21
7203.822661
 31
0.0
  0
LINE
  8
3
  6
CONTINUOUS
 62
     1
  5
66C
 10
4991.856523
 20
7282.072661
 30
0.0
 11
4992.106523
 21
7261.572661
 31
0.0
  0
ARC
  8
3
  6
CONTINUOUS
 62
     1
  5
66D
 10
5784.606523
 20
7302.572661
 30
0.0
 40
789.0
 50
181.45
 51
181.7
  0
LINE
  8
3
  6
CONTINUOUS
 62
     1
  5
66E
 10
4993.106523
 20
7384.822661
 30
0.0
 11
4992.606523
 21
7364.322661
 31
0.0
  0
ARC
  8
3
  6
CONTINUOUS
 62
     1
  5
66F
 10
5784.106523
 20
7302.572661
 30
0.0
 40
788.75
 50
175.27
 51
175.46
  0
LINE
  8
3
  6
CONTINUOUS
 62
     1
  5
670
 10
4995.106523
 20
7425.822661
 30
0.0
 11
4994.106523
 21
7405.322661
 31
0.0
  0
ARC
  8
3
  6
CONTINUOUS
 62
     1
  5
671
 10
5785.356523
 20
7302.572661
 30
0.0
 40
790.0
 50
172.11
 51
172.3
  0
LINE
  8
3
  6
CONTINUOUS
 62
     1
  5
672
 10
5005.606523
 20
7432.822661
 30
0.0
 11
5005.606523
 21
7429.072661
 31
0.0
  0
LINE
  8
3
  6
CONTINUOUS
 62
     1
  5
673
 10
4995.856523
 20
7443.322661
 30
0.0
 11
4995.356523
 21
7429.072661
 31
0.0
  0
LINE
  8
3
  6
CONTINUOUS
 62
     1
  5
674
 10
5005.606523
 20
7448.072661
 30
0.0
 11
5005.606523
 21
7444.072661
 31
0.0
  0
LINE
  8
3
  6
CONTINUOUS
 62
     1
  5
675
 10
5005.606523
 20
7444.072661
 30
0.0
 11
5005.606523
 21
7440.322661
 31
0.0
  0
LINE
  8
3
  6
CONTINUOUS
 62
     1
  5
676
 10
5005.606523
 20
7440.572661
 30
0.0
 11
5005.606523
 21
7436.572661
 31
0.0
  0
LINE
  8
3
  6
CONTINUOUS
 62
     1
  5
677
 10
5005.606523
 20
7436.572661
 30
0.0
 11
5005.606523
 21
7432.822661
 31
0.0
  0
ARC
  8
3
  6
CONTINUOUS
 62
     1
  5
678
 10
5785.356523
 20
7302.572661
 30
0.0
 40
790.0
 50
171.93
 51
172.11
  0
ARC
  8
3
  6
CONTINUOUS
 62
     1
  5
679
 10
4985.356523
 20
7429.072661
 30
0.0
 40
20.0
 50
353.99
 51
355.48
  0
LINE
  8
3
  6
CONTINUOUS
 62
     1
  5
67A
 10
4995.106523
 20
7426.822661
 30
0.0
 11
4995.106523
 21
7428.072661
 31
0.0
  0
ARC
  8
3
  6
CONTINUOUS
 62
     1
  5
67B
 10
4985.356523
 20
7429.072661
 30
0.0
 40
20.0
 50
358.47
 51
359.97
  0
ARC
  8
3
  6
CONTINUOUS
 62
     1
  5
67C
 10
4985.356523
 20
7429.072661
 30
0.0
 40
20.0
 50
356.98
 51
358.47
  0
ARC
  8
3
  6
CONTINUOUS
 62
     1
  5
67D
 10
4985.356523
 20
7429.072661
 30
0.0
 40
20.0
 50
355.48
 51
356.98
  0
LINE
  8
3
  6
CONTINUOUS
 62
     1
  5
67E
 10
4995.106523
 20
7428.072661
 30
0.0
 11
4995.356523
 21
7429.072661
 31
0.0
  0
ARC
  8
3
  6
CONTINUOUS
 62
     1
  5
67F
 10
5785.106523
 20
7302.572661
 30
0.0
 40
789.75
 50
171.0
 51
171.18
  0
ARC
  8
3
  6
CONTINUOUS
 62
     1
  5
680
 10
4985.356523
 20
7429.072661
 30
0.0
 40
20.0
 50
352.5
 51
353.99
  0
ARC
  8
3
  6
CONTINUOUS
 62
     1
  5
681
 10
4985.356523
 20
7429.072661
 30
0.0
 40
20.0
 50
351.0
 51
352.5
  0
ARC
  8
3
  6
CONTINUOUS
 62
     1
  5
682
 10
4272.106523
 20
7464.072661
 30
0.0
 40
723.75
 50
356.97
 51
357.05
  0
ARC
  8
3
  6
CONTINUOUS
 62
     1
  5
683
 10
5785.106523
 20
7302.572661
 30
0.0
 40
789.75
 50
171.18
 51
171.37
  0
ARC
  8
3
  6
CONTINUOUS
 62
     1
  5
684
 10
5785.356523
 20
7302.572661
 30
0.0
 40
789.75
 50
171.37
 51
171.56
  0
ARC
  8
3
  6
CONTINUOUS
 62
     1
  5
685
 10
5785.356523
 20
7302.572661
 30
0.0
 40
789.75
 50
171.56
 51
171.74
  0
ARC
  8
3
  6
CONTINUOUS
 62
     1
  5
686
 10
5785.356523
 20
7302.572661
 30
0.0
 40
790.0
 50
171.74
 51
171.93
  0
ARC
  8
3
  6
CONTINUOUS
 62
     1
  5
687
 10
5785.106523
 20
7302.572661
 30
0.0
 40
789.5
 50
173.79
 51
173.97
  0
LINE
  8
3
  6
CONTINUOUS
 62
     1
  5
688
 10
4994.106523
 20
7405.322661
 30
0.0
 11
4993.106523
 21
7384.822661
 31
0.0
  0
ARC
  8
3
  6
CONTINUOUS
 62
     1
  5
689
 10
5785.356523
 20
7302.572661
 30
0.0
 40
790.0
 50
172.3
 51
172.48
  0
ARC
  8
3
  6
CONTINUOUS
 62
     1
  5
68A
 10
5785.356523
 20
7302.572661
 30
0.0
 40
790.0
 50
172.48
 51
172.67
  0
ARC
  8
3
  6
CONTINUOUS
 62
     1
  5
68B
 10
5785.356523
 20
7302.572661
 30
0.0
 40
790.0
 50
172.67
 51
172.86
  0
ARC
  8
3
  6
CONTINUOUS
 62
     1
  5
68C
 10
5785.356523
 20
7302.572661
 30
0.0
 40
790.0
 50
172.86
 51
173.04
  0
ARC
  8
3
  6
CONTINUOUS
 62
     1
  5
68D
 10
5785.356523
 20
7302.572661
 30
0.0
 40
790.0
 50
173.04
 51
173.23
  0
ARC
  8
3
  6
CONTINUOUS
 62
     1
  5
68E
 10
5785.356523
 20
7302.572661
 30
0.0
 40
789.75
 50
173.23
 51
173.41
  0
ARC
  8
3
  6
CONTINUOUS
 62
     1
  5
68F
 10
5785.356523
 20
7302.572661
 30
0.0
 40
789.75
 50
173.41
 51
173.6
  0
ARC
  8
3
  6
CONTINUOUS
 62
     1
  5
690
 10
5785.106523
 20
7302.572661
 30
0.0
 40
789.75
 50
173.6
 51
173.79
  0
ARC
  8
3
  6
CONTINUOUS
 62
     1
  5
691
 10
5784.856523
 20
7302.572661
 30
0.0
 40
789.25
 50
174.34
 51
174.53
  0
ARC
  8
3
  6
CONTINUOUS
 62
     1
  5
692
 10
5785.106523
 20
7302.572661
 30
0.0
 40
789.5
 50
173.97
 51
174.16
  0
ARC
  8
3
  6
CONTINUOUS
 62
     1
  5
693
 10
5784.856523
 20
7302.572661
 30
0.0
 40
789.5
 50
174.16
 51
174.34
  0
ARC
  8
3
  6
CONTINUOUS
 62
     1
  5
694
 10
5784.606523
 20
7302.572661
 30
0.0
 40
789.25
 50
174.53
 51
174.72
  0
ARC
  8
3
  6
CONTINUOUS
 62
     1
  5
695
 10
5784.606523
 20
7302.572661
 30
0.0
 40
789.0
 50
174.72
 51
174.9
  0
ARC
  8
3
  6
CONTINUOUS
 62
     1
  5
696
 10
5784.356523
 20
7302.572661
 30
0.0
 40
789.0
 50
174.9
 51
175.09
  0
ARC
  8
3
  6
CONTINUOUS
 62
     1
  5
697
 10
5784.356523
 20
7302.572661
 30
0.0
 40
788.75
 50
175.09
 51
175.27
  0
LINE
  8
3
  6
CONTINUOUS
 62
     1
  5
698
 10
4868.606523
 20
7444.822661
 30
0.0
 11
4918.606523
 21
7444.822661
 31
0.0
  0
LINE
  8
3
  6
CONTINUOUS
 62
     1
  5
699
 10
4880.356523
 20
7440.822661
 30
0.0
 11
4905.356523
 21
7440.822661
 31
0.0
  0
LINE
  8
3
  6
CONTINUOUS
 62
     1
  5
69A
 10
4905.356523
 20
7440.822661
 30
0.0
 11
4923.356523
 21
7440.822661
 31
0.0
  0
LINE
  8
3
  6
CONTINUOUS
 62
     1
  5
69B
 10
4923.356523
 20
7440.822661
 30
0.0
 11
4938.106523
 21
7440.822661
 31
0.0
  0
ARC
  8
3
  6
CONTINUOUS
 62
     1
  5
69C
 10
4868.606523
 20
7439.822661
 30
0.0
 40
4.75
 50
90.0
 51
180.0
  0
LINE
  8
3
  6
CONTINUOUS
 62
     1
  5
69D
 10
4992.106523
 20
7343.572661
 30
0.0
 11
4991.856523
 21
7323.072661
 31
0.0
  0
ARC
  8
3
  6
CONTINUOUS
 62
     1
  5
69E
 10
5784.606523
 20
7302.572661
 30
0.0
 40
789.0
 50
178.48
 51
178.67
  0
LINE
  8
3
  6
CONTINUOUS
 62
     1
  5
69F
 10
4992.606523
 20
7364.322661
 30
0.0
 11
4992.106523
 21
7343.572661
 31
0.0
  0
ARC
  8
3
  6
CONTINUOUS
 62
     1
  5
6A0
 10
5784.606523
 20
7302.572661
 30
0.0
 40
789.25
 50
176.78
 51
176.97
  0
ARC
  8
3
  6
CONTINUOUS
 62
     1
  5
6A1
 10
5784.106523
 20
7302.572661
 30
0.0
 40
788.75
 50
175.65
 51
175.84
  0
ARC
  8
3
  6
CONTINUOUS
 62
     1
  5
6A2
 10
5784.106523
 20
7302.572661
 30
0.0
 40
788.5
 50
175.46
 51
175.65
  0
ARC
  8
3
  6
CONTINUOUS
 62
     1
  5
6A3
 10
5784.356523
 20
7302.572661
 30
0.0
 40
788.75
 50
175.84
 51
176.03
  0
ARC
  8
3
  6
CONTINUOUS
 62
     1
  5
6A4
 10
5784.356523
 20
7302.572661
 30
0.0
 40
789.0
 50
176.03
 51
176.22
  0
ARC
  8
3
  6
CONTINUOUS
 62
     1
  5
6A5
 10
5784.356523
 20
7302.572661
 30
0.0
 40
789.0
 50
176.22
 51
176.41
  0
ARC
  8
3
  6
CONTINUOUS
 62
     1
  5
6A6
 10
5784.606523
 20
7302.572661
 30
0.0
 40
789.0
 50
176.41
 51
176.59
  0
ARC
  8
3
  6
CONTINUOUS
 62
     1
  5
6A7
 10
5784.606523
 20
7302.572661
 30
0.0
 40
789.25
 50
176.59
 51
176.78
  0
ARC
  8
3
  6
CONTINUOUS
 62
     1
  5
6A8
 10
5784.606523
 20
7302.572661
 30
0.0
 40
789.25
 50
177.92
 51
178.11
  0
ARC
  8
3
  6
CONTINUOUS
 62
     1
  5
6A9
 10
5784.606523
 20
7302.572661
 30
0.0
 40
789.25
 50
177.35
 51
177.54
  0
ARC
  8
3
  6
CONTINUOUS
 62
     1
  5
6AA
 10
5784.606523
 20
7302.572661
 30
0.0
 40
789.25
 50
176.97
 51
177.16
  0
ARC
  8
3
  6
CONTINUOUS
 62
     1
  5
6AB
 10
5784.606523
 20
7302.572661
 30
0.0
 40
789.25
 50
177.16
 51
177.35
  0
ARC
  8
3
  6
CONTINUOUS
 62
     1
  5
6AC
 10
5784.606523
 20
7302.572661
 30
0.0
 40
789.25
 50
177.54
 51
177.73
  0
ARC
  8
3
  6
CONTINUOUS
 62
     1
  5
6AD
 10
5784.606523
 20
7302.572661
 30
0.0
 40
789.25
 50
177.73
 51
177.92
  0
ARC
  8
3
  6
CONTINUOUS
 62
     1
  5
6AE
 10
5784.606523
 20
7302.572661
 30
0.0
 40
789.25
 50
178.11
 51
178.29
  0
ARC
  8
3
  6
CONTINUOUS
 62
     1
  5
6AF
 10
5784.606523
 20
7302.572661
 30
0.0
 40
789.0
 50
178.29
 51
178.48
  0
ARC
  8
3
  6
CONTINUOUS
 62
     1
  5
6B0
 10
5783.856523
 20
7302.572661
 30
0.0
 40
788.25
 50
180.0
 51
180.24
  0
LINE
  8
3
  6
CONTINUOUS
 62
     1
  5
6B1
 10
4991.606523
 20
7302.572661
 30
0.0
 11
4991.856523
 21
7282.072661
 31
0.0
  0
ARC
  8
3
  6
CONTINUOUS
 62
     1
  5
6B2
 10
5783.856523
 20
7302.572661
 30
0.0
 40
788.5
 50
179.62
 51
179.81
  0
LINE
  8
3
  6
CONTINUOUS
 62
     1
  5
6B3
 10
4991.856523
 20
7323.072661
 30
0.0
 11
4991.606523
 21
7302.572661
 31
0.0
  0
ARC
  8
3
  6
CONTINUOUS
 62
     1
  5
6B4
 10
5784.356523
 20
7302.572661
 30
0.0
 40
789.0
 50
178.67
 51
178.86
  0
ARC
  8
3
  6
CONTINUOUS
 62
     1
  5
6B5
 10
5784.356523
 20
7302.572661
 30
0.0
 40
789.0
 50
178.86
 51
179.05
  0
ARC
  8
3
  6
CONTINUOUS
 62
     1
  5
6B6
 10
5784.356523
 20
7302.572661
 30
0.0
 40
788.75
 50
179.05
 51
179.24
  0
ARC
  8
3
  6
CONTINUOUS
 62
     1
  5
6B7
 10
5784.106523
 20
7302.572661
 30
0.0
 40
788.75
 50
179.24
 51
179.43
  0
ARC
  8
3
  6
CONTINUOUS
 62
     1
  5
6B8
 10
5784.106523
 20
7302.572661
 30
0.0
 40
788.5
 50
179.43
 51
179.62
  0
ARC
  8
3
  6
CONTINUOUS
 62
     1
  5
6B9
 10
5783.606523
 20
7302.572661
 30
0.0
 40
788.25
 50
179.81
 51
180.0
  0
ARC
  8
3
  6
CONTINUOUS
 62
     1
  5
6BA
 10
5783.856523
 20
7302.572661
 30
0.0
 40
788.5
 50
180.24
 51
180.48
  0
ARC
  8
3
  6
CONTINUOUS
 62
     1
  5
6BB
 10
5784.106523
 20
7302.572661
 30
0.0
 40
788.75
 50
180.48
 51
180.72
  0
ARC
  8
3
  6
CONTINUOUS
 62
     1
  5
6BC
 10
5784.356523
 20
7302.572661
 30
0.0
 40
788.75
 50
180.72
 51
180.96
  0
ARC
  8
3
  6
CONTINUOUS
 62
     1
  5
6BD
 10
5784.356523
 20
7302.572661
 30
0.0
 40
789.0
 50
180.96
 51
181.2
  0
ARC
  8
3
  6
CONTINUOUS
 62
     1
  5
6BE
 10
5784.606523
 20
7302.572661
 30
0.0
 40
789.0
 50
181.2
 51
181.45
  0
ARC
  8
3
  6
CONTINUOUS
 62
     1
  5
6BF
 10
5607.606523
 20
7221.072661
 30
0.0
 40
600.0
 50
181.66
 51
188.05
  0
LINE
  8
3
  6
CONTINUOUS
 62
     1
  5
6C0
 10
4994.106523
 20
7199.822661
 30
0.0
 11
4995.106523
 21
7179.322661
 31
0.0
  0
ARC
  8
3
  6
CONTINUOUS
 62
     1
  5
6C1
 10
5785.356523
 20
7302.572661
 30
0.0
 40
790.0
 50
187.49
 51
187.86
  0
LINE
  8
3
  6
CONTINUOUS
 62
     1
  5
6C2
 10
4992.606523
 20
7240.822661
 30
0.0
 11
4993.106523
 21
7220.322661
 31
0.0
  0
ARC
  8
3
  6
CONTINUOUS
 62
     1
  5
6C3
 10
5784.356523
 20
7302.572661
 30
0.0
 40
788.75
 50
184.59
 51
184.91
  0
LINE
  8
3
  6
CONTINUOUS
 62
     1
  5
6C4
 10
4992.106523
 20
7261.572661
 30
0.0
 11
4992.606523
 21
7240.822661
 31
0.0
  0
ARC
  8
3
  6
CONTINUOUS
 62
     1
  5
6C5
 10
5784.606523
 20
7302.572661
 30
0.0
 40
789.25
 50
182.96
 51
183.33
  0
ARC
  8
3
  6
CONTINUOUS
 62
     1
  5
6C6
 10
5784.606523
 20
7302.572661
 30
0.0
 40
789.25
 50
181.7
 51
181.95
  0
ARC
  8
3
  6
CONTINUOUS
 62
     1
  5
6C7
 10
5784.606523
 20
7302.572661
 30
0.0
 40
789.25
 50
182.58
 51
182.96
  0
ARC
  8
3
  6
CONTINUOUS
 62
     1
  5
6C8
 10
5784.606523
 20
7302.572661
 30
0.0
 40
789.25
 50
181.95
 51
182.2
  0
ARC
  8
3
  6
CONTINUOUS
 62
     1
  5
6C9
 10
5784.606523
 20
7302.572661
 30
0.0
 40
789.25
 50
182.2
 51
182.58
  0
ARC
  8
3
  6
CONTINUOUS
 62
     1
  5
6CA
 10
5784.606523
 20
7302.572661
 30
0.0
 40
789.0
 50
183.33
 51
183.65
  0
ARC
  8
3
  6
CONTINUOUS
 62
     1
  5
6CB
 10
5784.356523
 20
7302.572661
 30
0.0
 40
789.0
 50
183.65
 51
183.96
  0
ARC
  8
3
  6
CONTINUOUS
 62
     1
  5
6CC
 10
5784.106523
 20
7302.572661
 30
0.0
 40
788.75
 50
183.96
 51
184.28
  0
ARC
  8
3
  6
CONTINUOUS
 62
     1
  5
6CD
 10
5784.106523
 20
7302.572661
 30
0.0
 40
788.5
 50
184.28
 51
184.59
  0
LINE
  8
3
  6
CONTINUOUS
 62
     1
  5
6CE
 10
4993.106523
 20
7220.322661
 30
0.0
 11
4994.106523
 21
7199.822661
 31
0.0
  0
ARC
  8
3
  6
CONTINUOUS
 62
     1
  5
6CF
 10
5785.106523
 20
7302.572661
 30
0.0
 40
789.75
 50
186.23
 51
186.48
  0
ARC
  8
3
  6
CONTINUOUS
 62
     1
  5
6D0
 10
5784.356523
 20
7302.572661
 30
0.0
 40
789.0
 50
184.91
 51
185.22
  0
ARC
  8
3
  6
CONTINUOUS
 62
     1
  5
6D1
 10
5784.856523
 20
7302.572661
 30
0.0
 40
789.5
 50
185.48
 51
185.73
  0
ARC
  8
3
  6
CONTINUOUS
 62
     1
  5
6D2
 10
5784.606523
 20
7302.572661
 30
0.0
 40
789.25
 50
185.22
 51
185.48
  0
ARC
  8
3
  6
CONTINUOUS
 62
     1
  5
6D3
 10
5784.856523
 20
7302.572661
 30
0.0
 40
789.5
 50
185.73
 51
185.98
  0
ARC
  8
3
  6
CONTINUOUS
 62
     1
  5
6D4
 10
5785.106523
 20
7302.572661
 30
0.0
 40
789.5
 50
185.98
 51
186.23
  0
ARC
  8
3
  6
CONTINUOUS
 62
     1
  5
6D5
 10
5785.356523
 20
7302.572661
 30
0.0
 40
790.0
 50
187.11
 51
187.49
  0
ARC
  8
3
  6
CONTINUOUS
 62
     1
  5
6D6
 10
5785.356523
 20
7302.572661
 30
0.0
 40
789.75
 50
186.48
 51
186.73
  0
ARC
  8
3
  6
CONTINUOUS
 62
     1
  5
6D7
 10
5785.356523
 20
7302.572661
 30
0.0
 40
790.0
 50
186.73
 51
187.11
  0
ARC
  8
3
  6
CONTINUOUS
 62
     1
  5
6D8
 10
4969.356523
 20
7143.322661
 30
0.0
 40
28.75
 50
310.03
 51
313.63
  0
LINE
  8
3
  6
CONTINUOUS
 62
     1
  5
6D9
 10
4996.356523
 20
7153.322661
 30
0.0
 11
4997.106523
 21
7141.822661
 31
0.0
  0
LINE
  8
3
  6
CONTINUOUS
 62
     1
  5
6DA
 10
5005.106523
 20
7156.322661
 30
0.0
 11
5005.356523
 21
7137.072661
 31
0.0
  0
LINE
  8
3
  6
CONTINUOUS
 62
     1
  5
6DB
 10
5005.106523
 20
7175.572661
 30
0.0
 11
5005.106523
 21
7156.322661
 31
0.0
  0
LINE
  8
3
  6
CONTINUOUS
 62
     1
  5
6DC
 10
4995.106523
 20
7176.072661
 30
0.0
 11
4995.856523
 21
7164.572661
 31
0.0
  0
ARC
  8
3
  6
CONTINUOUS
 62
     1
  5
6DD
 10
5785.106523
 20
7302.572661
 30
0.0
 40
789.75
 50
188.62
 51
188.99
  0
ARC
  8
3
  6
CONTINUOUS
 62
     1
  5
6DE
 10
5785.356523
 20
7302.572661
 30
0.0
 40
790.0
 50
187.86
 51
188.24
  0
ARC
  8
3
  6
CONTINUOUS
 62
     1
  5
6DF
 10
5785.356523
 20
7302.572661
 30
0.0
 40
789.75
 50
188.24
 51
188.62
  0
ARC
  8
3
  6
CONTINUOUS
 62
     1
  5
6E0
 10
4985.356523
 20
7176.072661
 30
0.0
 40
20.0
 50
1.52
 51
3.01
  0
LINE
  8
3
  6
CONTINUOUS
 62
     1
  5
6E1
 10
4995.356523
 20
7176.072661
 30
0.0
 11
4995.106523
 21
7177.072661
 31
0.0
  0
ARC
  8
3
  6
CONTINUOUS
 62
     1
  5
6E2
 10
4985.356523
 20
7176.072661
 30
0.0
 40
20.0
 50
7.49
 51
8.99
  0
ARC
  8
3
  6
CONTINUOUS
 62
     1
  5
6E3
 10
4985.356523
 20
7176.072661
 30
0.0
 40
20.0
 50
6.0
 51
7.49
  0
ARC
  8
3
  6
CONTINUOUS
 62
     1
  5
6E4
 10
4985.356523
 20
7176.072661
 30
0.0
 40
20.0
 50
4.51
 51
6.0
  0
ARC
  8
3
  6
CONTINUOUS
 62
     1
  5
6E5
 10
4985.356523
 20
7176.072661
 30
0.0
 40
20.0
 50
3.01
 51
4.51
  0
ARC
  8
3
  6
CONTINUOUS
 62
     1
  5
6E6
 10
4267.106523
 20
7140.822661
 30
0.0
 40
729.0
 50
2.94
 51
3.02
  0
LINE
  8
3
  6
CONTINUOUS
 62
     1
  5
6E7
 10
4995.106523
 20
7177.072661
 30
0.0
 11
4995.106523
 21
7178.322661
 31
0.0
  0
ARC
  8
3
  6
CONTINUOUS
 62
     1
  5
6E8
 10
4985.356523
 20
7176.072661
 30
0.0
 40
20.0
 50
0.02
 51
1.52
  0
LINE
  8
3
  6
CONTINUOUS
 62
     1
  5
6E9
 10
5005.606523
 20
7176.072661
 30
0.0
 11
5005.606523
 21
7175.822661
 31
0.0
  0
LINE
  8
3
  6
CONTINUOUS
 62
     1
  5
6EA
 10
5005.606523
 20
7175.822661
 30
0.0
 11
5005.606523
 21
7175.572661
 31
0.0
  0
LINE
  8
3
  6
CONTINUOUS
 62
     1
  5
6EB
 10
4995.856523
 20
7164.572661
 30
0.0
 11
4996.356523
 21
7153.322661
 31
0.0
  0
LINE
  8
3
  6
CONTINUOUS
 62
     1
  5
6EC
 10
5005.356523
 20
7137.072661
 30
0.0
 11
5005.356523
 21
7117.822661
 31
0.0
  0
ARC
  8
3
  6
CONTINUOUS
 62
     1
  5
6ED
 10
4973.106523
 20
7140.322661
 30
0.0
 40
24.0
 50
333.02
 51
337.22
  0
ARC
  8
3
  6
CONTINUOUS
 62
     1
  5
6EE
 10
4973.356523
 20
7140.322661
 30
0.0
 40
23.75
 50
337.24
 51
341.56
  0
LINE
  8
3
  6
CONTINUOUS
 62
     1
  5
6EF
 10
5007.356523
 20
7133.322661
 30
0.0
 11
5015.606523
 21
7134.072661
 31
0.0
  0
ARC
  8
3
  6
CONTINUOUS
 62
     1
  5
6F0
 10
4973.606523
 20
7140.072661
 30
0.0
 40
23.25
 50
345.88
 51
350.26
  0
ARC
  8
3
  6
CONTINUOUS
 62
     1
  5
6F1
 10
4972.606523
 20
7140.322661
 30
0.0
 40
24.5
 50
359.23
 51
3.58
  0
ARC
  8
3
  6
CONTINUOUS
 62
     1
  5
6F2
 10
4972.856523
 20
7140.322661
 30
0.0
 40
24.25
 50
354.82
 51
359.23
  0
ARC
  8
3
  6
CONTINUOUS
 62
     1
  5
6F3
 10
4973.606523
 20
7140.072661
 30
0.0
 40
23.5
 50
350.29
 51
354.83
  0
ARC
  8
3
  6
CONTINUOUS
 62
     1
  5
6F4
 10
4973.356523
 20
7140.322661
 30
0.0
 40
23.75
 50
341.56
 51
345.88
  0
ARC
  8
3
  6
CONTINUOUS
 62
     1
  5
6F5
 10
4971.856523
 20
7141.072661
 30
0.0
 40
25.25
 50
324.96
 51
328.96
  0
ARC
  8
3
  6
CONTINUOUS
 62
     1
  5
6F6
 10
4972.356523
 20
7140.822661
 30
0.0
 40
25.0
 50
328.95
 51
333.02
  0
ARC
  8
3
  6
CONTINUOUS
 62
     1
  5
6F7
 10
4999.106523
 20
7105.822661
 30
0.0
 40
8.25
 50
105.13
 51
108.81
  0
ARC
  8
3
  6
CONTINUOUS
 62
     1
  5
6F8
 10
5002.106523
 20
7094.572661
 30
0.0
 40
19.75
 50
103.42
 51
105.09
  0
ARC
  8
3
  6
CONTINUOUS
 62
     1
  5
6F9
 10
5000.356523
 20
7101.572661
 30
0.0
 40
12.5
 50
101.02
 51
103.44
  0
ARC
  8
3
  6
CONTINUOUS
 62
     1
  5
6FA
 10
4999.606523
 20
7106.072661
 30
0.0
 40
8.0
 50
97.58
 51
101.05
  0
ARC
  8
3
  6
CONTINUOUS
 62
     1
  5
6FB
 10
5001.106523
 20
7093.072661
 30
0.0
 40
21.25
 50
96.31
 51
97.47
  0
ARC
  8
3
  6
CONTINUOUS
 62
     1
  5
6FC
 10
5000.606523
 20
7098.572661
 30
0.0
 40
15.5
 50
94.83
 51
96.31
  0
ARC
  8
3
  6
CONTINUOUS
 62
     1
  5
6FD
 10
5000.106523
 20
7102.822661
 30
0.0
 40
11.25
 50
92.96
 51
94.84
  0
ARC
  8
3
  6
CONTINUOUS
 62
     1
  5
6FE
 10
4997.356523
 20
7159.572661
 30
0.0
 40
45.25
 50
272.87
 51
273.93
  0
ARC
  8
3
  6
CONTINUOUS
 62
     1
  5
6FF
 10
4998.606523
 20
7141.822661
 30
0.0
 40
27.5
 50
273.92
 51
275.42
  0
ARC
  8
3
  6
CONTINUOUS
 62
     1
  5
700
 10
4999.606523
 20
7130.072661
 30
0.0
 40
15.75
 50
275.39
 51
277.62
  0
ARC
  8
3
  6
CONTINUOUS
 62
     1
  5
701
 10
4999.856523
 20
7128.322661
 30
0.0
 40
14.0
 50
277.64
 51
280.34
  0
ARC
  8
3
  6
CONTINUOUS
 62
     1
  5
702
 10
5001.106523
 20
7122.572661
 30
0.0
 40
8.0
 50
280.28
 51
284.01
  0
ARC
  8
3
  6
CONTINUOUS
 62
     1
  5
703
 10
5002.106523
 20
7118.572661
 30
0.0
 40
4.0
 50
283.88
 51
289.52
  0
LINE
  8
3
  6
CONTINUOUS
 62
     1
  5
704
 10
5005.606523
 20
7117.822661
 30
0.0
 11
5005.356523
 21
7117.822661
 31
0.0
  0
LINE
  8
3
  6
CONTINUOUS
 62
     1
  5
705
 10
5005.606523
 20
7117.822661
 30
0.0
 11
5005.606523
 21
7115.572661
 31
0.0
  0
LINE
  8
3
  6
CONTINUOUS
 62
     1
  5
706
 10
5005.606523
 20
7115.572661
 30
0.0
 11
5005.606523
 21
7113.322661
 31
0.0
  0
LINE
  8
3
  6
CONTINUOUS
 62
     1
  5
707
 10
5005.606523
 20
7113.322661
 30
0.0
 11
5005.606523
 21
7111.322661
 31
0.0
  0
LINE
  8
3
  6
CONTINUOUS
 62
     1
  5
708
 10
5005.606523
 20
7111.322661
 30
0.0
 11
5005.606523
 21
7109.072661
 31
0.0
  0
ARC
  8
3
  6
CONTINUOUS
 62
     1
  5
709
 10
4992.856523
 20
7108.322661
 30
0.0
 40
2.0
 50
141.68
 51
146.57
  0
ARC
  8
3
  6
CONTINUOUS
 62
     1
  5
70A
 10
4968.356523
 20
7127.572661
 30
0.0
 40
28.75
 50
321.8
 51
322.19
  0
ARC
  8
3
  6
CONTINUOUS
 62
     1
  5
70B
 10
4989.606523
 20
7111.072661
 30
0.0
 40
1.75
 50
322.07
 51
327.75
  0
ARC
  8
3
  6
CONTINUOUS
 62
     1
  5
70C
 10
4993.606523
 20
7108.572661
 30
0.0
 40
2.75
 50
139.0
 51
147.58
  0
ARC
  8
3
  6
CONTINUOUS
 62
     1
  5
70D
 10
4997.106523
 20
7105.572661
 30
0.0
 40
7.25
 50
135.57
 51
139.27
  0
ARC
  8
3
  6
CONTINUOUS
 62
     1
  5
70E
 10
5018.606523
 20
7084.572661
 30
0.0
 40
37.25
 50
134.88
 51
135.66
  0
ARC
  8
3
  6
CONTINUOUS
 62
     1
  5
70F
 10
4998.106523
 20
7105.072661
 30
0.0
 40
8.5
 50
132.25
 51
135.02
  0
ARC
  8
3
  6
CONTINUOUS
 62
     1
  5
710
 10
4999.856523
 20
7103.322661
 30
0.0
 40
10.75
 50
129.97
 51
132.27
  0
ARC
  8
3
  6
CONTINUOUS
 62
     1
  5
711
 10
5000.856523
 20
7101.822661
 30
0.0
 40
12.5
 50
127.95
 51
129.98
  0
ARC
  8
3
  6
CONTINUOUS
 62
     1
  5
712
 10
4998.606523
 20
7104.822661
 30
0.0
 40
8.75
 50
126.46
 51
127.95
  0
ARC
  8
3
  6
CONTINUOUS
 62
     1
  5
713
 10
4999.356523
 20
7103.822661
 30
0.0
 40
10.25
 50
125.16
 51
126.46
  0
ARC
  8
3
  6
CONTINUOUS
 62
     1
  5
714
 10
5000.356523
 20
7102.572661
 30
0.0
 40
11.5
 50
124.02
 51
125.16
  0
ARC
  8
3
  6
CONTINUOUS
 62
     1
  5
715
 10
4999.856523
 20
7103.322661
 30
0.0
 40
10.75
 50
122.41
 51
124.02
  0
ARC
  8
3
  6
CONTINUOUS
 62
     1
  5
716
 10
4999.856523
 20
7103.322661
 30
0.0
 40
10.75
 50
120.82
 51
122.41
  0
ARC
  8
3
  6
CONTINUOUS
 62
     1
  5
717
 10
4999.606523
 20
7103.572661
 30
0.0
 40
10.25
 50
119.2
 51
120.83
  0
ARC
  8
3
  6
CONTINUOUS
 62
     1
  5
718
 10
5000.106523
 20
7102.572661
 30
0.0
 40
11.5
 50
117.82
 51
119.2
  0
ARC
  8
3
  6
CONTINUOUS
 62
     1
  5
719
 10
4999.856523
 20
7103.072661
 30
0.0
 40
10.75
 50
116.39
 51
117.83
  0
ARC
  8
3
  6
CONTINUOUS
 62
     1
  5
71A
 10
4999.356523
 20
7104.072661
 30
0.0
 40
9.75
 50
114.85
 51
116.39
  0
ARC
  8
3
  6
CONTINUOUS
 62
     1
  5
71B
 10
5000.606523
 20
7101.822661
 30
0.0
 40
12.5
 50
111.95
 51
114.87
  0
ARC
  8
3
  6
CONTINUOUS
 62
     1
  5
71C
 10
4999.856523
 20
7103.572661
 30
0.0
 40
10.5
 50
108.78
 51
111.97
  0
ARC
  8
3
  6
CONTINUOUS
 62
     1
  5
71D
 10
4971.356523
 20
7141.572661
 30
0.0
 40
26.25
 50
321.05
 51
324.95
  0
ARC
  8
3
  6
CONTINUOUS
 62
     1
  5
71E
 10
4970.606523
 20
7142.072661
 30
0.0
 40
27.25
 50
317.29
 51
321.05
  0
ARC
  8
3
  6
CONTINUOUS
 62
     1
  5
71F
 10
4969.856523
 20
7142.572661
 30
0.0
 40
27.75
 50
313.63
 51
317.29
  0
LINE
  8
3
  6
CONTINUOUS
 62
     1
  5
720
 10
4918.606523
 20
7160.072661
 30
0.0
 11
4918.606523
 21
7111.572661
 31
0.0
  0
LINE
  8
3
  6
CONTINUOUS
 62
     1
  5
721
 10
4938.356523
 20
7113.322661
 30
0.0
 11
4938.356523
 21
7164.322661
 31
0.0
  0
LINE
  8
3
  6
CONTINUOUS
 62
     1
  5
722
 10
4868.606523
 20
7160.072661
 30
0.0
 11
4918.606523
 21
7160.072661
 31
0.0
  0
LINE
  8
3
  6
CONTINUOUS
 62
     1
  5
723
 10
4923.356523
 20
7164.322661
 30
0.0
 11
4898.356523
 21
7164.322661
 31
0.0
  0
LINE
  8
3
  6
CONTINUOUS
 62
     1
  5
724
 10
4898.356523
 20
7164.322661
 30
0.0
 11
4880.356523
 21
7164.322661
 31
0.0
  0
LINE
  8
3
  6
CONTINUOUS
 62
     1
  5
725
 10
4938.356523
 20
7164.322661
 30
0.0
 11
4923.356523
 21
7164.322661
 31
0.0
  0
LINE
  8
3
  6
CONTINUOUS
 62
     1
  5
726
 10
4905.106523
 20
7164.322661
 30
0.0
 11
4903.606523
 21
7164.322661
 31
0.0
  0
ARC
  8
3
  6
CONTINUOUS
 62
     1
  5
727
 10
4868.606523
 20
7165.072661
 30
0.0
 40
4.75
 50
179.99
 51
270.0
  0
LINE
  8
3
  6
CONTINUOUS
 62
     1
  5
728
 10
4952.106523
 20
7112.572661
 30
0.0
 11
4943.606523
 21
7112.072661
 31
0.0
  0
ARC
  8
3
  6
CONTINUOUS
 62
     1
  5
729
 10
4966.856523
 20
7147.072661
 30
0.0
 40
33.25
 50
290.05
 51
293.3
  0
ARC
  8
3
  6
CONTINUOUS
 62
     1
  5
72A
 10
4968.606523
 20
7144.072661
 30
0.0
 40
30.0
 50
306.55
 51
310.03
  0
ARC
  8
3
  6
CONTINUOUS
 62
     1
  5
72B
 10
4968.106523
 20
7144.822661
 30
0.0
 40
30.75
 50
303.17
 51
306.55
  0
ARC
  8
3
  6
CONTINUOUS
 62
     1
  5
72C
 10
4967.606523
 20
7145.322661
 30
0.0
 40
31.5
 50
299.8
 51
303.17
  0
ARC
  8
3
  6
CONTINUOUS
 62
     1
  5
72D
 10
4967.356523
 20
7146.072661
 30
0.0
 40
32.25
 50
296.52
 51
299.8
  0
ARC
  8
3
  6
CONTINUOUS
 62
     1
  5
72E
 10
4967.106523
 20
7146.572661
 30
0.0
 40
32.75
 50
293.3
 51
296.52
  0
ARC
  8
3
  6
CONTINUOUS
 62
     1
  5
72F
 10
4966.606523
 20
7147.322661
 30
0.0
 40
33.75
 50
286.84
 51
290.05
  0
LINE
  8
3
  6
CONTINUOUS
 62
     1
  5
730
 10
4969.106523
 20
7113.572661
 30
0.0
 11
4960.356523
 21
7113.072661
 31
0.0
  0
ARC
  8
3
  6
CONTINUOUS
 62
     1
  5
731
 10
4966.606523
 20
7147.572661
 30
0.0
 40
33.75
 50
283.65
 51
286.84
  0
ARC
  8
3
  6
CONTINUOUS
 62
     1
  5
732
 10
4966.606523
 20
7147.572661
 30
0.0
 40
33.75
 50
280.38
 51
283.65
  0
ARC
  8
3
  6
CONTINUOUS
 62
     1
  5
733
 10
4966.856523
 20
7147.322661
 30
0.0
 40
33.75
 50
277.1
 51
280.38
  0
ARC
  8
3
  6
CONTINUOUS
 62
     1
  5
734
 10
4966.856523
 20
7146.822661
 30
0.0
 40
33.0
 50
273.78
 51
277.1
  0
LINE
  8
3
  6
CONTINUOUS
 62
     1
  5
735
 10
4960.356523
 20
7113.072661
 30
0.0
 11
4952.106523
 21
7112.572661
 31
0.0
  0
ARC
  8
3
  6
CONTINUOUS
 62
     1
  5
736
 10
4942.106523
 20
7110.572661
 30
0.0
 40
0.75
 50
144.15
 51
163.79
  0
ARC
  8
3
  6
CONTINUOUS
 62
     1
  5
737
 10
4895.356523
 20
7123.822661
 30
0.0
 40
47.75
 50
342.55
 51
344.31
  0
ARC
  8
3
  6
CONTINUOUS
 62
     1
  5
738
 10
4944.106523
 20
7105.572661
 30
0.0
 40
6.25
 50
93.78
 51
99.24
  0
ARC
  8
3
  6
CONTINUOUS
 62
     1
  5
739
 10
4943.856523
 20
7107.072661
 30
0.0
 40
4.75
 50
99.14
 51
105.6
  0
ARC
  8
3
  6
CONTINUOUS
 62
     1
  5
73A
 10
4943.356523
 20
7108.822661
 30
0.0
 40
2.75
 50
105.38
 51
114.6
  0
ARC
  8
3
  6
CONTINUOUS
 62
     1
  5
73B
 10
4942.856523
 20
7109.822661
 30
0.0
 40
1.75
 50
114.72
 51
127.93
  0
ARC
  8
3
  6
CONTINUOUS
 62
     1
  5
73C
 10
4942.356523
 20
7110.322661
 30
0.0
 40
1.0
 50
127.88
 51
144.15
  0
ARC
  8
3
  6
CONTINUOUS
 62
     1
  5
73D
 10
4942.856523
 20
7115.322661
 30
0.0
 40
4.75
 50
203.9
 51
210.07
  0
ARC
  8
3
  6
CONTINUOUS
 62
     1
  5
73E
 10
4942.606523
 20
7115.072661
 30
0.0
 40
4.5
 50
210.06
 51
216.51
  0
ARC
  8
3
  6
CONTINUOUS
 62
     1
  5
73F
 10
4942.356523
 20
7115.072661
 30
0.0
 40
4.25
 50
216.55
 51
223.07
  0
ARC
  8
3
  6
CONTINUOUS
 62
     1
  5
740
 10
4942.356523
 20
7115.072661
 30
0.0
 40
4.25
 50
223.05
 51
229.75
  0
ARC
  8
3
  6
CONTINUOUS
 62
     1
  5
741
 10
4942.106523
 20
7114.822661
 30
0.0
 40
4.0
 50
229.74
 51
236.85
  0
ARC
  8
3
  6
CONTINUOUS
 62
     1
  5
742
 10
4942.106523
 20
7114.572661
 30
0.0
 40
3.75
 50
236.91
 51
244.2
  0
ARC
  8
3
  6
CONTINUOUS
 62
     1
  5
743
 10
4942.106523
 20
7114.572661
 30
0.0
 40
3.75
 50
244.18
 51
251.61
  0
ARC
  8
3
  6
CONTINUOUS
 62
     1
  5
744
 10
4941.856523
 20
7114.322661
 30
0.0
 40
3.5
 50
251.59
 51
259.45
  0
LINE
  8
3
  6
CONTINUOUS
 62
     1
  5
745
 10
4998.606523
 20
7097.822661
 30
0.0
 11
4857.106523
 21
7097.822661
 31
0.0
  0
ARC
  8
3
  6
CONTINUOUS
 62
     1
  5
746
 10
5017.856523
 20
7106.572661
 30
0.0
 40
29.25
 50
187.22
 51
188.97
  0
ARC
  8
3
  6
CONTINUOUS
 62
     1
  5
747
 10
4997.356523
 20
7103.322661
 30
0.0
 40
8.25
 50
173.27
 51
176.29
  0
LINE
  8
3
  6
CONTINUOUS
 62
     1
  5
748
 10
5005.606523
 20
7106.822661
 30
0.0
 11
5005.606523
 21
7104.822661
 31
0.0
  0
ARC
  8
3
  6
CONTINUOUS
 62
     1
  5
749
 10
4998.606523
 20
7104.822661
 30
0.0
 40
7.0
 50
270.0
 51
0.04
  0
ARC
  8
3
  6
CONTINUOUS
 62
     1
  5
74A
 10
5001.856523
 20
7104.822661
 30
0.0
 40
13.0
 50
201.84
 51
204.59
  0
ARC
  8
3
  6
CONTINUOUS
 62
     1
  5
74B
 10
5006.606523
 20
7106.572661
 30
0.0
 40
18.0
 50
199.65
 51
201.85
  0
ARC
  8
3
  6
CONTINUOUS
 62
     1
  5
74C
 10
4992.106523
 20
7101.572661
 30
0.0
 40
2.75
 50
198.24
 51
199.68
  0
ARC
  8
3
  6
CONTINUOUS
 62
     1
  5
74D
 10
4992.606523
 20
7101.572661
 30
0.0
 40
3.25
 50
197.0
 51
198.25
  0
ARC
  8
3
  6
CONTINUOUS
 62
     1
  5
74E
 10
4993.356523
 20
7101.822661
 30
0.0
 40
4.25
 50
195.92
 51
197.0
  0
ARC
  8
3
  6
CONTINUOUS
 62
     1
  5
74F
 10
4996.356523
 20
7102.822661
 30
0.0
 40
7.25
 50
191.43
 51
195.62
  0
ARC
  8
3
  6
CONTINUOUS
 62
     1
  5
750
 10
5004.606523
 20
7104.322661
 30
0.0
 40
15.5
 50
188.93
 51
191.53
  0
ARC
  8
3
  6
CONTINUOUS
 62
     1
  5
751
 10
5001.356523
 20
7102.822661
 30
0.0
 40
12.25
 50
170.99
 51
173.29
  0
ARC
  8
3
  6
CONTINUOUS
 62
     1
  5
752
 10
5006.856523
 20
7101.822661
 30
0.0
 40
18.0
 50
169.24
 51
171.0
  0
ARC
  8
3
  6
CONTINUOUS
 62
     1
  5
753
 10
4997.856523
 20
7103.572661
 30
0.0
 40
8.75
 50
165.99
 51
169.21
  0
ARC
  8
3
  6
CONTINUOUS
 62
     1
  5
754
 10
5000.856523
 20
7103.072661
 30
0.0
 40
11.75
 50
163.33
 51
166.0
  0
ARC
  8
3
  6
CONTINUOUS
 62
     1
  5
755
 10
5004.356523
 20
7101.822661
 30
0.0
 40
15.5
 50
161.13
 51
163.34
  0
ARC
  8
3
  6
CONTINUOUS
 62
     1
  5
756
 10
4997.356523
 20
7104.322661
 30
0.0
 40
8.25
 50
155.26
 51
160.98
  0
ARC
  8
3
  6
CONTINUOUS
 62
     1
  5
757
 10
5001.106523
 20
7102.572661
 30
0.0
 40
12.0
 50
150.74
 51
155.3
  0
ARC
  8
3
  6
CONTINUOUS
 62
     1
  5
758
 10
4992.356523
 20
7103.322661
 30
0.0
 40
3.5
 50
184.43
 51
185.95
  0
ARC
  8
3
  6
CONTINUOUS
 62
     1
  5
759
 10
4990.356523
 20
7103.322661
 30
0.0
 40
1.25
 50
174.67
 51
183.66
  0
LINE
  8
3
  6
CONTINUOUS
 62
     1
  5
75A
 10
4988.856523
 20
7102.822661
 30
0.0
 11
4988.856523
 21
7103.072661
 31
0.0
  0
ARC
  8
3
  6
CONTINUOUS
 62
     1
  5
75B
 10
4994.356523
 20
7103.572661
 30
0.0
 40
5.25
 50
185.95
 51
186.94
  0
ARC
  8
3
  6
CONTINUOUS
 62
     1
  5
75C
 10
4995.356523
 20
7102.822661
 30
0.0
 40
6.25
 50
172.7
 51
174.82
  0
ARC
  8
3
  6
CONTINUOUS
 62
     1
  5
75D
 10
4984.356523
 20
7104.072661
 30
0.0
 40
4.5
 50
352.8
 51
356.03
  0
LINE
  8
3
  6
CONTINUOUS
 62
     1
  5
75E
 10
4915.606523
 20
7108.572661
 30
0.0
 11
4849.106523
 21
7108.572661
 31
0.0
  0
ARC
  8
3
  6
CONTINUOUS
 62
     1
  5
75F
 10
4925.606523
 20
7111.572661
 30
0.0
 40
14.75
 50
327.24
 51
330.17
  0
ARC
  8
3
  6
CONTINUOUS
 62
     1
  5
760
 10
4909.606523
 20
7119.072661
 30
0.0
 40
32.5
 50
338.41
 51
340.6
  0
ARC
  8
3
  6
CONTINUOUS
 62
     1
  5
761
 10
4914.856523
 20
7116.822661
 30
0.0
 40
26.75
 50
335.98
 51
338.42
  0
ARC
  8
3
  6
CONTINUOUS
 62
     1
  5
762
 10
4919.356523
 20
7114.822661
 30
0.0
 40
22.0
 50
333.25
 51
335.99
  0
ARC
  8
3
  6
CONTINUOUS
 62
     1
  5
763
 10
4923.106523
 20
7113.072661
 30
0.0
 40
18.0
 50
330.18
 51
333.26
  0
ARC
  8
3
  6
CONTINUOUS
 62
     1
  5
764
 10
4927.606523
 20
7110.322661
 30
0.0
 40
12.5
 50
323.98
 51
327.24
  0
ARC
  8
3
  6
CONTINUOUS
 62
     1
  5
765
 10
4929.356523
 20
7109.072661
 30
0.0
 40
10.5
 50
320.38
 51
323.98
  0
ARC
  8
3
  6
CONTINUOUS
 62
     1
  5
766
 10
4936.356523
 20
7103.322661
 30
0.0
 40
1.25
 50
306.99
 51
319.77
  0
ARC
  8
3
  6
CONTINUOUS
 62
     1
  5
767
 10
4935.856523
 20
7104.072661
 30
0.0
 40
2.25
 50
298.09
 51
307.1
  0
ARC
  8
3
  6
CONTINUOUS
 62
     1
  5
768
 10
4935.106523
 20
7105.572661
 30
0.0
 40
3.75
 50
291.77
 51
298.19
  0
ARC
  8
3
  6
CONTINUOUS
 62
     1
  5
769
 10
4934.106523
 20
7107.572661
 30
0.0
 40
6.25
 50
287.18
 51
291.82
  0
ARC
  8
3
  6
CONTINUOUS
 62
     1
  5
76A
 10
4933.106523
 20
7111.072661
 30
0.0
 40
9.75
 50
283.79
 51
287.23
  0
ARC
  8
3
  6
CONTINUOUS
 62
     1
  5
76B
 10
4931.856523
 20
7115.572661
 30
0.0
 40
14.25
 50
281.16
 51
283.81
  0
ARC
  8
3
  6
CONTINUOUS
 62
     1
  5
76C
 10
4930.856523
 20
7121.572661
 30
0.0
 40
20.5
 50
279.12
 51
281.18
  0
ARC
  8
3
  6
CONTINUOUS
 62
     1
  5
76D
 10
4929.606523
 20
7129.322661
 30
0.0
 40
28.5
 50
277.5
 51
279.13
  0
ARC
  8
3
  6
CONTINUOUS
 62
     1
  5
76E
 10
4928.106523
 20
7138.822661
 30
0.0
 40
38.0
 50
276.18
 51
277.5
  0
ARC
  8
3
  6
CONTINUOUS
 62
     1
  5
76F
 10
4926.856523
 20
7151.072661
 30
0.0
 40
50.25
 50
275.1
 51
276.18
  0
ARC
  8
3
  6
CONTINUOUS
 62
     1
  5
770
 10
4925.606523
 20
7166.072661
 30
0.0
 40
65.5
 50
274.22
 51
275.11
  0
ARC
  8
3
  6
CONTINUOUS
 62
     1
  5
771
 10
4924.356523
 20
7183.822661
 30
0.0
 40
83.0
 50
273.47
 51
274.22
  0
ARC
  8
3
  6
CONTINUOUS
 62
     1
  5
772
 10
4912.856523
 20
7367.822661
 30
0.0
 40
268.0
 50
273.28
 51
273.49
  0
ARC
  8
3
  6
CONTINUOUS
 62
     1
  5
773
 10
4914.856523
 20
7337.072661
 30
0.0
 40
237.0
 50
273.04
 51
273.28
  0
ARC
  8
3
  6
CONTINUOUS
 62
     1
  5
774
 10
4915.856523
 20
7315.072661
 30
0.0
 40
215.0
 50
272.78
 51
273.04
  0
ARC
  8
3
  6
CONTINUOUS
 62
     1
  5
775
 10
4857.106523
 20
7104.822661
 30
0.0
 40
7.0
 50
180.0
 51
270.0
  0
LINE
  8
3
  6
CONTINUOUS
 62
     1
  5
776
 10
4850.106523
 20
7104.822661
 30
0.0
 11
4850.106523
 21
7108.572661
 31
0.0
  0
LINE
  8
3
  6
CONTINUOUS
 62
     1
  5
777
 10
5105.28834
 20
7404.780264
 30
0.0
 11
5147.995136
 21
7404.780264
 31
0.0
  0
LINE
  8
3
  6
CONTINUOUS
 62
     1
  5
778
 10
5105.28834
 20
7399.780264
 30
0.0
 11
5147.995136
 21
7399.780264
 31
0.0
  0
LINE
  8
3
  6
CONTINUOUS
 62
     1
  5
779
 10
5144.950904
 20
7440.621338
 30
0.0
 11
5150.308092
 21
7440.621338
 31
0.0
  0
LINE
  8
3
  6
CONTINUOUS
 62
     1
  5
77A
 10
5144.950904
 20
7440.621338
 30
0.0
 11
5144.950904
 21
7368.621338
 31
0.0
  0
LINE
  8
3
  6
CONTINUOUS
 62
     1
  5
77B
 10
5144.950904
 20
7368.621338
 30
0.0
 11
5150.308092
 21
7368.621338
 31
0.0
  0
LINE
  8
3
  6
CONTINUOUS
 62
     1
  5
77C
 10
5133.554232
 20
7191.871338
 30
0.0
 11
5147.554232
 21
7177.621338
 31
0.0
  0
LINE
  8
3
  6
CONTINUOUS
 62
     1
  5
77D
 10
5147.554232
 20
7191.871338
 30
0.0
 11
5133.554232
 21
7177.621338
 31
0.0
  0
LINE
  8
3
  6
CONTINUOUS
 62
     1
  5
77E
 10
5147.554232
 20
7191.871338
 30
0.0
 11
5133.554232
 21
7177.621338
 31
0.0
  0
LINE
  8
3
  6
CONTINUOUS
 62
     1
  5
77F
 10
5133.554232
 20
7191.871338
 30
0.0
 11
5147.554232
 21
7177.621338
 31
0.0
  0
ARC
  8
0
  6
CONTINUOUS
 62
     1
  5
780
 10
5077.308094
 20
1913.462301
 30
0.0
 40
30.0
 50
296.07
 51
0.51
  0
LINE
  8
0
  6
CONTINUOUS
 62
     1
  5
781
 10
5143.308094
 20
1613.962301
 30
0.0
 11
5157.308094
 21
1627.962301
 31
0.0
  0
LINE
  8
0
  6
CONTINUOUS
 62
     1
  5
782
 10
5157.308094
 20
1613.962301
 30
0.0
 11
5143.308094
 21
1627.962301
 31
0.0
  0
ARC
  8
0
  6
CONTINUOUS
 62
     1
  5
783
 10
4735.058094
 20
1609.212301
 30
0.0
 40
200.0
 50
159.84
 51
176.58
  0
LINE
  8
0
  6
CONTINUOUS
 62
     1
  5
784
 10
5068.308094
 20
1692.462301
 30
0.0
 11
5070.808094
 21
1620.962301
 31
0.0
  0
LINE
  8
0
  6
CONTINUOUS
 62
     1
  5
785
 10
4862.808094
 20
1613.962301
 30
0.0
 11
4848.808094
 21
1627.962301
 31
0.0
  0
LINE
  8
0
  6
CONTINUOUS
 62
     1
  5
786
 10
4848.808094
 20
1613.962301
 30
0.0
 11
4862.808094
 21
1627.962301
 31
0.0
  0
LINE
  8
0
  6
CONTINUOUS
 62
     1
  5
787
 10
4860.058094
 20
1899.712301
 30
0.0
 11
4845.308094
 21
1879.712301
 31
0.0
  0
LINE
  8
0
  6
CONTINUOUS
 62
     1
  5
788
 10
4845.308094
 20
1879.712301
 30
0.0
 11
4830.058094
 21
1859.962301
 31
0.0
  0
LINE
  8
0
  6
CONTINUOUS
 62
     1
  5
789
 10
4830.058094
 20
1859.962301
 30
0.0
 11
4814.058094
 21
1840.462301
 31
0.0
  0
LINE
  8
0
  6
CONTINUOUS
 62
     1
  5
78A
 10
4814.058094
 20
1840.462301
 30
0.0
 11
4799.308094
 21
1823.462301
 31
0.0
  0
ARC
  8
0
  6
CONTINUOUS
 62
     1
  5
78B
 10
4660.308094
 20
1989.962301
 30
0.0
 40
200.0
 50
182.72
 51
209.44
  0
LINE
  8
0
  6
CONTINUOUS
 62
     1
  5
78C
 10
5110.308094
 20
1950.962301
 30
0.0
 11
5107.308094
 21
1913.712301
 31
0.0
  0
ARC
  8
0
  6
CONTINUOUS
 62
     1
  5
78D
 10
4581.808094
 20
1945.712301
 30
0.0
 40
110.0
 50
209.44
 51
242.67
  0
ARC
  8
0
  6
CONTINUOUS
 62
     1
  5
78E
 10
4770.308094
 20
1775.962301
 30
0.0
 40
16.75
 50
115.15
 51
180.0
  0
ARC
  8
0
  6
CONTINUOUS
 62
     1
  5
78F
 10
4550.058094
 20
1795.462301
 30
0.0
 40
40.0
 50
337.75
 51
67.99
  0
LINE
  8
0
  6
CONTINUOUS
 62
     1
  5
790
 10
4893.558094
 20
1775.712301
 30
0.0
 11
4948.808094
 21
1854.712301
 31
0.0
  0
LINE
  8
0
  6
CONTINUOUS
 62
     1
  5
791
 10
4992.308094
 20
1845.462301
 30
0.0
 11
4982.558094
 21
1739.462301
 31
0.0
  0
LINE
  8
0
  6
CONTINUOUS
 62
     1
  5
792
 10
4992.308094
 20
1845.462301
 30
0.0
 11
4982.558094
 21
1739.462301
 31
0.0
  0
LINE
  8
0
  6
CONTINUOUS
 62
     1
  5
793
 10
5087.808094
 20
1748.962301
 30
0.0
 11
5069.058094
 21
1860.212301
 31
0.0
  0
ARC
  8
0
  6
CONTINUOUS
 62
     1
  5
794
 10
4827.808094
 20
1873.962301
 30
0.0
 40
128.0
 50
255.86
 51
270.0
  0
ARC
  8
0
  6
CONTINUOUS
 62
     1
  5
795
 10
4906.058094
 20
1413.212301
 30
0.0
 40
301.0
 50
103.51
 51
110.43
  0
LINE
  8
0
  6
CONTINUOUS
 62
     1
  5
796
 10
4783.558094
 20
1645.962301
 30
0.0
 11
5008.558094
 21
1645.962301
 31
0.0
  0
ARC
  8
0
  6
CONTINUOUS
 62
     1
  5
797
 10
4906.058094
 20
1413.212301
 30
0.0
 40
301.0
 50
98.69
 51
103.51
  0
ARC
  8
0
  6
CONTINUOUS
 62
     1
  5
798
 10
5038.308094
 20
1691.462301
 30
0.0
 40
30.0
 50
1.91
 51
46.14
  0
ARC
  8
0
  6
CONTINUOUS
 62
     1
  5
799
 10
4958.308094
 20
1724.462301
 30
0.0
 40
100.0
 50
315.62
 51
0.75
  0
ARC
  8
0
  6
CONTINUOUS
 62
     1
  5
79A
 10
4955.808094
 20
1655.962301
 30
0.0
 40
7.0
 50
39.13
 51
140.88
  0
LINE
  8
0
  6
CONTINUOUS
 62
     1
  5
79B
 10
4938.558094
 20
1645.962301
 30
0.0
 11
5008.558094
 21
1645.962301
 31
0.0
  0
ARC
  8
0
  6
CONTINUOUS
 62
     1
  5
79C
 10
4941.808094
 20
1644.462301
 30
0.0
 40
25.0
 50
3.12
 51
39.13
  0
ARC
  8
0
  6
CONTINUOUS
 62
     1
  5
79D
 10
5008.558094
 20
1675.962301
 30
0.0
 40
30.0
 50
270.0
 51
317.09
  0
ARC
  8
0
  6
CONTINUOUS
 62
     1
  5
79E
 10
4899.058094
 20
1643.212301
 30
0.0
 40
60.0
 50
155.37
 51
175.69
  0
ARC
  8
0
  6
CONTINUOUS
 62
     1
  5
79F
 10
4811.808094
 20
1643.212301
 30
0.0
 40
60.0
 50
4.32
 51
24.64
  0
ARC
  8
0
  6
CONTINUOUS
 62
     1
  5
7A0
 10
4969.808094
 20
1644.462301
 30
0.0
 40
25.0
 50
140.88
 51
176.89
  0
ARC
  8
0
  6
CONTINUOUS
 62
     1
  5
7A1
 10
4855.558094
 20
1663.462301
 30
0.0
 40
12.0
 50
24.64
 51
155.37
  0
LINE
  8
0
  6
CONTINUOUS
 62
     1
  5
7A2
 10
4906.058094
 20
1713.962301
 30
0.0
 11
4980.308094
 21
1713.962301
 31
0.0
  0
ARC
  8
0
  6
CONTINUOUS
 62
     1
  5
7A3
 10
5077.808094
 20
1747.212301
 30
0.0
 40
10.0
 50
279.17
 51
9.51
  0
LINE
  8
0
  6
CONTINUOUS
 62
     1
  5
7A4
 10
5059.808094
 20
1733.962301
 30
0.0
 11
4982.308094
 21
1733.962301
 31
0.0
  0
LINE
  8
0
  6
CONTINUOUS
 62
     1
  5
7A5
 10
5058.308094
 20
1731.462301
 30
0.0
 11
5058.308094
 21
1715.212301
 31
0.0
  0
ARC
  8
0
  6
CONTINUOUS
 62
     1
  5
7A6
 10
5061.308094
 20
1715.212301
 30
0.0
 40
3.0
 50
180.0
 51
226.14
  0
LINE
  8
0
  6
CONTINUOUS
 62
     1
  5
7A7
 10
5079.558094
 20
1737.462301
 30
0.0
 11
5060.808094
 21
1734.462301
 31
0.0
  0
ARC
  8
0
  6
CONTINUOUS
 62
     1
  5
7A8
 10
5061.308094
 20
1731.462301
 30
0.0
 40
3.0
 50
99.17
 51
180.0
  0
LINE
  8
0
  6
CONTINUOUS
 62
     1
  5
7A9
 10
4982.308094
 20
1732.212301
 30
0.0
 11
4982.308094
 21
1716.962301
 31
0.0
  0
ARC
  8
0
  6
CONTINUOUS
 62
     1
  5
7AA
 10
4979.308094
 20
1716.962301
 30
0.0
 40
3.0
 50
270.0
 51
0.0
  0
ARC
  8
0
  6
CONTINUOUS
 62
     1
  5
7AB
 10
5060.308094
 20
1732.212301
 30
0.0
 40
78.0
 50
174.78
 51
180.0
  0
ARC
  8
0
  6
CONTINUOUS
 62
     1
  5
7AC
 10
5124.558094
 20
1750.962301
 30
0.0
 40
141.0
 50
179.99
 51
180.0
  0
ARC
  8
0
  6
CONTINUOUS
 62
     1
  5
7AD
 10
4836.308094
 20
1815.962301
 30
0.0
 40
70.0
 50
270.0
 51
289.45
  0
ARC
  8
0
  6
CONTINUOUS
 62
     1
  5
7AE
 10
4906.058094
 20
1413.212301
 30
0.0
 40
301.0
 50
90.0
 51
98.69
  0
ARC
  8
0
  6
CONTINUOUS
 62
     1
  5
7AF
 10
4836.308094
 20
1815.962301
 30
0.0
 40
70.0
 50
289.45
 51
325.1
  0
LINE
  8
0
  6
CONTINUOUS
 62
     1
  5
7B0
 10
4835.308094
 20
1745.962301
 30
0.0
 11
4827.808094
 21
1745.962301
 31
0.0
  0
LINE
  8
0
  6
CONTINUOUS
 62
     1
  5
7B1
 10
4547.308094
 20
1677.962301
 30
0.0
 11
4556.058094
 21
1701.212301
 31
0.0
  0
LINE
  8
0
  6
CONTINUOUS
 62
     1
  5
7B2
 10
4556.058094
 20
1701.212301
 30
0.0
 11
4565.058094
 21
1724.712301
 31
0.0
  0
LINE
  8
0
  6
CONTINUOUS
 62
     1
  5
7B3
 10
4565.058094
 20
1724.712301
 30
0.0
 11
4574.058094
 21
1747.962301
 31
0.0
  0
LINE
  8
0
  6
CONTINUOUS
 62
     1
  5
7B4
 10
4574.058094
 20
1747.962301
 30
0.0
 11
4583.308094
 21
1771.212301
 31
0.0
  0
LINE
  8
0
  6
CONTINUOUS
 62
     1
  5
7B5
 10
4583.308094
 20
1771.212301
 30
0.0
 11
4587.058094
 21
1780.212301
 31
0.0
  0
LINE
  8
0
  6
CONTINUOUS
 62
     1
  5
7B6
 10
4792.558094
 20
1747.712301
 30
0.0
 11
4795.808094
 21
1697.212301
 31
0.0
  0
LINE
  8
0
  6
CONTINUOUS
 62
     1
  5
7B7
 10
4753.558094
 20
1675.962301
 30
0.0
 11
4753.558094
 21
1775.962301
 31
0.0
  0
ARC
  8
0
  6
CONTINUOUS
 62
     1
  5
7B8
 10
4783.558094
 20
1675.962301
 30
0.0
 40
30.0
 50
180.0
 51
270.0
  0
ARC
  8
0
  6
CONTINUOUS
 62
     1
  5
7B9
 10
4798.808094
 20
1697.462301
 30
0.0
 40
3.0
 50
187.35
 51
290.63
  0
ARC
  8
0
  6
CONTINUOUS
 62
     1
  5
7BA
 10
4795.558094
 20
1746.712301
 30
0.0
 40
3.0
 50
79.1
 51
183.72
  0
ARC
  8
0
  6
CONTINUOUS
 62
     1
  5
7BB
 10
4964.308094
 20
1843.962301
 30
0.0
 40
19.0
 50
90.0
 51
145.1
  0
LINE
  8
0
  6
CONTINUOUS
 62
     1
  5
7BC
 10
4988.058094
 20
1852.462301
 30
0.0
 11
4965.058094
 21
1862.712301
 31
0.0
  0
ARC
  8
0
  6
CONTINUOUS
 62
     1
  5
7BD
 10
4985.308094
 20
1845.962301
 30
0.0
 40
85.0
 50
9.51
 51
16.47
  0
ARC
  8
0
  6
CONTINUOUS
 62
     1
  5
7BE
 10
4984.308094
 20
1845.462301
 30
0.0
 40
8.0
 50
354.78
 51
66.13
  0
ARC
  8
0
  6
CONTINUOUS
 62
     1
  5
7BF
 10
4985.308094
 20
1845.962301
 30
0.0
 40
77.0
 50
29.29
 51
66.13
  0
LINE
  8
0
  6
CONTINUOUS
 62
     1
  5
7C0
 10
5090.558094
 20
1886.462301
 30
0.0
 11
5069.558094
 21
1875.962301
 31
0.0
  0
ARC
  8
0
  6
CONTINUOUS
 62
     1
  5
7C1
 10
5067.308094
 20
1894.212301
 30
0.0
 40
18.0
 50
215.04
 51
275.88
  0
ARC
  8
0
  6
CONTINUOUS
 62
     1
  5
7C2
 10
5071.558094
 20
1871.462301
 30
0.0
 40
5.0
 50
116.07
 51
196.47
  0
ARC
  8
0
  6
CONTINUOUS
 62
     1
  5
7C3
 10
4964.308094
 20
1860.962301
 30
0.0
 40
2.0
 50
66.13
 51
90.0
  0
ARC
  8
0
  6
CONTINUOUS
 62
     1
  5
7C4
 10
4715.058094
 20
2203.212301
 30
0.0
 40
400.0
 50
247.99
 51
277.7
  0
ARC
  8
0
  6
CONTINUOUS
 62
     1
  5
7C5
 10
4761.808094
 20
1856.462301
 30
0.0
 40
50.0
 50
277.7
 51
318.71
  0
ARC
  8
0
  6
CONTINUOUS
 62
     1
  5
7C6
 10
4715.058094
 20
2203.212301
 30
0.0
 40
400.0
 50
242.67
 51
247.99
  0
LINE
  8
0
  6
CONTINUOUS
 62
     1
  5
7C7
 10
5031.308094
 20
2020.462301
 30
0.0
 11
5031.308094
 21
2007.962301
 31
0.0
  0
LINE
  8
0
  6
CONTINUOUS
 62
     1
  5
7C8
 10
5069.308094
 20
2020.462301
 30
0.0
 11
5069.308094
 21
2007.962301
 31
0.0
  0
LINE
  8
0
  6
CONTINUOUS
 62
     1
  5
7C9
 10
5110.308094
 20
1950.962301
 30
0.0
 11
5108.058094
 21
1981.462301
 31
0.0
  0
LINE
  8
0
  6
CONTINUOUS
 62
     1
  5
7CA
 10
5083.808094
 20
1995.712301
 30
0.0
 11
5083.808094
 21
2003.212301
 31
0.0
  0
LINE
  8
0
  6
CONTINUOUS
 62
     1
  5
7CB
 10
5089.808094
 20
1990.962301
 30
0.0
 11
5089.808094
 21
1995.712301
 31
0.0
  0
ARC
  8
0
  6
CONTINUOUS
 62
     1
  5
7CC
 10
5098.058094
 20
1980.962301
 30
0.0
 40
10.0
 50
4.29
 51
90.0
  0
LINE
  8
0
  6
CONTINUOUS
 62
     1
  5
7CD
 10
5079.308094
 20
2003.212301
 30
0.0
 11
5079.308094
 21
2007.962301
 31
0.0
  0
LINE
  8
0
  6
CONTINUOUS
 62
     1
  5
7CE
 10
5030.558094
 20
2032.462301
 30
0.0
 11
5050.308094
 21
2032.462301
 31
0.0
  0
LINE
  8
0
  6
CONTINUOUS
 62
     1
  5
7CF
 10
5030.558094
 20
2020.462301
 30
0.0
 11
5050.308094
 21
2020.462301
 31
0.0
  0
ARC
  8
0
  6
CONTINUOUS
 62
     1
  5
7D0
 10
5064.808094
 20
2026.462301
 30
0.0
 40
8.0
 50
311.42
 51
0.0
  0
ARC
  8
0
  6
CONTINUOUS
 62
     1
  5
7D1
 10
5064.808094
 20
2026.462301
 30
0.0
 40
8.0
 50
0.0
 51
48.59
  0
LINE
  8
0
  6
CONTINUOUS
 62
     1
  5
7D2
 10
5070.308094
 20
2032.462301
 30
0.0
 11
5050.308094
 21
2032.462301
 31
0.0
  0
LINE
  8
0
  6
CONTINUOUS
 62
     1
  5
7D3
 10
5070.308094
 20
2020.462301
 30
0.0
 11
5050.308094
 21
2020.462301
 31
0.0
  0
ARC
  8
0
  6
CONTINUOUS
 62
     1
  5
7D4
 10
5035.808094
 20
2026.462301
 30
0.0
 40
8.0
 50
180.0
 51
228.59
  0
ARC
  8
0
  6
CONTINUOUS
 62
     1
  5
7D5
 10
5035.808094
 20
2026.462301
 30
0.0
 40
8.0
 50
131.41
 51
180.0
  0
ARC
  8
0
  6
CONTINUOUS
 62
     1
  5
7D6
 10
4470.308094
 20
1980.962301
 30
0.0
 40
10.0
 50
90.09
 51
182.72
  0
LINE
  8
0
  6
CONTINUOUS
 62
     1
  5
7D7
 10
4572.808094
 20
2080.712301
 30
0.0
 11
4597.558094
 21
2084.962301
 31
0.0
  0
LINE
  8
0
  6
CONTINUOUS
 62
     1
  5
7D8
 10
4597.558094
 20
2084.962301
 30
0.0
 11
4622.308094
 21
2088.962301
 31
0.0
  0
LINE
  8
0
  6
CONTINUOUS
 62
     1
  5
7D9
 10
4622.308094
 20
2088.962301
 30
0.0
 11
4647.058094
 21
2092.712301
 31
0.0
  0
LINE
  8
0
  6
CONTINUOUS
 62
     1
  5
7DA
 10
4647.058094
 20
2092.712301
 30
0.0
 11
4671.558094
 21
2096.462301
 31
0.0
  0
LINE
  8
0
  6
CONTINUOUS
 62
     1
  5
7DB
 10
4671.558094
 20
2096.462301
 30
0.0
 11
4696.308094
 21
2099.962301
 31
0.0
  0
LINE
  8
0
  6
CONTINUOUS
 62
     1
  5
7DC
 10
4696.308094
 20
2099.962301
 30
0.0
 11
4721.308094
 21
2103.462301
 31
0.0
  0
LINE
  8
0
  6
CONTINUOUS
 62
     1
  5
7DD
 10
4721.308094
 20
2103.462301
 30
0.0
 11
4746.058094
 21
2106.712301
 31
0.0
  0
LINE
  8
0
  6
CONTINUOUS
 62
     1
  5
7DE
 10
4746.058094
 20
2106.712301
 30
0.0
 11
4770.808094
 21
2109.712301
 31
0.0
  0
LINE
  8
0
  6
CONTINUOUS
 62
     1
  5
7DF
 10
4770.808094
 20
2109.712301
 30
0.0
 11
4795.558094
 21
2112.712301
 31
0.0
  0
LINE
  8
0
  6
CONTINUOUS
 62
     1
  5
7E0
 10
4795.558094
 20
2112.712301
 30
0.0
 11
4820.558094
 21
2115.462301
 31
0.0
  0
LINE
  8
0
  6
CONTINUOUS
 62
     1
  5
7E1
 10
4820.558094
 20
2115.462301
 30
0.0
 11
4845.308094
 21
2118.212301
 31
0.0
  0
LINE
  8
0
  6
CONTINUOUS
 62
     1
  5
7E2
 10
4845.308094
 20
2118.212301
 30
0.0
 11
4865.308094
 21
2120.212301
 31
0.0
  0
LINE
  8
0
  6
CONTINUOUS
 62
     1
  5
7E3
 10
4641.558094
 20
2041.462301
 30
0.0
 11
4616.808094
 21
2039.962301
 31
0.0
  0
LINE
  8
0
  6
CONTINUOUS
 62
     1
  5
7E4
 10
4616.808094
 20
2039.962301
 30
0.0
 11
4591.808094
 21
2038.712301
 31
0.0
  0
LINE
  8
0
  6
CONTINUOUS
 62
     1
  5
7E5
 10
4591.808094
 20
2038.712301
 30
0.0
 11
4566.808094
 21
2037.712301
 31
0.0
  0
LINE
  8
0
  6
CONTINUOUS
 62
     1
  5
7E6
 10
4566.808094
 20
2037.712301
 30
0.0
 11
4541.808094
 21
2036.962301
 31
0.0
  0
LINE
  8
0
  6
CONTINUOUS
 62
     1
  5
7E7
 10
4541.808094
 20
2036.962301
 30
0.0
 11
4536.058094
 21
2036.962301
 31
0.0
  0
LINE
  8
0
  6
CONTINUOUS
 62
     1
  5
7E8
 10
4641.058094
 20
2035.962301
 30
0.0
 11
4616.308094
 21
2034.212301
 31
0.0
  0
LINE
  8
0
  6
CONTINUOUS
 62
     1
  5
7E9
 10
4616.308094
 20
2034.212301
 30
0.0
 11
4591.308094
 21
2032.712301
 31
0.0
  0
LINE
  8
0
  6
CONTINUOUS
 62
     1
  5
7EA
 10
4591.308094
 20
2032.712301
 30
0.0
 11
4566.308094
 21
2031.462301
 31
0.0
  0
LINE
  8
0
  6
CONTINUOUS
 62
     1
  5
7EB
 10
4566.308094
 20
2031.462301
 30
0.0
 11
4541.308094
 21
2030.712301
 31
0.0
  0
LINE
  8
0
  6
CONTINUOUS
 62
     1
  5
7EC
 10
4541.308094
 20
2030.712301
 30
0.0
 11
4518.308094
 21
2029.962301
 31
0.0
  0
LINE
  8
0
  6
CONTINUOUS
 62
     1
  5
7ED
 10
4641.558094
 20
2003.962301
 30
0.0
 11
4450.308094
 21
1999.712301
 31
0.0
  0
LINE
  8
0
  6
CONTINUOUS
 62
     1
  5
7EE
 10
5019.558094
 20
2018.462301
 30
0.0
 11
4640.558094
 21
2018.462301
 31
0.0
  0
LINE
  8
0
  6
CENTER
 62
     1
  5
7EF
 10
4869.558094
 20
1896.962301
 30
0.0
 11
5115.558094
 21
1896.962301
 31
0.0
  0
ARC
  8
0
  6
CONTINUOUS
 62
     1
  5
7F0
 10
4985.808094
 20
1932.712301
 30
0.0
 40
20.0
 50
268.52
 51
358.6
  0
ARC
  8
0
  6
CONTINUOUS
 62
     1
  5
7F1
 10
4633.808094
 20
1741.962301
 30
0.0
 40
500.0
 50
44.12
 51
49.65
  0
ARC
  8
0
  6
CONTINUOUS
 62
     1
  5
7F2
 10
4979.808094
 20
2071.462301
 30
0.0
 40
20.0
 50
16.25
 51
88.72
  0
ARC
  8
0
  6
CONTINUOUS
 62
     1
  5
7F3
 10
4797.308094
 20
2018.462301
 30
0.0
 40
210.0
 50
1.17
 51
17.64
  0
LINE
  8
0
  6
CONTINUOUS
 62
     1
  5
7F4
 10
5006.308094
 20
1953.462301
 30
0.0
 11
5007.558094
 21
2017.462301
 31
0.0
  0
LINE
  8
0
  6
CONTINUOUS
 62
     1
  5
7F5
 10
5021.058094
 20
1974.462301
 30
0.0
 11
5021.558094
 21
1992.462301
 31
0.0
  0
LINE
  8
0
  6
CONTINUOUS
 62
     1
  5
7F6
 10
5021.058094
 20
1974.462301
 30
0.0
 11
5008.058094
 21
1974.462301
 31
0.0
  0
LINE
  8
0
  6
CONTINUOUS
 62
     1
  5
7F7
 10
5006.308094
 20
1953.462301
 30
0.0
 11
5005.808094
 21
1932.462301
 31
0.0
  0
LINE
  8
0
  6
CONTINUOUS
 62
     1
  5
7F8
 10
5019.558094
 20
1988.462301
 30
0.0
 11
5007.058094
 21
1988.462301
 31
0.0
  0
LINE
  8
0
  6
CONTINUOUS
 62
     1
  5
7F9
 10
5024.558094
 20
1992.462301
 30
0.0
 11
5024.558094
 21
2020.962301
 31
0.0
  0
LINE
  8
0
  6
CONTINUOUS
 62
     1
  5
7FA
 10
5019.558094
 20
1992.462301
 30
0.0
 11
5024.558094
 21
1992.462301
 31
0.0
  0
LINE
  8
0
  6
CONTINUOUS
 62
     1
  5
7FB
 10
5024.558094
 20
2020.962301
 30
0.0
 11
5019.558094
 21
2020.962301
 31
0.0
  0
LINE
  8
0
  6
CONTINUOUS
 62
     1
  5
7FC
 10
5007.558094
 20
2018.462301
 30
0.0
 11
5007.308094
 21
2022.712301
 31
0.0
  0
ARC
  8
0
  6
CONTINUOUS
 62
     1
  5
7FD
 10
5009.558094
 20
2040.212301
 30
0.0
 40
10.0
 50
0.0
 51
45.56
  0
LINE
  8
0
  6
CONTINUOUS
 62
     1
  5
7FE
 10
5016.558094
 20
2047.462301
 30
0.0
 11
5004.308094
 21
2059.462301
 31
0.0
  0
ARC
  8
0
  6
CONTINUOUS
 62
     1
  5
7FF
 10
5007.808094
 20
2062.962301
 30
0.0
 40
5.0
 50
191.96
 51
225.56
  0
ARC
  8
0
  6
CONTINUOUS
 62
     1
  5
800
 10
4978.558094
 20
2075.962301
 30
0.0
 40
20.0
 50
17.64
 51
44.12
  0
LINE
  8
0
  6
CONTINUOUS
 62
     1
  5
801
 10
4712.058094
 20
2068.462301
 30
0.0
 11
4736.808094
 21
2071.712301
 31
0.0
  0
LINE
  8
0
  6
CONTINUOUS
 62
     1
  5
802
 10
4736.808094
 20
2071.712301
 30
0.0
 11
4761.558094
 21
2074.712301
 31
0.0
  0
LINE
  8
0
  6
CONTINUOUS
 62
     1
  5
803
 10
4761.558094
 20
2074.712301
 30
0.0
 11
4786.308094
 21
2077.712301
 31
0.0
  0
LINE
  8
0
  6
CONTINUOUS
 62
     1
  5
804
 10
4786.308094
 20
2077.712301
 30
0.0
 11
4811.308094
 21
2080.462301
 31
0.0
  0
LINE
  8
0
  6
CONTINUOUS
 62
     1
  5
805
 10
4811.308094
 20
2080.462301
 30
0.0
 11
4836.058094
 21
2083.212301
 31
0.0
  0
LINE
  8
0
  6
CONTINUOUS
 62
     1
  5
806
 10
4836.058094
 20
2083.212301
 30
0.0
 11
4861.058094
 21
2085.712301
 31
0.0
  0
LINE
  8
0
  6
CONTINUOUS
 62
     1
  5
807
 10
4861.058094
 20
2085.712301
 30
0.0
 11
4885.808094
 21
2087.962301
 31
0.0
  0
LINE
  8
0
  6
CONTINUOUS
 62
     1
  5
808
 10
4885.808094
 20
2087.962301
 30
0.0
 11
4890.558094
 21
2088.462301
 31
0.0
  0
ARC
  8
0
  6
CONTINUOUS
 62
     1
  5
809
 10
4854.808094
 20
2322.212301
 30
0.0
 40
400.0
 50
250.19
 51
263.76
  0
LINE
  8
0
  6
CONTINUOUS
 62
     1
  5
80A
 10
4985.308094
 20
1912.712301
 30
0.0
 11
4960.308094
 21
1913.712301
 31
0.0
  0
LINE
  8
0
  6
CONTINUOUS
 62
     1
  5
80B
 10
4960.308094
 20
1913.712301
 30
0.0
 11
4935.558094
 21
1914.712301
 31
0.0
  0
LINE
  8
0
  6
CONTINUOUS
 62
     1
  5
80C
 10
4935.558094
 20
1914.712301
 30
0.0
 11
4910.558094
 21
1916.212301
 31
0.0
  0
LINE
  8
0
  6
CONTINUOUS
 62
     1
  5
80D
 10
4910.558094
 20
1916.212301
 30
0.0
 11
4885.558094
 21
1917.712301
 31
0.0
  0
LINE
  8
0
  6
CONTINUOUS
 62
     1
  5
80E
 10
4885.558094
 20
1917.712301
 30
0.0
 11
4860.558094
 21
1919.712301
 31
0.0
  0
LINE
  8
0
  6
CONTINUOUS
 62
     1
  5
80F
 10
4860.558094
 20
1919.712301
 30
0.0
 11
4835.808094
 21
1921.962301
 31
0.0
  0
LINE
  8
0
  6
CONTINUOUS
 62
     1
  5
810
 10
4835.808094
 20
1921.962301
 30
0.0
 11
4811.058094
 21
1924.712301
 31
0.0
  0
LINE
  8
0
  6
CONTINUOUS
 62
     1
  5
811
 10
4949.058094
 20
1909.712301
 30
0.0
 11
4967.058094
 21
1909.712301
 31
0.0
  0
LINE
  8
0
  6
CONTINUOUS
 62
     1
  5
812
 10
4967.058094
 20
1909.712301
 30
0.0
 11
4949.058094
 21
1909.712301
 31
0.0
  0
LINE
  8
0
  6
CONTINUOUS
 62
     1
  5
813
 10
4967.058094
 20
1909.712301
 30
0.0
 11
4949.058094
 21
1909.712301
 31
0.0
  0
LINE
  8
0
  6
CONTINUOUS
 62
     1
  5
814
 10
4948.308094
 20
1897.712301
 30
0.0
 11
4967.808094
 21
1897.712301
 31
0.0
  0
LINE
  8
0
  6
CONTINUOUS
 62
     1
  5
815
 10
4948.308094
 20
1909.712301
 30
0.0
 11
4967.808094
 21
1909.712301
 31
0.0
  0
LINE
  8
0
  6
CONTINUOUS
 62
     1
  5
816
 10
4967.808094
 20
1909.712301
 30
0.0
 11
4967.808094
 21
1897.712301
 31
0.0
  0
LINE
  8
0
  6
CONTINUOUS
 62
     1
  5
817
 10
4967.058094
 20
1913.462301
 30
0.0
 11
4967.058094
 21
1909.712301
 31
0.0
  0
LINE
  8
0
  6
CONTINUOUS
 62
     1
  5
818
 10
4948.308094
 20
1909.712301
 30
0.0
 11
4948.308094
 21
1897.712301
 31
0.0
  0
LINE
  8
0
  6
CONTINUOUS
 62
     1
  5
819
 10
4949.058094
 20
1914.212301
 30
0.0
 11
4949.058094
 21
1909.712301
 31
0.0
  0
LINE
  8
0
  6
CONTINUOUS
 62
     1
  5
81A
 10
4812.558094
 20
1889.962301
 30
0.0
 11
4867.308094
 21
1889.962301
 31
0.0
  0
LINE
  8
0
  6
CONTINUOUS
 62
     1
  5
81B
 10
4812.558094
 20
1903.712301
 30
0.0
 11
4867.308094
 21
1903.712301
 31
0.0
  0
LINE
  8
0
  6
CONTINUOUS
 62
     1
  5
81C
 10
4797.308094
 20
1863.462301
 30
0.0
 11
4826.308094
 21
1863.462301
 31
0.0
  0
LINE
  8
0
  6
CONTINUOUS
 62
     1
  5
81D
 10
4826.308094
 20
1882.962301
 30
0.0
 11
4797.308094
 21
1882.962301
 31
0.0
  0
LINE
  8
0
  6
CONTINUOUS
 62
     1
  5
81E
 10
4826.308094
 20
1863.462301
 30
0.0
 11
4826.308094
 21
1889.962301
 31
0.0
  0
LINE
  8
0
  6
CONTINUOUS
 62
     1
  5
81F
 10
4862.058094
 20
1908.712301
 30
0.0
 11
4872.558094
 21
1898.462301
 31
0.0
  0
LINE
  8
0
  6
CONTINUOUS
 62
     1
  5
820
 10
4864.308094
 20
1894.212301
 30
0.0
 11
4871.058094
 21
1884.962301
 31
0.0
  0
LINE
  8
0
  6
CONTINUOUS
 62
     1
  5
821
 10
4872.558094
 20
1898.462301
 30
0.0
 11
4864.308094
 21
1894.212301
 31
0.0
  0
LINE
  8
0
  6
CONTINUOUS
 62
     1
  5
822
 10
4826.808094
 20
1922.962301
 30
0.0
 11
4826.808094
 21
1903.712301
 31
0.0
  0
LINE
  8
0
  6
CONTINUOUS
 62
     1
  5
823
 10
4797.308094
 20
1863.462301
 30
0.0
 11
4797.308094
 21
1885.962301
 31
0.0
  0
LINE
  8
0
  6
CONTINUOUS
 62
     1
  5
824
 10
4797.058094
 20
1926.212301
 30
0.0
 11
4797.058094
 21
1885.962301
 31
0.0
  0
ARC
  8
0
  6
CONTINUOUS
 62
     1
  5
825
 10
4819.308094
 20
1896.962301
 30
0.0
 40
9.25
 50
134.26
 51
225.75
  0
LINE
  8
0
  6
CONTINUOUS
 62
     1
  5
826
 10
4865.558094
 20
2114.962301
 30
0.0
 11
4890.308094
 21
2117.462301
 31
0.0
  0
LINE
  8
0
  6
CONTINUOUS
 62
     1
  5
827
 10
4890.308094
 20
2117.462301
 30
0.0
 11
4894.308094
 21
2117.712301
 31
0.0
  0
ARC
  8
0
  6
CONTINUOUS
 62
     1
  5
828
 10
4912.558094
 20
2093.962301
 30
0.0
 40
30.0
 50
92.68
 51
127.65
  0
ARC
  8
0
  6
CONTINUOUS
 62
     1
  5
829
 10
4962.308094
 20
1291.962301
 30
0.0
 40
800.0
 50
88.72
 51
95.15
  0
ARC
  8
0
  6
CONTINUOUS
 62
     1
  5
82A
 10
4929.808094
 20
1724.462301
 30
0.0
 40
400.0
 50
86.28
 51
92.68
  0
ARC
  8
0
  6
CONTINUOUS
 62
     1
  5
82B
 10
4955.558094
 20
2120.712301
 30
0.0
 40
3.0
 50
49.65
 51
86.28
  0
LINE
  8
0
  6
CONTINUOUS
 62
     1
  5
82C
 10
4865.308094
 20
2120.212301
 30
0.0
 11
4865.558094
 21
2114.962301
 31
0.0
  0
ARC
  8
0
  6
CONTINUOUS
 62
     1
  5
82D
 10
4824.058094
 20
1953.462301
 30
0.0
 40
142.5
 50
86.7
 51
105.91
  0
LINE
  8
0
  6
CONTINUOUS
 62
     1
  5
82E
 10
4832.308094
 20
2095.712301
 30
0.0
 11
4833.808094
 21
2082.962301
 31
0.0
  0
LINE
  8
0
  6
CONTINUOUS
 62
     1
  5
82F
 10
4784.808094
 20
2090.462301
 30
0.0
 11
4786.058094
 21
2077.712301
 31
0.0
  0
ARC
  8
0
  6
CONTINUOUS
 62
     1
  5
830
 10
4890.558094
 20
2017.462301
 30
0.0
 40
250.0
 50
172.62
 51
179.78
  0
ARC
  8
0
  6
CONTINUOUS
 62
     1
  5
831
 10
4786.808094
 20
2133.962301
 30
0.0
 40
200.0
 50
226.01
 51
250.19
  0
ARC
  8
0
  6
CONTINUOUS
 62
     1
  5
832
 10
4720.558094
 20
2017.462301
 30
0.0
 40
80.0
 50
179.96
 51
192.31
  0
ARC
  8
0
  6
CONTINUOUS
 62
     1
  5
833
 10
4661.808094
 20
2004.462301
 30
0.0
 40
20.0
 50
192.31
 51
226.01
  0
LINE
  8
0
  6
CONTINUOUS
 62
     1
  5
834
 10
4575.308094
 20
2002.462301
 30
0.0
 11
4575.558094
 21
1996.212301
 31
0.0
  0
LINE
  8
0
  6
CONTINUOUS
 62
     1
  5
835
 10
4575.558094
 20
1991.212301
 30
0.0
 11
4575.558094
 21
1996.212301
 31
0.0
  0
LINE
  8
0
  6
CONTINUOUS
 62
     1
  5
836
 10
4560.308094
 20
2002.212301
 30
0.0
 11
4560.558094
 21
1995.712301
 31
0.0
  0
LINE
  8
0
  6
CONTINUOUS
 62
     1
  5
837
 10
4560.558094
 20
1990.712301
 30
0.0
 11
4560.558094
 21
1995.712301
 31
0.0
  0
LINE
  8
0
  6
CONTINUOUS
 62
     1
  5
838
 10
4650.558094
 20
2058.212301
 30
0.0
 11
4675.058094
 21
2062.712301
 31
0.0
  0
LINE
  8
0
  6
CONTINUOUS
 62
     1
  5
839
 10
4675.058094
 20
2062.712301
 30
0.0
 11
4699.808094
 21
2066.712301
 31
0.0
  0
LINE
  8
0
  6
CONTINUOUS
 62
     1
  5
83A
 10
4699.808094
 20
2066.712301
 30
0.0
 11
4712.058094
 21
2068.462301
 31
0.0
  0
ARC
  8
0
  6
CONTINUOUS
 62
     1
  5
83B
 10
4652.558094
 20
2048.212301
 30
0.0
 40
10.0
 50
101.29
 51
172.62
  0
ARC
  8
0
  6
CONTINUOUS
 62
     1
  5
83C
 10
4460.308094
 20
2020.462301
 30
0.0
 40
8.0
 50
94.33
 51
171.57
  0
ARC
  8
0
  6
CONTINUOUS
 62
     1
  5
83D
 10
4650.058094
 20
1992.212301
 30
0.0
 40
199.75
 50
171.57
 51
177.59
  0
LINE
  8
0
  6
CONTINUOUS
 62
     1
  5
83E
 10
4450.308094
 20
2000.712301
 30
0.0
 11
4450.308094
 21
1999.712301
 31
0.0
  0
LINE
  8
0
  6
CONTINUOUS
 62
     1
  5
83F
 10
4518.308094
 20
2029.962301
 30
0.0
 11
4470.058094
 21
2028.712301
 31
0.0
  0
LINE
  8
0
  6
CONTINUOUS
 62
     1
  5
840
 10
4449.558094
 20
2034.962301
 30
0.0
 11
4538.308094
 21
2036.962301
 31
0.0
  0
ARC
  8
0
  6
CONTINUOUS
 62
     1
  5
841
 10
4614.808094
 20
1580.462301
 30
0.0
 40
500.0
 50
100.51
 51
106.82
  0
ARC
  8
0
  6
CONTINUOUS
 62
     1
  5
842
 10
4488.308094
 20
2024.462301
 30
0.0
 40
39.75
 50
135.92
 51
164.9
  0
ARC
  8
0
  6
CONTINUOUS
 62
     1
  5
843
 10
4471.058094
 20
1878.712301
 30
0.0
 40
150.0
 50
90.31
 51
94.33
  0
ARC
  8
0
  6
CONTINUOUS
 62
     1
  5
844
 10
4477.308094
 20
2034.962301
 30
0.0
 40
25.0
 50
106.82
 51
135.92
  0
LINE
  8
0
  6
CONTINUOUS
 62
     1
  5
845
 10
4470.308094
 20
1990.962301
 30
0.0
 11
4647.05174
 21
1990.962301
 31
0.0
  0
LINE
  8
0
  6
CONTINUOUS
 62
     1
  5
846
 10
4860.058094
 20
1899.712301
 30
0.0
 11
4873.473607
 21
1918.67906
 31
0.0
  0
LINE
  8
0
  6
CONTINUOUS
 62
     1
  5
847
 10
5016.558094
 20
1916.462301
 30
0.0
 11
5002.974856
 21
1922.450611
 31
0.0
  0
LINE
  8
0
  6
CONTINUOUS
 62
     1
  5
848
 10
5098.058094
 20
1990.962301
 30
0.0
 11
5021.558094
 21
1990.962301
 31
0.0
  0
LINE
  8
0
  6
CONTINUOUS
 62
     1
  5
849
 10
5079.308094
 20
2007.962301
 30
0.0
 11
5024.558094
 21
2007.962301
 31
0.0
  0
LINE
  8
0
  6
CONTINUOUS
 62
     1
  5
84A
 10
5083.808094
 20
2003.212301
 30
0.0
 11
5024.558094
 21
2003.212301
 31
0.0
  0
LINE
  8
0
  6
CONTINUOUS
 62
     1
  5
84B
 10
5089.808094
 20
1995.712301
 30
0.0
 11
5024.558094
 21
1995.712301
 31
0.0
  0
LINE
  8
0
  6
CONTINUOUS
 62
     1
  5
84C
 10
5019.558094
 20
1988.462301
 30
0.0
 11
5019.558094
 21
2040.212301
 31
0.0
  0
ARC
  8
0
  6
CONTINUOUS
 62
     1
  5
84D
 10
5016.558094
 20
1865.212301
 30
0.0
 40
127.5
 50
333.01
 51
350.95
  0
LINE
  8
0
  6
CONTINUOUS
 62
     1
  5
84E
 10
5131.558094
 20
1824.962301
 30
0.0
 11
5132.308094
 21
1840.962301
 31
0.0
  0
LINE
  8
0
  6
DIVIDE
 62
     1
  5
84F
 10
5142.558094
 20
1815.962301
 30
0.0
 11
5142.558094
 21
1940.962301
 31
0.0
  0
LINE
  8
0
  6
CONTINUOUS
 62
     1
  5
850
 10
5124.058094
 20
1824.962301
 30
0.0
 11
5123.308094
 21
1840.962301
 31
0.0
  0
ARC
  8
0
  6
CONTINUOUS
 62
     1
  5
851
 10
5108.308094
 20
1727.712301
 30
0.0
 40
21.75
 50
270.0
 51
0.0
  0
ARC
  8
0
  6
CONTINUOUS
 62
     1
  5
852
 10
5110.808094
 20
1727.712301
 30
0.0
 40
15.0
 50
270.0
 51
0.0
  0
LINE
  8
0
  6
CONTINUOUS
 62
     1
  5
853
 10
5130.058094
 20
1824.962301
 30
0.0
 11
5130.058094
 21
1727.712301
 31
0.0
  0
LINE
  8
0
  6
CONTINUOUS
 62
     1
  5
854
 10
5125.808094
 20
1824.962301
 30
0.0
 11
5125.808094
 21
1727.712301
 31
0.0
  0
LINE
  8
0
  6
DIVIDE
 62
     1
  5
855
 10
5150.308094
 20
1815.962301
 30
0.0
 11
5142.558094
 21
1815.962301
 31
0.0
  0
LINE
  8
0
  6
CONTINUOUS
 62
     1
  5
856
 10
5131.558094
 20
1824.962301
 30
0.0
 11
5124.058094
 21
1824.962301
 31
0.0
  0
LINE
  8
0
  6
CONTINUOUS
 62
     1
  5
857
 10
5142.308094
 20
1862.962301
 30
0.0
 11
5122.808094
 21
1863.962301
 31
0.0
  0
LINE
  8
0
  6
CONTINUOUS
 62
     1
  5
858
 10
5142.308094
 20
1848.962301
 30
0.0
 11
5134.058094
 21
1847.462301
 31
0.0
  0
LINE
  8
0
  6
CONTINUOUS
 62
     1
  5
859
 10
5122.808094
 20
1840.962301
 30
0.0
 11
5122.808094
 21
1863.962301
 31
0.0
  0
LINE
  8
0
  6
CONTINUOUS
 62
     1
  5
85A
 10
5122.808094
 20
1840.962301
 30
0.0
 11
5132.808094
 21
1840.962301
 31
0.0
  0
LINE
  8
0
  6
CONTINUOUS
 62
     1
  5
85B
 10
5134.058094
 20
1847.462301
 30
0.0
 11
5132.808094
 21
1840.962301
 31
0.0
  0
LINE
  8
0
  6
DIVIDE
 62
     1
  5
85C
 10
5150.308094
 20
1940.962301
 30
0.0
 11
5142.558094
 21
1940.962301
 31
0.0
  0
LINE
  8
0
  6
CONTINUOUS
 62
     1
  5
85D
 10
5033.308094
 20
1712.712301
 30
0.0
 11
5110.808094
 21
1712.712301
 31
0.0
  0
LINE
  8
0
  6
CONTINUOUS
 62
     1
  5
85E
 10
5108.308094
 20
1705.962301
 30
0.0
 11
5033.308094
 21
1705.962301
 31
0.0
  0
LINE
  8
0
  6
CONTINUOUS
 62
     1
  5
85F
 10
5018.308094
 20
1727.712301
 30
0.0
 11
5018.308094
 21
1974.462301
 31
0.0
  0
ARC
  8
0
  6
CONTINUOUS
 62
     1
  5
860
 10
5033.308094
 20
1727.712301
 30
0.0
 40
15.0
 50
180.0
 51
270.0
  0
LINE
  8
0
  6
CONTINUOUS
 62
     1
  5
861
 10
5013.808094
 20
1725.462301
 30
0.0
 11
5013.808094
 21
1974.462301
 31
0.0
  0
ARC
  8
0
  6
CONTINUOUS
 62
     1
  5
862
 10
5033.308094
 20
1725.462301
 30
0.0
 40
19.5
 50
180.0
 51
270.0
  0
LINE
  8
0
  6
CONTINUOUS
 62
     1
  5
863
 10
5034.558094
 20
2066.962301
 30
0.0
 11
5034.558094
 21
2032.462301
 31
0.0
  0
ARC
  8
0
  6
CONTINUOUS
 62
     1
  5
864
 10
5094.558094
 20
2066.962301
 30
0.0
 40
60.0
 50
90.0
 51
180.0
  0
LINE
  8
0
  6
CONTINUOUS
 62
     1
  5
865
 10
5094.558094
 20
2126.962301
 30
0.0
 11
5150.305763
 21
2126.962301
 31
0.0
  0
LINE
  8
0
  6
CONTINUOUS
 62
     1
  5
866
 10
5096.308094
 20
2095.212301
 30
0.0
 11
5150.305763
 21
2095.212301
 31
0.0
  0
ARC
  8
0
  6
CONTINUOUS
 62
     1
  5
867
 10
5096.308094
 20
2065.212301
 30
0.0
 40
30.0
 50
90.0
 51
180.0
  0
LINE
  8
0
  6
CONTINUOUS
 62
     1
  5
868
 10
5066.308094
 20
2065.212301
 30
0.0
 11
5066.308094
 21
2032.462301
 31
0.0
  0
LINE
  8
10
  6
CENTER
 62
     1
  5
869
 10
5184.068976
 20
2110.962301
 30
0.0
 11
5106.559912
 21
2110.962301
 31
0.0
  0
LINE
  8
0
  6
CONTINUOUS
 62
     1
  5
86A
 10
4523.808094
 20
2071.962301
 30
0.0
 11
4548.308094
 21
2076.462301
 31
0.0
  0
LINE
  8
0
  6
CONTINUOUS
 62
     1
  5
86B
 10
4548.308094
 20
2076.462301
 30
0.0
 11
4572.808094
 21
2080.712301
 31
0.0
  0
TEXT
  8
5
  6
CONTINUOUS
 62
     3
  5
86C
 10
2730.687756
 20
1214.8978
 30
0.0
 40
125.0
  1
テスリックス
 41
0.837
  7

 72
     5
 11
3480.687756
 21
1214.8978
 31
0.0
  0
TEXT
  8
5
  6
CONTINUOUS
 62
     3
  5
86D
 10
2730.687756
 20
1089.8978
 30
0.0
 40
125.0
  1
取付側展開図
 41
0.837
  7

 72
     5
 11
3480.687756
 21
1089.8978
 31
0.0
  0
TEXT
  8
5
  6
CONTINUOUS
 62
     3
  5
86E
 10
2945.588444
 20
5672.246221
 30
0.0
 40
125.0
  1
平面図
 41
0.837
  7

 72
     5
 11
3320.588444
 21
5672.246221
 31
0.0
  0
LINE
  8
10
  6
CENTER
 62
     2
  5
86F
 10
4085.308094
 20
2550.96147
 30
0.0
 11
4535.308094
 21
2550.96147
 31
0.0
  0
TEXT
  8
53
  6
CONTINUOUS
 62
     2
  5
870
 10
793.3657
 20
1311.27452
 30
0.0
 40
90.0
  1
1
 50
360.0
  7

 72
     5
 11
883.3657
 21
1311.27452
 31
0.0
  0
TEXT
  8
53
  6
CONTINUOUS
 62
     2
  5
871
 10
1185.251732
 20
1210.977264
 30
0.0
 40
90.0
  1
26
 50
360.0
 41
0.75
  7

 72
     5
 11
1320.251732
 21
1210.977264
 31
0.0
  0
ENDSEC
  0
EOF
