  0
SECTION
  2
HEADER
  9
$ACADVER
  1
AC1009
  9
$INSBASE
 10
0.0
 20
0.0
 30
0.0
  9
$EXTMIN
 10
677.321491
 20
416.237859
 30
0.0
  9
$EXTMAX
 10
3176.15652
 20
5384.030342
 30
0.0
  9
$LIMMIN
 10
0.0
 20
0.0
  9
$LIMMAX
 10
4200.0
 20
5940.0
  9
$ORTHOMODE
 70
     0
  9
$REGENMODE
 70
     1
  9
$FILLMODE
 70
     1
  9
$QTEXTMODE
 70
     0
  9
$MIRRTEXT
 70
     1
  9
$DRAGMODE
 70
     2
  9
$LTSCALE
 40
20.0
  9
$OSMODE
 70
     0
  9
$ATTMODE
 70
     1
  9
$TEXTSIZE
 40
0.2
  9
$TRACEWID
 40
0.05
  9
$TEXTSTYLE
  7
STANDARD
  9
$CLAYER
  8
0
  9
$CELTYPE
  6
CONTINUOUS
  9
$CECOLOR
 62
   256
  9
$DIMSCALE
 40
1.0
  9
$DIMASZ
 40
0.18
  9
$DIMEXO
 40
0.0625
  9
$DIMDLI
 40
0.38
  9
$DIMRND
 40
0.0
  9
$DIMDLE
 40
0.0
  9
$DIMEXE
 40
0.18
  9
$DIMTP
 40
0.0
  9
$DIMTM
 40
0.0
  9
$DIMTXT
 40
0.18
  9
$DIMCEN
 40
0.09
  9
$DIMTSZ
 40
0.0
  9
$DIMTOL
 70
     0
  9
$DIMLIM
 70
     0
  9
$DIMTIH
 70
     1
  9
$DIMTOH
 70
     1
  9
$DIMSE1
 70
     0
  9
$DIMSE2
 70
     0
  9
$DIMTAD
 70
     0
  9
$DIMZIN
 70
     0
  9
$DIMBLK
  1

  9
$DIMASO
 70
     1
  9
$DIMSHO
 70
     1
  9
$DIMPOST
  1

  9
$DIMAPOST
  1

  9
$DIMALT
 70
     0
  9
$DIMALTD
 70
     2
  9
$DIMALTF
 40
25.4
  9
$DIMLFAC
 40
1.0
  9
$DIMTOFL
 70
     0
  9
$DIMTVP
 40
0.0
  9
$DIMTIX
 70
     0
  9
$DIMSOXD
 70
     0
  9
$DIMSAH
 70
     0
  9
$DIMBLK1
  1

  9
$DIMBLK2
  1

  9
$DIMSTYLE
  2
STANDARD
  9
$DIMCLRD
 70
     0
  9
$DIMCLRE
 70
     0
  9
$DIMCLRT
 70
     0
  9
$DIMTFAC
 40
1.0
  9
$DIMGAP
 40
0.09
  9
$LUNITS
 70
     2
  9
$LUPREC
 70
     4
  9
$AXISMODE
 70
     0
  9
$AXISUNIT
 10
0.0
 20
0.0
  9
$SKETCHINC
 40
0.1
  9
$FILLETRAD
 40
0.0
  9
$AUNITS
 70
     0
  9
$AUPREC
 70
     0
  9
$MENU
  1
acad
  9
$ELEVATION
 40
0.0
  9
$PELEVATION
 40
0.0
  9
$THICKNESS
 40
0.0
  9
$LIMCHECK
 70
     0
  9
$BLIPMODE
 70
     1
  9
$CHAMFERA
 40
0.0
  9
$CHAMFERB
 40
0.0
  9
$SKPOLY
 70
     0
  9
$TDCREATE
 40
0.000000000
  9
$TDUPDATE
 40
0.000000000
  9
$TDINDWG
 40
0.0000000000
  9
$TDUSRTIMER
 40
0.0000000000
  9
$USRTIMER
 70
     1
  9
$ANGBASE
 50
0.0
  9
$ANGDIR
 70
     0
  9
$PDMODE
 70
     0
  9
$PDSIZE
 40
0.0
  9
$PLINEWID
 40
0.0
  9
$COORDS
 70
     0
  9
$SPLFRAME
 70
     0
  9
$SPLINETYPE
 70
     6
  9
$SPLINESEGS
 70
     8
  9
$ATTDIA
 70
     0
  9
$ATTREQ
 70
     1
  9
$HANDLING
 70
     1
  9
$HANDSEED
  5
429
  9
$SURFTAB1
 70
     6
  9
$SURFTAB2
 70
     6
  9
$SURFTYPE
 70
     6
  9
$SURFU
 70
     6
  9
$SURFV
 70
     6
  9
$UCSNAME
  2

  9
$UCSORG
 10
0.0
 20
0.0
 30
0.0
  9
$UCSXDIR
 10
1.0
 20
0.0
 30
0.0
  9
$UCSYDIR
 10
0.0
 20
1.0
 30
0.0
  9
$PUCSNAME
  2

  9
$PUCSORG
 10
0.0
 20
0.0
 30
0.0
  9
$PUCSXDIR
 10
1.0
 20
0.0
 30
0.0
  9
$PUCSYDIR
 10
0.0
 20
1.0
 30
0.0
  9
$USERI1
 70
     0
  9
$USERI2
 70
     0
  9
$USERI3
 70
     0
  9
$USERI4
 70
     0
  9
$USERI5
 70
     0
  9
$USERR1
 40
0.0
  9
$USERR2
 40
0.0
  9
$USERR3
 40
0.0
  9
$USERR4
 40
0.0
  9
$USERR5
 40
0.0
  9
$WORLDVIEW
 70
     1
  9
$SHADEDGE
 70
     3
  9
$SHADEDIF
 70
    70
  9
$TILEMODE
 70
     1
  9
$MAXACTVP
 70
    16
  9
$PINSBASE
 10
0.0
 20
0.0
 30
0.0
  9
$PLIMCHECK
 70
     0
  9
$PEXTMIN
 10
1.000000E+20
 20
1.000000E+20
 30
1.000000E+20
  9
$PEXTMAX
 10
-1.000000E+20
 20
-1.000000E+20
 30
-1.000000E+20
  9
$PLIMMIN
 10
0.0
 20
0.0
  9
$PLIMMAX
 10
12.0
 20
9.0
  9
$UNITMODE
 70
     0
  9
$VISRETAIN
 70
     0
  9
$PLINEGEN
 70
     1
  9
$PSLTSCALE
 70
     0
  9
$TREEDEPTH
 70
  3020
  9
$DWGCODEPAGE
  3
dos932
  0
ENDSEC
  0
SECTION
  2
TABLES
  0
TABLE
  2
VPORT
 70
     1
  0
VPORT
  2
*ACTIVE
 70
     0
 10
0.0
 20
0.0
 11
1.0
 21
1.0
 12
2100.0
 22
2970.0
 13
0.0
 23
0.0
 14
1000.0
 24
1000.0
 15
1000.0
 25
1000.0
 16
0.0
 26
0.0
 36
1.0
 17
0.0
 27
0.0
 37
0.0
 40
5940.0
 41
0.707071
 42
50.0
 43
0.0
 44
0.0
 50
0.0
 51
0.0
 71
     0
 72
   100
 73
     1
 74
     1
 75
     0
 76
     0
 77
     0
 78
     0
  0
ENDTAB
  0
TABLE
  2
LTYPE
 70
     5
  0
LTYPE
  2
CONTINUOUS
 70
    64
  3
Solid line
 72
    65
 73
     0
 40
0.0
  0
LTYPE
  2
HIDDEN
 70
    64
  3
__ __ __ __ __ __ __ __ __ __ __ __ __ __ __ __
 72
    65
 73
     5
 40
8.0
 49
1.0
 49
-2.0
 49
2.0
 49
-2.0
 49
1.0
  0
LTYPE
  2
DOT
 70
    64
  3
. . . . . . . . . . . . . . . . . . . . . . . .
 72
    65
 73
     3
 40
1.6
 49
0.4
 49
-0.8
 49
0.4
  0
LTYPE
  2
CENTER
 70
    64
  3
____ _ ____ _ ____ _ ____ _ ____ _ ____ _ ____ 
 72
    65
 73
     5
 40
12.0
 49
5.0
 49
-0.8
 49
0.4
 49
-0.8
 49
5.0
  0
LTYPE
  2
DIVIDE
 70
    64
  3
____ . . ____ . . ____ . . ____ . . ____ . . __
 72
    65
 73
     7
 40
13.2
 49
5.0
 49
-0.8
 49
0.4
 49
-0.8
 49
0.4
 49
-0.8
 49
5.0
  0
ENDTAB
  0
TABLE
  2
LAYER
 70
    20
  0
LAYER
  2
0
 70
     0
 62
     7
  6
CONTINUOUS
  0
LAYER
  2
1
 70
     0
 62
     1
  6
CONTINUOUS
  0
LAYER
  2
2
 70
     0
 62
     1
  6
CONTINUOUS
  0
LAYER
  2
3
 70
     0
 62
     1
  6
CONTINUOUS
  0
LAYER
  2
5
 70
     0
 62
     1
  6
CONTINUOUS
  0
LAYER
  2
6
 70
     0
 62
     1
  6
CONTINUOUS
  0
LAYER
  2
7
 70
     0
 62
     1
  6
CONTINUOUS
  0
LAYER
  2
8
 70
     0
 62
     1
  6
CONTINUOUS
  0
LAYER
  2
12
 70
     0
 62
     1
  6
CONTINUOUS
  0
LAYER
  2
20
 70
     0
 62
     1
  6
CONTINUOUS
  0
LAYER
  2
21
 70
     0
 62
     1
  6
CONTINUOUS
  0
LAYER
  2
22
 70
     0
 62
     1
  6
CONTINUOUS
  0
LAYER
  2
23
 70
     0
 62
     1
  6
CONTINUOUS
  0
LAYER
  2
24
 70
     0
 62
     1
  6
CONTINUOUS
  0
LAYER
  2
40
 70
     0
 62
     1
  6
CONTINUOUS
  0
LAYER
  2
50
 70
     0
 62
     1
  6
CONTINUOUS
  0
LAYER
  2
52
 70
     0
 62
     1
  6
CONTINUOUS
  0
LAYER
  2
80
 70
     0
 62
     1
  6
CONTINUOUS
  0
LAYER
  2
103
 70
     0
 62
     1
  6
CONTINUOUS
  0
LAYER
  2
189
 70
     0
 62
     1
  6
CONTINUOUS
  0
ENDTAB
  0
TABLE
  2
STYLE
 70
     3
  0
STYLE
  2
STANDARD
 70
     0
 40
0.0
 41
1.0
 50
0.0
 71
     0
 42
0.0
  3
txt
  4

  0
STYLE
  2

 70
     0
 40
1000.0
 41
1.0
 50
0.0
 71
     0
 42
1000.0
  3
txt
  4
extfont
  0
STYLE
  2

 70
     0
 40
1000.0
 41
1.0
 50
0.0
 71
     0
 42
1000.0
  3
txt
  4
extfont
  0
ENDTAB
  0
TABLE
  2
VIEW
 70
     0
  0
ENDTAB
  0
TABLE
  2
UCS
 70
     0
  0
ENDTAB
  0
TABLE
  2
APPID
 70
     1
  0
APPID
  2
ACAD
 70
     0
  0
ENDTAB
  0
TABLE
  2
DIMSTYLE
 70
     1
  0
DIMSTYLE
  2
STANDARD
 70
     0
  3

  4

  5

  6

  7

 40
1.0
 41
0.18
 42
0.0625
 43
0.38
 44
0.18
 45
0.0
 46
0.0
 47
0.0
 48
0.0
 71
     0
 72
     0
 73
     1
 74
     1
 75
     0
 76
     0
 77
     0
 78
     0
140
0.18
141
0.09
142
0.0
143
25.4
144
1.0
145
0.0
146
1.0
147
0.09
170
     0
171
     2
172
     0
173
     0
174
     0
175
     0
176
     0
177
     0
178
     0
  0
ENDTAB
  0
ENDSEC
  0
SECTION
  2
BLOCKS
  0
ENDSEC
  0
SECTION
  2
ENTITIES
  0
LINE
  8
21
  6
CONTINUOUS
 62
     4
  5
102
 10
2569.156629
 20
4279.030523
 30
0.0
 11
2569.156629
 21
4292.030521
 31
0.0
  0
LINE
  8
22
  6
CONTINUOUS
 62
     6
  5
103
 10
1764.156773
 20
4132.03055
 30
0.0
 11
1764.156773
 21
4147.030547
 31
0.0
  0
LINE
  8
5
  6
CONTINUOUS
 62
     6
  5
104
 10
1794.156768
 20
4227.030533
 30
0.0
 11
1794.156768
 21
4157.030545
 31
0.0
  0
LINE
  8
5
  6
CONTINUOUS
 62
     6
  5
105
 10
1794.156768
 20
4157.030545
 30
0.0
 11
1829.156762
 21
4157.030545
 31
0.0
  0
LINE
  8
5
  6
CONTINUOUS
 62
     6
  5
106
 10
1794.156768
 20
4227.030533
 30
0.0
 11
1829.156762
 21
4227.030533
 31
0.0
  0
LINE
  8
5
  6
CONTINUOUS
 62
     6
  5
107
 10
1829.156762
 20
4157.030545
 30
0.0
 11
1829.156762
 21
4227.030533
 31
0.0
  0
LINE
  8
22
  6
CONTINUOUS
 62
     6
  5
108
 10
2594.156625
 20
4147.030547
 30
0.0
 11
2594.156625
 21
4132.03055
 31
0.0
  0
LINE
  8
22
  6
CONTINUOUS
 62
     6
  5
109
 10
1764.156773
 20
4132.03055
 30
0.0
 11
2594.156625
 21
4132.03055
 31
0.0
  0
LINE
  8
5
  6
CONTINUOUS
 62
     6
  5
10A
 10
2564.15663
 20
4227.030533
 30
0.0
 11
2564.15663
 21
4157.030545
 31
0.0
  0
LINE
  8
5
  6
CONTINUOUS
 62
     6
  5
10B
 10
2564.15663
 20
4157.030545
 30
0.0
 11
2529.156637
 21
4157.030545
 31
0.0
  0
LINE
  8
5
  6
CONTINUOUS
 62
     6
  5
10C
 10
2564.15663
 20
4227.030533
 30
0.0
 11
2529.156637
 21
4227.030533
 31
0.0
  0
LINE
  8
5
  6
CONTINUOUS
 62
     6
  5
10D
 10
2529.156637
 20
4157.030545
 30
0.0
 11
2529.156637
 21
4227.030533
 31
0.0
  0
LINE
  8
5
  6
CONTINUOUS
 62
     2
  5
10E
 10
2529.156637
 20
4227.030533
 30
0.0
 11
1829.156762
 21
4227.030533
 31
0.0
  0
LINE
  8
5
  6
CONTINUOUS
 62
     2
  5
10F
 10
1794.156768
 20
4157.030545
 30
0.0
 11
2529.156637
 21
4157.030545
 31
0.0
  0
LINE
  8
5
  6
CONTINUOUS
 62
     6
  5
110
 10
2179.156699
 20
4137.030549
 30
0.0
 11
2179.156699
 21
4247.030529
 31
0.0
  0
LINE
  8
5
  6
CONTINUOUS
 62
     6
  5
111
 10
1829.156762
 20
4204.030537
 30
0.0
 11
2214.156693
 21
4204.030537
 31
0.0
  0
LINE
  8
5
  6
CONTINUOUS
 62
     6
  5
112
 10
2144.156705
 20
4180.030541
 30
0.0
 11
2529.156637
 21
4180.030541
 31
0.0
  0
LINE
  8
23
  6
CONTINUOUS
 62
     6
  5
113
 10
1814.156764
 20
4227.030533
 30
0.0
 11
1789.156769
 21
4227.030533
 31
0.0
  0
LINE
  8
23
  6
CONTINUOUS
 62
     6
  5
114
 10
1789.156769
 20
4302.030519
 30
0.0
 11
1814.156764
 21
4302.030519
 31
0.0
  0
LINE
  8
23
  6
CONTINUOUS
 62
     6
  5
115
 10
1814.156764
 20
4302.030519
 30
0.0
 11
1814.156764
 21
4227.030533
 31
0.0
  0
LINE
  8
23
  6
CONTINUOUS
 62
     6
  5
116
 10
2569.156629
 20
4227.030533
 30
0.0
 11
2544.156634
 21
4227.030533
 31
0.0
  0
LINE
  8
23
  6
CONTINUOUS
 62
     6
  5
117
 10
2544.156634
 20
4302.030519
 30
0.0
 11
1814.156764
 21
4302.030519
 31
0.0
  0
LINE
  8
23
  6
CONTINUOUS
 62
     6
  5
118
 10
2544.156634
 20
4302.030519
 30
0.0
 11
2569.156629
 21
4302.030519
 31
0.0
  0
LINE
  8
23
  6
CONTINUOUS
 62
     6
  5
119
 10
2544.156634
 20
4302.030519
 30
0.0
 11
2544.156634
 21
4227.030533
 31
0.0
  0
LINE
  8
23
  6
CONTINUOUS
 62
     6
  5
11A
 10
2569.156629
 20
4302.030519
 30
0.0
 11
2569.156629
 21
4227.030533
 31
0.0
  0
LINE
  8
23
  6
CONTINUOUS
 62
     6
  5
11B
 10
1789.156769
 20
4302.030519
 30
0.0
 11
1789.156769
 21
4227.030533
 31
0.0
  0
LINE
  8
5
  6
CONTINUOUS
 62
     4
  5
11C
 10
1789.156769
 20
4227.030533
 30
0.0
 11
1779.156771
 21
4227.030533
 31
0.0
  0
LINE
  8
5
  6
CONTINUOUS
 62
     4
  5
11D
 10
1789.156769
 20
4227.030533
 30
0.0
 11
1789.156769
 21
4298.03052
 31
0.0
  0
LINE
  8
5
  6
CONTINUOUS
 62
     4
  5
11E
 10
2569.156629
 20
4227.030533
 30
0.0
 11
2579.156628
 21
4227.030533
 31
0.0
  0
LINE
  8
5
  6
CONTINUOUS
 62
     4
  5
11F
 10
2569.156629
 20
4227.030533
 30
0.0
 11
2569.156629
 21
4298.03052
 31
0.0
  0
LINE
  8
20
  6
CONTINUOUS
 62
     4
  5
120
 10
1779.156771
 20
4147.030547
 30
0.0
 11
1779.156771
 21
4227.030533
 31
0.0
  0
LINE
  8
20
  6
CONTINUOUS
 62
     4
  5
121
 10
2579.156628
 20
4147.030547
 30
0.0
 11
2579.156628
 21
4227.030533
 31
0.0
  0
LINE
  8
5
  6
CONTINUOUS
 62
     3
  5
122
 10
1829.156762
 20
4017.030547
 30
0.0
 11
1829.156762
 21
4117.030547
 31
0.0
  0
LINE
  8
5
  6
CONTINUOUS
 62
     3
  5
123
 10
2529.156637
 20
4017.030547
 30
0.0
 11
2529.156637
 21
4117.030547
 31
0.0
  0
CIRCLE
  8
5
  6
CONTINUOUS
 62
     3
  5
124
 10
1829.156762
 20
4017.030547
 30
0.0
 40
7.5
  0
CIRCLE
  8
5
  6
CONTINUOUS
 62
     3
  5
125
 10
2529.156637
 20
4017.030547
 30
0.0
 40
7.5
  0
TEXT
  8
5
  6
CONTINUOUS
 62
     3
  5
126
 10
2119.156699
 20
4017.030547
 30
0.0
 40
60.0
  1
700
 41
0.666667
  7

 72
     5
 11
2239.156699
 21
4017.030547
 31
0.0
  0
LINE
  8
5
  6
CONTINUOUS
 62
     3
  5
127
 10
1829.156762
 20
4017.030547
 30
0.0
 11
2529.156637
 21
4017.030547
 31
0.0
  0
LINE
  8
189
  6
CONTINUOUS
 62
     6
  5
128
 10
1415.156835
 20
5206.030358
 30
0.0
 11
1415.156835
 21
4535.030478
 31
0.0
  0
LINE
  8
189
  6
CONTINUOUS
 62
     6
  5
129
 10
1455.156827
 20
4524.030479
 30
0.0
 11
1455.156827
 21
5225.030354
 31
0.0
  0
LINE
  8
23
  6
CONTINUOUS
 62
     6
  5
12A
 10
1455.156827
 20
4495.030485
 30
0.0
 11
1455.156827
 21
4520.03048
 31
0.0
  0
LINE
  8
23
  6
CONTINUOUS
 62
     6
  5
12B
 10
1385.15684
 20
4535.030478
 30
0.0
 11
1415.156835
 21
4535.030478
 31
0.0
  0
LINE
  8
23
  6
CONTINUOUS
 62
     6
  5
12C
 10
1415.156835
 20
4535.030478
 30
0.0
 11
1415.156835
 21
4520.03048
 31
0.0
  0
LINE
  8
23
  6
CONTINUOUS
 62
     6
  5
12D
 10
1385.15684
 20
4535.030478
 30
0.0
 11
1385.15684
 21
4520.03048
 31
0.0
  0
LINE
  8
23
  6
CONTINUOUS
 62
     6
  5
12E
 10
1455.156827
 20
4520.03048
 30
0.0
 11
1415.156835
 21
4520.03048
 31
0.0
  0
LINE
  8
23
  6
CONTINUOUS
 62
     6
  5
12F
 10
1345.156847
 20
4495.030485
 30
0.0
 11
1345.156847
 21
4520.03048
 31
0.0
  0
LINE
  8
23
  6
CONTINUOUS
 62
     6
  5
130
 10
1455.156827
 20
4495.030485
 30
0.0
 11
1345.156847
 21
4495.030485
 31
0.0
  0
LINE
  8
23
  6
CONTINUOUS
 62
     6
  5
131
 10
1345.156847
 20
4520.03048
 30
0.0
 11
1385.15684
 21
4520.03048
 31
0.0
  0
LINE
  8
23
  6
CONTINUOUS
 62
     6
  5
132
 10
1455.156827
 20
5245.030351
 30
0.0
 11
1455.156827
 21
5220.030355
 31
0.0
  0
LINE
  8
23
  6
CONTINUOUS
 62
     6
  5
133
 10
1345.156847
 20
5220.030355
 30
0.0
 11
1345.156847
 21
5245.030351
 31
0.0
  0
LINE
  8
23
  6
CONTINUOUS
 62
     6
  5
134
 10
1345.156847
 20
5245.030351
 30
0.0
 11
1455.156827
 21
5245.030351
 31
0.0
  0
LINE
  8
23
  6
CONTINUOUS
 62
     6
  5
135
 10
1385.15684
 20
5205.030358
 30
0.0
 11
1415.156835
 21
5205.030358
 31
0.0
  0
LINE
  8
23
  6
CONTINUOUS
 62
     6
  5
136
 10
1415.156835
 20
5205.030358
 30
0.0
 11
1415.156835
 21
5220.030355
 31
0.0
  0
LINE
  8
23
  6
CONTINUOUS
 62
     6
  5
137
 10
1385.15684
 20
5205.030358
 30
0.0
 11
1385.15684
 21
5220.030355
 31
0.0
  0
LINE
  8
23
  6
CONTINUOUS
 62
     6
  5
138
 10
1455.156827
 20
5220.030355
 30
0.0
 11
1415.156835
 21
5220.030355
 31
0.0
  0
LINE
  8
23
  6
CONTINUOUS
 62
     6
  5
139
 10
1345.156847
 20
5220.030355
 30
0.0
 11
1385.15684
 21
5220.030355
 31
0.0
  0
ARC
  8
3
  6
CONTINUOUS
 62
     1
  5
13A
 10
1377.321491
 20
4520.03048
 30
0.0
 40
700.0
 50
90.0
 51
180.0
  0
LINE
  8
3
  6
CONTINUOUS
 62
     1
  5
13B
 10
1385.15684
 20
4520.03048
 30
0.0
 11
677.321491
 21
4520.03048
 31
0.0
  0
LINE
  8
103
  6
CENTER
 62
     2
  5
13C
 10
1399.156837
 20
5342.030333
 30
0.0
 11
1399.156837
 21
4147.030547
 31
0.0
  0
CIRCLE
  8
5
  6
CONTINUOUS
 62
     3
  5
13D
 10
1399.156837
 20
3917.030547
 30
0.0
 40
7.5
  0
CIRCLE
  8
5
  6
CONTINUOUS
 62
     3
  5
13E
 10
1399.156837
 20
4017.030547
 30
0.0
 40
7.5
  0
LINE
  8
5
  6
CONTINUOUS
 62
     3
  5
13F
 10
1125.156845
 20
5294.030342
 30
0.0
 11
1325.156845
 21
5294.030342
 31
0.0
  0
LINE
  8
5
  6
CONTINUOUS
 62
     3
  5
140
 10
1125.156845
 20
4250.030528
 30
0.0
 11
1325.156845
 21
4250.030528
 31
0.0
  0
LINE
  8
5
  6
CONTINUOUS
 62
     3
  5
141
 10
1225.156845
 20
5205.030358
 30
0.0
 11
1325.156845
 21
5205.030358
 31
0.0
  0
LINE
  8
5
  6
CONTINUOUS
 62
     3
  5
142
 10
1225.156845
 20
4535.030478
 30
0.0
 11
1325.156845
 21
4535.030478
 31
0.0
  0
CIRCLE
  8
5
  6
CONTINUOUS
 62
     3
  5
143
 10
1125.156845
 20
5294.030342
 30
0.0
 40
7.5
  0
CIRCLE
  8
5
  6
CONTINUOUS
 62
     3
  5
144
 10
1125.156845
 20
4250.030528
 30
0.0
 40
7.5
  0
CIRCLE
  8
5
  6
CONTINUOUS
 62
     3
  5
145
 10
1225.156845
 20
4250.030528
 30
0.0
 40
7.5
  0
CIRCLE
  8
5
  6
CONTINUOUS
 62
     3
  5
146
 10
1225.156845
 20
4535.030478
 30
0.0
 40
7.5
  0
CIRCLE
  8
5
  6
CONTINUOUS
 62
     3
  5
147
 10
1225.156845
 20
5205.030358
 30
0.0
 40
7.5
  0
CIRCLE
  8
5
  6
CONTINUOUS
 62
     3
  5
148
 10
1225.156845
 20
5294.030342
 30
0.0
 40
7.5
  0
TEXT
  8
5
  6
CONTINUOUS
 62
     3
  5
149
 10
1125.156845
 20
4682.030435
 30
0.0
 40
60.0
  1
1,044
 50
90.0
 41
0.6
  7

 72
     5
 11
1125.156845
 21
4862.030435
 31
0.0
  0
LINE
  8
5
  6
CONTINUOUS
 62
     3
  5
14A
 10
1125.156845
 20
5294.030342
 30
0.0
 11
1125.156845
 21
4250.030528
 31
0.0
  0
TEXT
  8
5
  6
CONTINUOUS
 62
     3
  5
14B
 10
1225.156845
 20
4332.530503
 30
0.0
 40
60.0
  1
285
 50
90.0
 41
0.666667
  7

 72
     5
 11
1225.156845
 21
4452.530503
 31
0.0
  0
LINE
  8
5
  6
CONTINUOUS
 62
     3
  5
14C
 10
1225.156845
 20
4250.030528
 30
0.0
 11
1225.156845
 21
4535.030478
 31
0.0
  0
TEXT
  8
5
  6
CONTINUOUS
 62
     3
  5
14D
 10
1225.156845
 20
4810.030418
 30
0.0
 40
60.0
  1
670
 50
90.0
 41
0.666667
  7

 72
     5
 11
1225.156845
 21
4930.030418
 31
0.0
  0
LINE
  8
5
  6
CONTINUOUS
 62
     3
  5
14E
 10
1225.156845
 20
4535.030478
 30
0.0
 11
1225.156845
 21
5205.030358
 31
0.0
  0
TEXT
  8
5
  6
CONTINUOUS
 62
     3
  5
14F
 10
1225.156845
 20
5294.030342
 30
0.0
 40
60.0
  1
89
 50
90.0
 41
0.75
  7

 72
     5
 11
1225.156845
 21
5384.030342
 31
0.0
  0
LINE
  8
5
  6
CONTINUOUS
 62
     3
  5
150
 10
1225.156845
 20
5205.030358
 30
0.0
 11
1225.156845
 21
5294.030342
 31
0.0
  0
LINE
  8
21
  6
CONTINUOUS
 62
     4
  5
151
 10
1649.156793
 20
4494.030485
 30
0.0
 11
1649.156793
 21
4298.03052
 31
0.0
  0
LINE
  8
21
  6
CONTINUOUS
 62
     4
  5
152
 10
1649.156793
 20
4298.03052
 30
0.0
 11
1789.156769
 21
4298.03052
 31
0.0
  0
LINE
  8
20
  6
CONTINUOUS
 62
     4
  5
153
 10
1355.156845
 20
4147.030547
 30
0.0
 11
1779.156771
 21
4147.030547
 31
0.0
  0
LINE
  8
5
  6
CONTINUOUS
 62
     3
  5
154
 10
1399.156837
 20
4017.030547
 30
0.0
 11
1829.156762
 21
4017.030547
 31
0.0
  0
TEXT
  8
5
  6
CONTINUOUS
 62
     3
  5
155
 10
1547.1568
 20
4017.030547
 30
0.0
 40
60.0
  1
430
 41
0.666667
  7

 72
     5
 11
1667.1568
 21
4017.030547
 31
0.0
  0
LINE
  8
5
  6
CONTINUOUS
 62
     3
  5
156
 10
1399.156837
 20
3917.030547
 30
0.0
 11
1399.156837
 21
4117.030547
 31
0.0
  0
LINE
  8
5
  6
CENTER
 62
     2
  5
157
 10
1362.156845
 20
5294.030342
 30
0.0
 11
3169.15652
 21
5294.030342
 31
0.0
  0
LINE
  8
5
  6
CENTER
 62
     2
  5
158
 10
1362.156845
 20
4250.030528
 30
0.0
 11
3169.15652
 21
4250.030528
 31
0.0
  0
LINE
  8
21
  6
CONTINUOUS
 62
     4
  5
159
 10
2853.156578
 20
4469.030489
 30
0.0
 11
2955.15656
 21
4469.030489
 31
0.0
  0
CIRCLE
  8
5
  6
CONTINUOUS
 62
     3
  5
15A
 10
2999.156552
 20
3917.030547
 30
0.0
 40
7.5
  0
CIRCLE
  8
5
  6
CONTINUOUS
 62
     3
  5
15B
 10
2999.156552
 20
4017.030547
 30
0.0
 40
7.5
  0
LINE
  8
20
  6
CONTINUOUS
 62
     4
  5
15C
 10
2579.156628
 20
4147.030547
 30
0.0
 11
3176.15652
 21
4147.030547
 31
0.0
  0
LINE
  8
21
  6
CONTINUOUS
 62
     4
  5
15D
 10
2853.156578
 20
4298.03052
 30
0.0
 11
2853.156578
 21
4469.030489
 31
0.0
  0
LINE
  8
21
  6
CONTINUOUS
 62
     4
  5
15E
 10
2853.156578
 20
4298.03052
 30
0.0
 11
2569.156629
 21
4298.03052
 31
0.0
  0
LINE
  8
103
  6
CENTER
 62
     2
  5
15F
 10
2999.156552
 20
5342.030333
 30
0.0
 11
2999.156552
 21
4147.030547
 31
0.0
  0
LINE
  8
20
  6
CONTINUOUS
 62
     4
  5
160
 10
3176.15652
 20
5342.030333
 30
0.0
 11
3176.15652
 21
4147.030547
 31
0.0
  0
LINE
  8
5
  6
CONTINUOUS
 62
     3
  5
161
 10
2529.156637
 20
4017.030547
 30
0.0
 11
2999.156552
 21
4017.030547
 31
0.0
  0
TEXT
  8
5
  6
CONTINUOUS
 62
     3
  5
162
 10
2709.156594
 20
4017.030547
 30
0.0
 40
60.0
  1
470
 41
0.666667
  7

 72
     5
 11
2829.156594
 21
4017.030547
 31
0.0
  0
LINE
  8
5
  6
CONTINUOUS
 62
     3
  5
163
 10
2999.156552
 20
3917.030547
 30
0.0
 11
2999.156552
 21
4117.030547
 31
0.0
  0
LINE
  8
5
  6
CONTINUOUS
 62
     3
  5
164
 10
1399.156837
 20
3917.030547
 30
0.0
 11
2999.156552
 21
3917.030547
 31
0.0
  0
TEXT
  8
5
  6
CONTINUOUS
 62
     3
  5
165
 10
2114.156695
 20
3917.030547
 30
0.0
 40
60.0
  1
1,600
 41
0.6
  7

 72
     5
 11
2294.156695
 21
3917.030547
 31
0.0
  0
LINE
  8
40
  6
CONTINUOUS
 62
     4
  5
166
 10
1952.334348
 20
5220.902524
 30
0.0
 11
1983.156888
 21
5220.902524
 31
0.0
  0
LINE
  8
40
  6
CONTINUOUS
 62
     4
  5
167
 10
1989.400328
 20
5222.902494
 30
0.0
 11
1946.119328
 21
5222.902494
 31
0.0
  0
LINE
  8
40
  6
CONTINUOUS
 62
     4
  5
168
 10
2012.795168
 20
5240.902504
 30
0.0
 11
2012.795168
 21
5230.415594
 31
0.0
  0
LINE
  8
40
  6
CONTINUOUS
 62
     4
  5
169
 10
1922.795188
 20
5240.902504
 30
0.0
 11
1922.795188
 21
5230.386964
 31
0.0
  0
LINE
  8
40
  6
CONTINUOUS
 62
     4
  5
16A
 10
1923.541248
 20
5228.902544
 30
0.0
 11
2012.005708
 21
5228.902544
 31
0.0
  0
ARC
  8
40
  6
CONTINUOUS
 62
     4
  5
16B
 10
2010.795268
 20
5230.518284
 30
0.0
 40
2.00004
 50
284.470295
 51
360.0
  0
ARC
  8
40
  6
CONTINUOUS
 62
     4
  5
16C
 10
1924.796908
 20
5230.475234
 30
0.0
 40
2.00004
 50
180.0
 51
255.930352
  0
LINE
  8
1
  6
CONTINUOUS
 62
     4
  5
16D
 10
2000.106128
 20
5248.088564
 30
0.0
 11
1996.106048
 21
5248.783594
 31
0.0
  0
LINE
  8
1
  6
CONTINUOUS
 62
     4
  5
16E
 10
2000.106128
 20
5251.124884
 30
0.0
 11
1996.106048
 21
5251.834124
 31
0.0
  0
LINE
  8
1
  6
CONTINUOUS
 62
     4
  5
16F
 10
2000.106128
 20
5254.178004
 30
0.0
 11
1996.106048
 21
5254.887244
 31
0.0
  0
LINE
  8
1
  6
CONTINUOUS
 62
     4
  5
170
 10
2000.106128
 20
5257.231124
 30
0.0
 11
1996.106048
 21
5257.940294
 31
0.0
  0
LINE
  8
1
  6
CONTINUOUS
 62
     4
  5
171
 10
2000.106128
 20
5260.281584
 30
0.0
 11
1996.106048
 21
5260.976544
 31
0.0
  0
LINE
  8
1
  6
CONTINUOUS
 62
     4
  5
172
 10
2000.106128
 20
5263.317694
 30
0.0
 11
1996.106048
 21
5264.026934
 31
0.0
  0
LINE
  8
1
  6
CONTINUOUS
 62
     4
  5
173
 10
1996.501268
 20
5247.193404
 30
0.0
 11
1999.710908
 21
5246.625774
 31
0.0
  0
LINE
  8
1
  6
CONTINUOUS
 62
     4
  5
174
 10
1996.501268
 20
5250.226854
 30
0.0
 11
1999.710908
 21
5249.659294
 31
0.0
  0
LINE
  8
1
  6
CONTINUOUS
 62
     4
  5
175
 10
1996.501268
 20
5253.279974
 30
0.0
 11
1999.710908
 21
5252.712414
 31
0.0
  0
LINE
  8
1
  6
CONTINUOUS
 62
     4
  5
176
 10
1996.501268
 20
5256.333094
 30
0.0
 11
1999.710908
 21
5255.765604
 31
0.0
  0
LINE
  8
1
  6
CONTINUOUS
 62
     4
  5
177
 10
1996.501268
 20
5259.386284
 30
0.0
 11
1999.710908
 21
5258.818724
 31
0.0
  0
LINE
  8
1
  6
CONTINUOUS
 62
     4
  5
178
 10
1996.501268
 20
5262.419804
 30
0.0
 11
1999.710908
 21
5261.852244
 31
0.0
  0
LINE
  8
1
  6
CONTINUOUS
 62
     4
  5
179
 10
1996.501268
 20
5265.472924
 30
0.0
 11
1999.710908
 21
5264.905294
 31
0.0
  0
LINE
  8
1
  6
CONTINUOUS
 62
     4
  5
17A
 10
2000.106128
 20
5245.037194
 30
0.0
 11
1996.106048
 21
5245.741394
 31
0.0
  0
LINE
  8
1
  6
CONTINUOUS
 62
     4
  5
17B
 10
1998.106088
 20
5234.902524
 30
0.0
 11
2002.356068
 21
5234.902524
 31
0.0
  0
LINE
  8
1
  6
CONTINUOUS
 62
     4
  5
17C
 10
2000.106128
 20
5238.990664
 30
0.0
 11
1996.106048
 21
5239.699904
 31
0.0
  0
LINE
  8
1
  6
CONTINUOUS
 62
     4
  5
17D
 10
2000.106128
 20
5242.004514
 30
0.0
 11
1996.106048
 21
5242.713754
 31
0.0
  0
LINE
  8
1
  6
CONTINUOUS
 62
     4
  5
17E
 10
1996.501268
 20
5238.112234
 30
0.0
 11
1999.710908
 21
5237.544674
 31
0.0
  0
LINE
  8
1
  6
CONTINUOUS
 62
     4
  5
17F
 10
1996.501268
 20
5241.126154
 30
0.0
 11
1999.710908
 21
5240.558594
 31
0.0
  0
LINE
  8
1
  6
CONTINUOUS
 62
     4
  5
180
 10
1996.501268
 20
5244.159744
 30
0.0
 11
1999.710908
 21
5243.592184
 31
0.0
  0
LINE
  8
1
  6
CONTINUOUS
 62
     4
  5
181
 10
2000.709108
 20
5234.902524
 30
0.0
 11
1999.506088
 21
5236.105474
 31
0.0
  0
LINE
  8
1
  6
CONTINUOUS
 62
     4
  5
182
 10
2000.709108
 20
5234.902524
 30
0.0
 11
2002.356068
 21
5234.902524
 31
0.0
  0
LINE
  8
1
  6
CONTINUOUS
 62
     4
  5
183
 10
1995.503068
 20
5234.902524
 30
0.0
 11
1996.706088
 21
5236.105474
 31
0.0
  0
LINE
  8
1
  6
CONTINUOUS
 62
     4
  5
184
 10
1995.503068
 20
5234.902524
 30
0.0
 11
1993.856108
 21
5234.902524
 31
0.0
  0
LINE
  8
1
  6
CONTINUOUS
 62
     4
  5
185
 10
1996.501268
 20
5236.585674
 30
0.0
 11
1999.710908
 21
5236.018184
 31
0.0
  0
LINE
  8
1
  6
CONTINUOUS
 62
     4
  5
186
 10
1998.712848
 20
5231.411484
 30
0.0
 11
1997.499328
 21
5231.411484
 31
0.0
  0
LINE
  8
1
  6
CONTINUOUS
 62
     4
  5
187
 10
1998.712848
 20
5230.902514
 30
0.0
 11
1998.712848
 21
5231.411484
 31
0.0
  0
LINE
  8
1
  6
CONTINUOUS
 62
     4
  5
188
 10
1997.499328
 20
5230.902514
 30
0.0
 11
1997.499328
 21
5231.411484
 31
0.0
  0
LINE
  8
1
  6
CONTINUOUS
 62
     4
  5
189
 10
1998.712848
 20
5230.902514
 30
0.0
 11
1997.499328
 21
5230.902514
 31
0.0
  0
LINE
  8
1
  6
CONTINUOUS
 62
     4
  5
18A
 10
2000.106128
 20
5266.370814
 30
0.0
 11
1996.106048
 21
5267.080054
 31
0.0
  0
LINE
  8
1
  6
CONTINUOUS
 62
     4
  5
18B
 10
1996.714768
 20
5270.025234
 30
0.0
 11
1999.599748
 21
5269.513674
 31
0.0
  0
LINE
  8
1
  6
CONTINUOUS
 62
     4
  5
18C
 10
1996.501268
 20
5268.525974
 30
0.0
 11
1999.710908
 21
5267.958414
 31
0.0
  0
LINE
  8
1
  6
CONTINUOUS
 62
     4
  5
18D
 10
1997.007648
 20
5271.489494
 30
0.0
 11
1999.285028
 21
5271.086854
 31
0.0
  0
LINE
  8
1
  6
CONTINUOUS
 62
     4
  5
18E
 10
1939.484308
 20
5248.088564
 30
0.0
 11
1935.484368
 21
5248.783594
 31
0.0
  0
LINE
  8
1
  6
CONTINUOUS
 62
     4
  5
18F
 10
1939.484308
 20
5251.124884
 30
0.0
 11
1935.484368
 21
5251.834124
 31
0.0
  0
LINE
  8
1
  6
CONTINUOUS
 62
     4
  5
190
 10
1939.484308
 20
5254.178004
 30
0.0
 11
1935.484368
 21
5254.887244
 31
0.0
  0
LINE
  8
1
  6
CONTINUOUS
 62
     4
  5
191
 10
1939.484308
 20
5257.231124
 30
0.0
 11
1935.484368
 21
5257.940294
 31
0.0
  0
LINE
  8
1
  6
CONTINUOUS
 62
     4
  5
192
 10
1939.484308
 20
5260.281584
 30
0.0
 11
1935.484368
 21
5260.976544
 31
0.0
  0
LINE
  8
1
  6
CONTINUOUS
 62
     4
  5
193
 10
1939.484308
 20
5263.317694
 30
0.0
 11
1935.484368
 21
5264.026934
 31
0.0
  0
LINE
  8
1
  6
CONTINUOUS
 62
     4
  5
194
 10
1935.879448
 20
5247.193404
 30
0.0
 11
1939.089228
 21
5246.625774
 31
0.0
  0
LINE
  8
1
  6
CONTINUOUS
 62
     4
  5
195
 10
1935.879448
 20
5250.226854
 30
0.0
 11
1939.089228
 21
5249.659294
 31
0.0
  0
LINE
  8
1
  6
CONTINUOUS
 62
     4
  5
196
 10
1935.879448
 20
5253.279974
 30
0.0
 11
1939.089228
 21
5252.712414
 31
0.0
  0
LINE
  8
1
  6
CONTINUOUS
 62
     4
  5
197
 10
1935.879448
 20
5256.333094
 30
0.0
 11
1939.089228
 21
5255.765604
 31
0.0
  0
LINE
  8
1
  6
CONTINUOUS
 62
     4
  5
198
 10
1935.879448
 20
5259.386284
 30
0.0
 11
1939.089228
 21
5258.818724
 31
0.0
  0
LINE
  8
1
  6
CONTINUOUS
 62
     4
  5
199
 10
1935.879448
 20
5262.419804
 30
0.0
 11
1939.089228
 21
5261.852244
 31
0.0
  0
LINE
  8
1
  6
CONTINUOUS
 62
     4
  5
19A
 10
1935.879448
 20
5265.472924
 30
0.0
 11
1939.089228
 21
5264.905294
 31
0.0
  0
LINE
  8
1
  6
CONTINUOUS
 62
     4
  5
19B
 10
1939.484308
 20
5245.037194
 30
0.0
 11
1935.484368
 21
5245.741394
 31
0.0
  0
LINE
  8
1
  6
CONTINUOUS
 62
     4
  5
19C
 10
1937.484268
 20
5234.902524
 30
0.0
 11
1941.734388
 21
5234.902524
 31
0.0
  0
LINE
  8
1
  6
CONTINUOUS
 62
     4
  5
19D
 10
1939.484308
 20
5238.990664
 30
0.0
 11
1935.484368
 21
5239.699904
 31
0.0
  0
LINE
  8
1
  6
CONTINUOUS
 62
     4
  5
19E
 10
1939.484308
 20
5242.004514
 30
0.0
 11
1935.484368
 21
5242.713754
 31
0.0
  0
LINE
  8
1
  6
CONTINUOUS
 62
     4
  5
19F
 10
1935.879448
 20
5238.112234
 30
0.0
 11
1939.089228
 21
5237.544674
 31
0.0
  0
LINE
  8
1
  6
CONTINUOUS
 62
     4
  5
1A0
 10
1935.879448
 20
5241.126154
 30
0.0
 11
1939.089228
 21
5240.558594
 31
0.0
  0
LINE
  8
1
  6
CONTINUOUS
 62
     4
  5
1A1
 10
1935.879448
 20
5244.159744
 30
0.0
 11
1939.089228
 21
5243.592184
 31
0.0
  0
LINE
  8
1
  6
CONTINUOUS
 62
     4
  5
1A2
 10
1940.087288
 20
5234.902524
 30
0.0
 11
1938.884268
 21
5236.105474
 31
0.0
  0
LINE
  8
1
  6
CONTINUOUS
 62
     4
  5
1A3
 10
1940.087288
 20
5234.902524
 30
0.0
 11
1941.734388
 21
5234.902524
 31
0.0
  0
LINE
  8
1
  6
CONTINUOUS
 62
     4
  5
1A4
 10
1934.881388
 20
5234.902524
 30
0.0
 11
1936.084268
 21
5236.105474
 31
0.0
  0
LINE
  8
1
  6
CONTINUOUS
 62
     4
  5
1A5
 10
1934.881388
 20
5234.902524
 30
0.0
 11
1933.234288
 21
5234.902524
 31
0.0
  0
LINE
  8
1
  6
CONTINUOUS
 62
     4
  5
1A6
 10
1935.879448
 20
5236.585674
 30
0.0
 11
1939.089228
 21
5236.018184
 31
0.0
  0
LINE
  8
1
  6
CONTINUOUS
 62
     4
  5
1A7
 10
1938.091028
 20
5231.411484
 30
0.0
 11
1936.877648
 21
5231.411484
 31
0.0
  0
LINE
  8
1
  6
CONTINUOUS
 62
     4
  5
1A8
 10
1938.091028
 20
5230.902514
 30
0.0
 11
1938.091028
 21
5231.411484
 31
0.0
  0
LINE
  8
1
  6
CONTINUOUS
 62
     4
  5
1A9
 10
1936.877648
 20
5230.902514
 30
0.0
 11
1936.877648
 21
5231.411484
 31
0.0
  0
LINE
  8
1
  6
CONTINUOUS
 62
     4
  5
1AA
 10
1938.091028
 20
5230.902514
 30
0.0
 11
1936.877648
 21
5230.902514
 31
0.0
  0
LINE
  8
1
  6
CONTINUOUS
 62
     4
  5
1AB
 10
1939.484308
 20
5266.370814
 30
0.0
 11
1935.484368
 21
5267.080054
 31
0.0
  0
LINE
  8
1
  6
CONTINUOUS
 62
     4
  5
1AC
 10
1936.093088
 20
5270.025234
 30
0.0
 11
1938.977928
 21
5269.513674
 31
0.0
  0
LINE
  8
1
  6
CONTINUOUS
 62
     4
  5
1AD
 10
1935.879448
 20
5268.525974
 30
0.0
 11
1939.089228
 21
5267.958414
 31
0.0
  0
LINE
  8
1
  6
CONTINUOUS
 62
     4
  5
1AE
 10
1936.385828
 20
5271.489494
 30
0.0
 11
1938.663348
 21
5271.086854
 31
0.0
  0
LINE
  8
40
  6
CONTINUOUS
 62
     4
  5
1AF
 10
1922.820248
 20
5240.902504
 30
0.0
 11
1922.820248
 21
5230.386964
 31
0.0
  0
LINE
  8
40
  6
CONTINUOUS
 62
     4
  5
1B0
 10
1925.320228
 20
5228.270024
 30
0.0
 11
1925.320228
 21
5235.902544
 31
0.0
  0
LINE
  8
40
  6
CONTINUOUS
 62
     4
  5
1B1
 10
1985.525268
 20
5221.902544
 30
0.0
 11
1949.994248
 21
5221.902544
 31
0.0
  0
LINE
  8
40
  6
CONTINUOUS
 62
     4
  5
1B2
 10
1981.795248
 20
5220.902524
 30
0.0
 11
1953.795248
 21
5220.902524
 31
0.0
  0
LINE
  8
40
  6
CONTINUOUS
 62
     4
  5
1B3
 10
1953.210888
 20
5219.902504
 30
0.0
 11
1982.311288
 21
5219.902504
 31
0.0
  0
LINE
  8
40
  6
CONTINUOUS
 62
     4
  5
1B4
 10
1953.649228
 20
5218.902414
 30
0.0
 11
1981.914388
 21
5218.902414
 31
0.0
  0
LINE
  8
12
  6
CONTINUOUS
 62
     4
  5
1B5
 10
1944.408248
 20
5235.902544
 30
0.0
 11
1922.795188
 21
5235.902544
 31
0.0
  0
LINE
  8
12
  6
CONTINUOUS
 62
     4
  5
1B6
 10
2010.295188
 20
5228.294804
 30
0.0
 11
2010.295188
 21
5235.902544
 31
0.0
  0
LINE
  8
12
  6
CONTINUOUS
 62
     4
  5
1B7
 10
1989.445828
 20
5222.914324
 30
0.0
 11
1989.445828
 21
5222.884784
 31
0.0
  0
LINE
  8
12
  6
CONTINUOUS
 62
     4
  5
1B8
 10
1991.163768
 20
5223.357564
 30
0.0
 11
1991.163768
 21
5235.902544
 31
0.0
  0
LINE
  8
12
  6
CONTINUOUS
 62
     4
  5
1B9
 10
1989.451988
 20
5223.009804
 30
0.0
 11
1991.076688
 21
5236.007824
 31
0.0
  0
LINE
  8
12
  6
CONTINUOUS
 62
     4
  5
1BA
 10
1946.126048
 20
5222.808904
 30
0.0
 11
1946.126048
 21
5222.779434
 31
0.0
  0
LINE
  8
12
  6
CONTINUOUS
 62
     4
  5
1BB
 10
1944.408248
 20
5223.252214
 30
0.0
 11
1944.408248
 21
5235.797264
 31
0.0
  0
LINE
  8
12
  6
CONTINUOUS
 62
     4
  5
1BC
 10
1946.119888
 20
5222.904524
 30
0.0
 11
1944.495188
 21
5235.902544
 31
0.0
  0
LINE
  8
12
  6
CONTINUOUS
 62
     4
  5
1BD
 10
1991.063528
 20
5235.902544
 30
0.0
 11
2010.295188
 21
5235.902544
 31
0.0
  0
LINE
  8
12
  6
CONTINUOUS
 62
     4
  5
1BE
 10
1991.063528
 20
5234.902524
 30
0.0
 11
2010.295188
 21
5234.902524
 31
0.0
  0
LINE
  8
12
  6
CONTINUOUS
 62
     4
  5
1BF
 10
1944.408248
 20
5234.902524
 30
0.0
 11
1922.795188
 21
5234.902524
 31
0.0
  0
LINE
  8
12
  6
CONTINUOUS
 62
     4
  5
1C0
 10
1993.856108
 20
5234.902524
 30
0.0
 11
2002.356068
 21
5234.902524
 31
0.0
  0
LINE
  8
12
  6
CONTINUOUS
 62
     4
  5
1C1
 10
2002.356068
 20
5234.902524
 30
0.0
 11
2002.356068
 21
5231.902534
 31
0.0
  0
LINE
  8
12
  6
CONTINUOUS
 62
     4
  5
1C2
 10
1993.856108
 20
5234.902524
 30
0.0
 11
1993.856108
 21
5231.902534
 31
0.0
  0
LINE
  8
12
  6
CONTINUOUS
 62
     4
  5
1C3
 10
1993.856108
 20
5231.902534
 30
0.0
 11
1993.856108
 21
5234.902524
 31
0.0
  0
LINE
  8
12
  6
CONTINUOUS
 62
     4
  5
1C4
 10
2002.356068
 20
5231.902534
 30
0.0
 11
2002.356068
 21
5234.902524
 31
0.0
  0
LINE
  8
12
  6
CONTINUOUS
 62
     4
  5
1C5
 10
2002.356068
 20
5231.902534
 30
0.0
 11
1993.856108
 21
5231.902534
 31
0.0
  0
ARC
  8
12
  6
CONTINUOUS
 62
     4
  5
1C6
 10
1998.106088
 20
5240.433784
 30
0.0
 40
9.53134
 50
243.51896
 51
296.48104
  0
LINE
  8
12
  6
CONTINUOUS
 62
     4
  5
1C7
 10
1996.706088
 20
5234.902524
 30
0.0
 11
1996.706088
 21
5265.902514
 31
0.0
  0
LINE
  8
12
  6
CONTINUOUS
 62
     4
  5
1C8
 10
1999.506088
 20
5234.902524
 30
0.0
 11
1999.506088
 21
5265.902514
 31
0.0
  0
LINE
  8
12
  6
CONTINUOUS
 62
     4
  5
1C9
 10
1996.706088
 20
5265.902514
 30
0.0
 11
1999.506088
 21
5265.902514
 31
0.0
  0
LINE
  8
12
  6
CONTINUOUS
 62
     4
  5
1CA
 10
1998.106088
 20
5272.902514
 30
0.0
 11
1999.506088
 21
5265.902514
 31
0.0
  0
LINE
  8
12
  6
CONTINUOUS
 62
     4
  5
1CB
 10
1998.106088
 20
5272.902514
 30
0.0
 11
1996.706088
 21
5265.902514
 31
0.0
  0
LINE
  8
12
  6
CENTER
 62
     4
  5
1CC
 10
1998.106088
 20
5231.902534
 30
0.0
 11
1998.106088
 21
5272.902514
 31
0.0
  0
LINE
  8
12
  6
CENTER
 62
     4
  5
1CD
 10
1998.106088
 20
5272.902514
 30
0.0
 11
1998.106088
 21
5233.395494
 31
0.0
  0
LINE
  8
12
  6
CONTINUOUS
 62
     4
  5
1CE
 10
1933.234288
 20
5234.902524
 30
0.0
 11
1941.734388
 21
5234.902524
 31
0.0
  0
LINE
  8
12
  6
CONTINUOUS
 62
     4
  5
1CF
 10
1941.734388
 20
5234.902524
 30
0.0
 11
1941.734388
 21
5231.902534
 31
0.0
  0
LINE
  8
12
  6
CONTINUOUS
 62
     4
  5
1D0
 10
1933.234288
 20
5234.902524
 30
0.0
 11
1933.234288
 21
5231.902534
 31
0.0
  0
LINE
  8
12
  6
CONTINUOUS
 62
     4
  5
1D1
 10
1933.234288
 20
5231.902534
 30
0.0
 11
1933.234288
 21
5234.902524
 31
0.0
  0
LINE
  8
12
  6
CONTINUOUS
 62
     4
  5
1D2
 10
1941.734388
 20
5231.902534
 30
0.0
 11
1941.734388
 21
5234.902524
 31
0.0
  0
LINE
  8
12
  6
CONTINUOUS
 62
     4
  5
1D3
 10
1941.734388
 20
5231.902534
 30
0.0
 11
1933.234288
 21
5231.902534
 31
0.0
  0
ARC
  8
12
  6
CONTINUOUS
 62
     4
  5
1D4
 10
1937.484268
 20
5240.433784
 30
0.0
 40
9.53134
 50
243.51896
 51
296.48104
  0
LINE
  8
12
  6
CONTINUOUS
 62
     4
  5
1D5
 10
1936.084268
 20
5234.902524
 30
0.0
 11
1936.084268
 21
5265.902514
 31
0.0
  0
LINE
  8
12
  6
CONTINUOUS
 62
     4
  5
1D6
 10
1938.884268
 20
5234.902524
 30
0.0
 11
1938.884268
 21
5265.902514
 31
0.0
  0
LINE
  8
12
  6
CONTINUOUS
 62
     4
  5
1D7
 10
1936.084268
 20
5265.902514
 30
0.0
 11
1938.884268
 21
5265.902514
 31
0.0
  0
LINE
  8
12
  6
CONTINUOUS
 62
     4
  5
1D8
 10
1937.484268
 20
5272.902514
 30
0.0
 11
1938.884268
 21
5265.902514
 31
0.0
  0
LINE
  8
12
  6
CONTINUOUS
 62
     4
  5
1D9
 10
1937.484268
 20
5272.902514
 30
0.0
 11
1936.084268
 21
5265.902514
 31
0.0
  0
LINE
  8
12
  6
CENTER
 62
     4
  5
1DA
 10
1937.484268
 20
5231.902534
 30
0.0
 11
1937.484268
 21
5272.902514
 31
0.0
  0
LINE
  8
12
  6
CENTER
 62
     4
  5
1DB
 10
1937.484268
 20
5272.902514
 30
0.0
 11
1937.484268
 21
5233.395494
 31
0.0
  0
LINE
  8
12
  6
CONTINUOUS
 62
     4
  5
1DC
 10
1992.397588
 20
5235.149764
 30
0.0
 11
2003.897608
 21
5235.149764
 31
0.0
  0
LINE
  8
12
  6
CONTINUOUS
 62
     4
  5
1DD
 10
1992.397588
 20
5235.949654
 30
0.0
 11
2003.897608
 21
5235.949654
 31
0.0
  0
LINE
  8
12
  6
CONTINUOUS
 62
     4
  5
1DE
 10
1992.397588
 20
5235.149764
 30
0.0
 11
1992.397588
 21
5235.949654
 31
0.0
  0
LINE
  8
12
  6
CONTINUOUS
 62
     4
  5
1DF
 10
1995.397508
 20
5235.149764
 30
0.0
 11
1995.397508
 21
5235.949654
 31
0.0
  0
LINE
  8
12
  6
CONTINUOUS
 62
     4
  5
1E0
 10
2000.897548
 20
5235.149764
 30
0.0
 11
2000.897548
 21
5235.949654
 31
0.0
  0
LINE
  8
12
  6
CONTINUOUS
 62
     4
  5
1E1
 10
2003.897608
 20
5235.149764
 30
0.0
 11
2003.897608
 21
5235.949654
 31
0.0
  0
LINE
  8
12
  6
CONTINUOUS
 62
     4
  5
1E2
 10
1931.779408
 20
5235.149764
 30
0.0
 11
1943.279428
 21
5235.149764
 31
0.0
  0
LINE
  8
12
  6
CONTINUOUS
 62
     4
  5
1E3
 10
1931.779408
 20
5235.949654
 30
0.0
 11
1943.279428
 21
5235.949654
 31
0.0
  0
LINE
  8
12
  6
CONTINUOUS
 62
     4
  5
1E4
 10
1931.779408
 20
5235.149764
 30
0.0
 11
1931.779408
 21
5235.949654
 31
0.0
  0
LINE
  8
12
  6
CONTINUOUS
 62
     4
  5
1E5
 10
1934.779468
 20
5235.149764
 30
0.0
 11
1934.779468
 21
5235.949654
 31
0.0
  0
LINE
  8
12
  6
CONTINUOUS
 62
     4
  5
1E6
 10
1940.279508
 20
5235.149764
 30
0.0
 11
1940.279508
 21
5235.949654
 31
0.0
  0
LINE
  8
12
  6
CONTINUOUS
 62
     4
  5
1E7
 10
1943.279428
 20
5235.149764
 30
0.0
 11
1943.279428
 21
5235.949654
 31
0.0
  0
LINE
  8
8
  6
CONTINUOUS
 62
     4
  5
1E8
 10
1950.794768
 20
5221.695904
 30
0.0
 11
1924.299208
 21
5228.533434
 31
0.0
  0
LINE
  8
8
  6
CONTINUOUS
 62
     4
  5
1E9
 10
1984.607008
 20
5221.665454
 30
0.0
 11
2011.338048
 21
5228.563814
 31
0.0
  0
ARC
  8
8
  6
CONTINUOUS
 62
     4
  5
1EA
 10
1985.762988
 20
5217.866554
 30
0.0
 40
4.00008
 50
104.470294
 51
180.0
  0
LINE
  8
50
  6
CENTER
 62
     4
  5
1EB
 10
1998.147528
 20
5235.149764
 30
0.0
 11
1998.147528
 21
5237.271744
 31
0.0
  0
LINE
  8
50
  6
CENTER
 62
     4
  5
1EC
 10
1937.529488
 20
5235.149764
 30
0.0
 11
1937.529488
 21
5237.271744
 31
0.0
  0
ARC
  8
8
  6
CONTINUOUS
 62
     4
  5
1ED
 10
1949.800768
 20
5217.815664
 30
0.0
 40
4.00008
 50
360.0
 51
75.529706
  0
LINE
  8
40
  6
CONTINUOUS
 62
     4
  5
1EE
 10
2386.634355
 20
5220.902524
 30
0.0
 11
2417.456895
 21
5220.902524
 31
0.0
  0
LINE
  8
40
  6
CONTINUOUS
 62
     4
  5
1EF
 10
2423.700335
 20
5222.902494
 30
0.0
 11
2380.419335
 21
5222.902494
 31
0.0
  0
LINE
  8
40
  6
CONTINUOUS
 62
     4
  5
1F0
 10
2447.095175
 20
5240.902504
 30
0.0
 11
2447.095175
 21
5230.415594
 31
0.0
  0
LINE
  8
40
  6
CONTINUOUS
 62
     4
  5
1F1
 10
2357.095195
 20
5240.902504
 30
0.0
 11
2357.095195
 21
5230.386964
 31
0.0
  0
LINE
  8
40
  6
CONTINUOUS
 62
     4
  5
1F2
 10
2357.841255
 20
5228.902544
 30
0.0
 11
2446.305715
 21
5228.902544
 31
0.0
  0
ARC
  8
40
  6
CONTINUOUS
 62
     4
  5
1F3
 10
2445.095275
 20
5230.518284
 30
0.0
 40
2.00004
 50
284.470295
 51
360.0
  0
ARC
  8
40
  6
CONTINUOUS
 62
     4
  5
1F4
 10
2359.096915
 20
5230.475234
 30
0.0
 40
2.00004
 50
180.0
 51
255.930352
  0
LINE
  8
1
  6
CONTINUOUS
 62
     4
  5
1F5
 10
2434.406135
 20
5248.088564
 30
0.0
 11
2430.406055
 21
5248.783594
 31
0.0
  0
LINE
  8
1
  6
CONTINUOUS
 62
     4
  5
1F6
 10
2434.406135
 20
5251.124884
 30
0.0
 11
2430.406055
 21
5251.834124
 31
0.0
  0
LINE
  8
1
  6
CONTINUOUS
 62
     4
  5
1F7
 10
2434.406135
 20
5254.178004
 30
0.0
 11
2430.406055
 21
5254.887244
 31
0.0
  0
LINE
  8
1
  6
CONTINUOUS
 62
     4
  5
1F8
 10
2434.406135
 20
5257.231124
 30
0.0
 11
2430.406055
 21
5257.940294
 31
0.0
  0
LINE
  8
1
  6
CONTINUOUS
 62
     4
  5
1F9
 10
2434.406135
 20
5260.281584
 30
0.0
 11
2430.406055
 21
5260.976544
 31
0.0
  0
LINE
  8
1
  6
CONTINUOUS
 62
     4
  5
1FA
 10
2434.406135
 20
5263.317694
 30
0.0
 11
2430.406055
 21
5264.026934
 31
0.0
  0
LINE
  8
1
  6
CONTINUOUS
 62
     4
  5
1FB
 10
2430.801275
 20
5247.193404
 30
0.0
 11
2434.010915
 21
5246.625774
 31
0.0
  0
LINE
  8
1
  6
CONTINUOUS
 62
     4
  5
1FC
 10
2430.801275
 20
5250.226854
 30
0.0
 11
2434.010915
 21
5249.659294
 31
0.0
  0
LINE
  8
1
  6
CONTINUOUS
 62
     4
  5
1FD
 10
2430.801275
 20
5253.279974
 30
0.0
 11
2434.010915
 21
5252.712414
 31
0.0
  0
LINE
  8
1
  6
CONTINUOUS
 62
     4
  5
1FE
 10
2430.801275
 20
5256.333094
 30
0.0
 11
2434.010915
 21
5255.765604
 31
0.0
  0
LINE
  8
1
  6
CONTINUOUS
 62
     4
  5
1FF
 10
2430.801275
 20
5259.386284
 30
0.0
 11
2434.010915
 21
5258.818724
 31
0.0
  0
LINE
  8
1
  6
CONTINUOUS
 62
     4
  5
200
 10
2430.801275
 20
5262.419804
 30
0.0
 11
2434.010915
 21
5261.852244
 31
0.0
  0
LINE
  8
1
  6
CONTINUOUS
 62
     4
  5
201
 10
2430.801275
 20
5265.472924
 30
0.0
 11
2434.010915
 21
5264.905294
 31
0.0
  0
LINE
  8
1
  6
CONTINUOUS
 62
     4
  5
202
 10
2434.406135
 20
5245.037194
 30
0.0
 11
2430.406055
 21
5245.741394
 31
0.0
  0
LINE
  8
1
  6
CONTINUOUS
 62
     4
  5
203
 10
2432.406095
 20
5234.902524
 30
0.0
 11
2436.656075
 21
5234.902524
 31
0.0
  0
LINE
  8
1
  6
CONTINUOUS
 62
     4
  5
204
 10
2434.406135
 20
5238.990664
 30
0.0
 11
2430.406055
 21
5239.699904
 31
0.0
  0
LINE
  8
1
  6
CONTINUOUS
 62
     4
  5
205
 10
2434.406135
 20
5242.004514
 30
0.0
 11
2430.406055
 21
5242.713754
 31
0.0
  0
LINE
  8
1
  6
CONTINUOUS
 62
     4
  5
206
 10
2430.801275
 20
5238.112234
 30
0.0
 11
2434.010915
 21
5237.544674
 31
0.0
  0
LINE
  8
1
  6
CONTINUOUS
 62
     4
  5
207
 10
2430.801275
 20
5241.126154
 30
0.0
 11
2434.010915
 21
5240.558594
 31
0.0
  0
LINE
  8
1
  6
CONTINUOUS
 62
     4
  5
208
 10
2430.801275
 20
5244.159744
 30
0.0
 11
2434.010915
 21
5243.592184
 31
0.0
  0
LINE
  8
1
  6
CONTINUOUS
 62
     4
  5
209
 10
2435.009115
 20
5234.902524
 30
0.0
 11
2433.806095
 21
5236.105474
 31
0.0
  0
LINE
  8
1
  6
CONTINUOUS
 62
     4
  5
20A
 10
2435.009115
 20
5234.902524
 30
0.0
 11
2436.656075
 21
5234.902524
 31
0.0
  0
LINE
  8
1
  6
CONTINUOUS
 62
     4
  5
20B
 10
2429.803075
 20
5234.902524
 30
0.0
 11
2431.006095
 21
5236.105474
 31
0.0
  0
LINE
  8
1
  6
CONTINUOUS
 62
     4
  5
20C
 10
2429.803075
 20
5234.902524
 30
0.0
 11
2428.156115
 21
5234.902524
 31
0.0
  0
LINE
  8
1
  6
CONTINUOUS
 62
     4
  5
20D
 10
2430.801275
 20
5236.585674
 30
0.0
 11
2434.010915
 21
5236.018184
 31
0.0
  0
LINE
  8
1
  6
CONTINUOUS
 62
     4
  5
20E
 10
2433.012855
 20
5231.411484
 30
0.0
 11
2431.799335
 21
5231.411484
 31
0.0
  0
LINE
  8
1
  6
CONTINUOUS
 62
     4
  5
20F
 10
2433.012855
 20
5230.902514
 30
0.0
 11
2433.012855
 21
5231.411484
 31
0.0
  0
LINE
  8
1
  6
CONTINUOUS
 62
     4
  5
210
 10
2431.799335
 20
5230.902514
 30
0.0
 11
2431.799335
 21
5231.411484
 31
0.0
  0
LINE
  8
1
  6
CONTINUOUS
 62
     4
  5
211
 10
2433.012855
 20
5230.902514
 30
0.0
 11
2431.799335
 21
5230.902514
 31
0.0
  0
LINE
  8
1
  6
CONTINUOUS
 62
     4
  5
212
 10
2434.406135
 20
5266.370814
 30
0.0
 11
2430.406055
 21
5267.080054
 31
0.0
  0
LINE
  8
1
  6
CONTINUOUS
 62
     4
  5
213
 10
2431.014775
 20
5270.025234
 30
0.0
 11
2433.899755
 21
5269.513674
 31
0.0
  0
LINE
  8
1
  6
CONTINUOUS
 62
     4
  5
214
 10
2430.801275
 20
5268.525974
 30
0.0
 11
2434.010915
 21
5267.958414
 31
0.0
  0
LINE
  8
1
  6
CONTINUOUS
 62
     4
  5
215
 10
2431.307655
 20
5271.489494
 30
0.0
 11
2433.585035
 21
5271.086854
 31
0.0
  0
LINE
  8
1
  6
CONTINUOUS
 62
     4
  5
216
 10
2373.784315
 20
5248.088564
 30
0.0
 11
2369.784375
 21
5248.783594
 31
0.0
  0
LINE
  8
1
  6
CONTINUOUS
 62
     4
  5
217
 10
2373.784315
 20
5251.124884
 30
0.0
 11
2369.784375
 21
5251.834124
 31
0.0
  0
LINE
  8
1
  6
CONTINUOUS
 62
     4
  5
218
 10
2373.784315
 20
5254.178004
 30
0.0
 11
2369.784375
 21
5254.887244
 31
0.0
  0
LINE
  8
1
  6
CONTINUOUS
 62
     4
  5
219
 10
2373.784315
 20
5257.231124
 30
0.0
 11
2369.784375
 21
5257.940294
 31
0.0
  0
LINE
  8
1
  6
CONTINUOUS
 62
     4
  5
21A
 10
2373.784315
 20
5260.281584
 30
0.0
 11
2369.784375
 21
5260.976544
 31
0.0
  0
LINE
  8
1
  6
CONTINUOUS
 62
     4
  5
21B
 10
2373.784315
 20
5263.317694
 30
0.0
 11
2369.784375
 21
5264.026934
 31
0.0
  0
LINE
  8
1
  6
CONTINUOUS
 62
     4
  5
21C
 10
2370.179455
 20
5247.193404
 30
0.0
 11
2373.389235
 21
5246.625774
 31
0.0
  0
LINE
  8
1
  6
CONTINUOUS
 62
     4
  5
21D
 10
2370.179455
 20
5250.226854
 30
0.0
 11
2373.389235
 21
5249.659294
 31
0.0
  0
LINE
  8
1
  6
CONTINUOUS
 62
     4
  5
21E
 10
2370.179455
 20
5253.279974
 30
0.0
 11
2373.389235
 21
5252.712414
 31
0.0
  0
LINE
  8
1
  6
CONTINUOUS
 62
     4
  5
21F
 10
2370.179455
 20
5256.333094
 30
0.0
 11
2373.389235
 21
5255.765604
 31
0.0
  0
LINE
  8
1
  6
CONTINUOUS
 62
     4
  5
220
 10
2370.179455
 20
5259.386284
 30
0.0
 11
2373.389235
 21
5258.818724
 31
0.0
  0
LINE
  8
1
  6
CONTINUOUS
 62
     4
  5
221
 10
2370.179455
 20
5262.419804
 30
0.0
 11
2373.389235
 21
5261.852244
 31
0.0
  0
LINE
  8
1
  6
CONTINUOUS
 62
     4
  5
222
 10
2370.179455
 20
5265.472924
 30
0.0
 11
2373.389235
 21
5264.905294
 31
0.0
  0
LINE
  8
1
  6
CONTINUOUS
 62
     4
  5
223
 10
2373.784315
 20
5245.037194
 30
0.0
 11
2369.784375
 21
5245.741394
 31
0.0
  0
LINE
  8
1
  6
CONTINUOUS
 62
     4
  5
224
 10
2371.784275
 20
5234.902524
 30
0.0
 11
2376.034395
 21
5234.902524
 31
0.0
  0
LINE
  8
1
  6
CONTINUOUS
 62
     4
  5
225
 10
2373.784315
 20
5238.990664
 30
0.0
 11
2369.784375
 21
5239.699904
 31
0.0
  0
LINE
  8
1
  6
CONTINUOUS
 62
     4
  5
226
 10
2373.784315
 20
5242.004514
 30
0.0
 11
2369.784375
 21
5242.713754
 31
0.0
  0
LINE
  8
1
  6
CONTINUOUS
 62
     4
  5
227
 10
2370.179455
 20
5238.112234
 30
0.0
 11
2373.389235
 21
5237.544674
 31
0.0
  0
LINE
  8
1
  6
CONTINUOUS
 62
     4
  5
228
 10
2370.179455
 20
5241.126154
 30
0.0
 11
2373.389235
 21
5240.558594
 31
0.0
  0
LINE
  8
1
  6
CONTINUOUS
 62
     4
  5
229
 10
2370.179455
 20
5244.159744
 30
0.0
 11
2373.389235
 21
5243.592184
 31
0.0
  0
LINE
  8
1
  6
CONTINUOUS
 62
     4
  5
22A
 10
2374.387295
 20
5234.902524
 30
0.0
 11
2373.184275
 21
5236.105474
 31
0.0
  0
LINE
  8
1
  6
CONTINUOUS
 62
     4
  5
22B
 10
2374.387295
 20
5234.902524
 30
0.0
 11
2376.034395
 21
5234.902524
 31
0.0
  0
LINE
  8
1
  6
CONTINUOUS
 62
     4
  5
22C
 10
2369.181395
 20
5234.902524
 30
0.0
 11
2370.384275
 21
5236.105474
 31
0.0
  0
LINE
  8
1
  6
CONTINUOUS
 62
     4
  5
22D
 10
2369.181395
 20
5234.902524
 30
0.0
 11
2367.534295
 21
5234.902524
 31
0.0
  0
LINE
  8
1
  6
CONTINUOUS
 62
     4
  5
22E
 10
2370.179455
 20
5236.585674
 30
0.0
 11
2373.389235
 21
5236.018184
 31
0.0
  0
LINE
  8
1
  6
CONTINUOUS
 62
     4
  5
22F
 10
2372.391035
 20
5231.411484
 30
0.0
 11
2371.177655
 21
5231.411484
 31
0.0
  0
LINE
  8
1
  6
CONTINUOUS
 62
     4
  5
230
 10
2372.391035
 20
5230.902514
 30
0.0
 11
2372.391035
 21
5231.411484
 31
0.0
  0
LINE
  8
1
  6
CONTINUOUS
 62
     4
  5
231
 10
2371.177655
 20
5230.902514
 30
0.0
 11
2371.177655
 21
5231.411484
 31
0.0
  0
LINE
  8
1
  6
CONTINUOUS
 62
     4
  5
232
 10
2372.391035
 20
5230.902514
 30
0.0
 11
2371.177655
 21
5230.902514
 31
0.0
  0
LINE
  8
1
  6
CONTINUOUS
 62
     4
  5
233
 10
2373.784315
 20
5266.370814
 30
0.0
 11
2369.784375
 21
5267.080054
 31
0.0
  0
LINE
  8
1
  6
CONTINUOUS
 62
     4
  5
234
 10
2370.393095
 20
5270.025234
 30
0.0
 11
2373.277935
 21
5269.513674
 31
0.0
  0
LINE
  8
1
  6
CONTINUOUS
 62
     4
  5
235
 10
2370.179455
 20
5268.525974
 30
0.0
 11
2373.389235
 21
5267.958414
 31
0.0
  0
LINE
  8
1
  6
CONTINUOUS
 62
     4
  5
236
 10
2370.685835
 20
5271.489494
 30
0.0
 11
2372.963355
 21
5271.086854
 31
0.0
  0
LINE
  8
40
  6
CONTINUOUS
 62
     4
  5
237
 10
2357.120255
 20
5240.902504
 30
0.0
 11
2357.120255
 21
5230.386964
 31
0.0
  0
LINE
  8
40
  6
CONTINUOUS
 62
     4
  5
238
 10
2359.620235
 20
5228.270024
 30
0.0
 11
2359.620235
 21
5235.902544
 31
0.0
  0
LINE
  8
40
  6
CONTINUOUS
 62
     4
  5
239
 10
2419.825275
 20
5221.902544
 30
0.0
 11
2384.294255
 21
5221.902544
 31
0.0
  0
LINE
  8
40
  6
CONTINUOUS
 62
     4
  5
23A
 10
2416.095255
 20
5220.902524
 30
0.0
 11
2388.095255
 21
5220.902524
 31
0.0
  0
LINE
  8
40
  6
CONTINUOUS
 62
     4
  5
23B
 10
2387.510895
 20
5219.902504
 30
0.0
 11
2416.611295
 21
5219.902504
 31
0.0
  0
LINE
  8
40
  6
CONTINUOUS
 62
     4
  5
23C
 10
2387.949235
 20
5218.902414
 30
0.0
 11
2416.214395
 21
5218.902414
 31
0.0
  0
LINE
  8
12
  6
CONTINUOUS
 62
     4
  5
23D
 10
2378.708255
 20
5235.902544
 30
0.0
 11
2357.095195
 21
5235.902544
 31
0.0
  0
LINE
  8
12
  6
CONTINUOUS
 62
     4
  5
23E
 10
2444.595195
 20
5228.294804
 30
0.0
 11
2444.595195
 21
5235.902544
 31
0.0
  0
LINE
  8
12
  6
CONTINUOUS
 62
     4
  5
23F
 10
2423.745835
 20
5222.914324
 30
0.0
 11
2423.745835
 21
5222.884784
 31
0.0
  0
LINE
  8
12
  6
CONTINUOUS
 62
     4
  5
240
 10
2425.463775
 20
5223.357564
 30
0.0
 11
2425.463775
 21
5235.902544
 31
0.0
  0
LINE
  8
12
  6
CONTINUOUS
 62
     4
  5
241
 10
2423.751995
 20
5223.009804
 30
0.0
 11
2425.376695
 21
5236.007824
 31
0.0
  0
LINE
  8
12
  6
CONTINUOUS
 62
     4
  5
242
 10
2380.426055
 20
5222.808904
 30
0.0
 11
2380.426055
 21
5222.779434
 31
0.0
  0
LINE
  8
12
  6
CONTINUOUS
 62
     4
  5
243
 10
2378.708255
 20
5223.252214
 30
0.0
 11
2378.708255
 21
5235.797264
 31
0.0
  0
LINE
  8
12
  6
CONTINUOUS
 62
     4
  5
244
 10
2380.419895
 20
5222.904524
 30
0.0
 11
2378.795195
 21
5235.902544
 31
0.0
  0
LINE
  8
12
  6
CONTINUOUS
 62
     4
  5
245
 10
2425.363535
 20
5235.902544
 30
0.0
 11
2444.595195
 21
5235.902544
 31
0.0
  0
LINE
  8
12
  6
CONTINUOUS
 62
     4
  5
246
 10
2425.363535
 20
5234.902524
 30
0.0
 11
2444.595195
 21
5234.902524
 31
0.0
  0
LINE
  8
12
  6
CONTINUOUS
 62
     4
  5
247
 10
2378.708255
 20
5234.902524
 30
0.0
 11
2357.095195
 21
5234.902524
 31
0.0
  0
LINE
  8
12
  6
CONTINUOUS
 62
     4
  5
248
 10
2428.156115
 20
5234.902524
 30
0.0
 11
2436.656075
 21
5234.902524
 31
0.0
  0
LINE
  8
12
  6
CONTINUOUS
 62
     4
  5
249
 10
2436.656075
 20
5234.902524
 30
0.0
 11
2436.656075
 21
5231.902534
 31
0.0
  0
LINE
  8
12
  6
CONTINUOUS
 62
     4
  5
24A
 10
2428.156115
 20
5234.902524
 30
0.0
 11
2428.156115
 21
5231.902534
 31
0.0
  0
LINE
  8
12
  6
CONTINUOUS
 62
     4
  5
24B
 10
2428.156115
 20
5231.902534
 30
0.0
 11
2428.156115
 21
5234.902524
 31
0.0
  0
LINE
  8
12
  6
CONTINUOUS
 62
     4
  5
24C
 10
2436.656075
 20
5231.902534
 30
0.0
 11
2436.656075
 21
5234.902524
 31
0.0
  0
LINE
  8
12
  6
CONTINUOUS
 62
     4
  5
24D
 10
2436.656075
 20
5231.902534
 30
0.0
 11
2428.156115
 21
5231.902534
 31
0.0
  0
ARC
  8
12
  6
CONTINUOUS
 62
     4
  5
24E
 10
2432.406095
 20
5240.433784
 30
0.0
 40
9.53134
 50
243.51896
 51
296.48104
  0
LINE
  8
12
  6
CONTINUOUS
 62
     4
  5
24F
 10
2431.006095
 20
5234.902524
 30
0.0
 11
2431.006095
 21
5265.902514
 31
0.0
  0
LINE
  8
12
  6
CONTINUOUS
 62
     4
  5
250
 10
2433.806095
 20
5234.902524
 30
0.0
 11
2433.806095
 21
5265.902514
 31
0.0
  0
LINE
  8
12
  6
CONTINUOUS
 62
     4
  5
251
 10
2431.006095
 20
5265.902514
 30
0.0
 11
2433.806095
 21
5265.902514
 31
0.0
  0
LINE
  8
12
  6
CONTINUOUS
 62
     4
  5
252
 10
2432.406095
 20
5272.902514
 30
0.0
 11
2433.806095
 21
5265.902514
 31
0.0
  0
LINE
  8
12
  6
CONTINUOUS
 62
     4
  5
253
 10
2432.406095
 20
5272.902514
 30
0.0
 11
2431.006095
 21
5265.902514
 31
0.0
  0
LINE
  8
12
  6
CENTER
 62
     4
  5
254
 10
2432.406095
 20
5231.902534
 30
0.0
 11
2432.406095
 21
5272.902514
 31
0.0
  0
LINE
  8
12
  6
CENTER
 62
     4
  5
255
 10
2432.406095
 20
5272.902514
 30
0.0
 11
2432.406095
 21
5233.395494
 31
0.0
  0
LINE
  8
12
  6
CONTINUOUS
 62
     4
  5
256
 10
2367.534295
 20
5234.902524
 30
0.0
 11
2376.034395
 21
5234.902524
 31
0.0
  0
LINE
  8
12
  6
CONTINUOUS
 62
     4
  5
257
 10
2376.034395
 20
5234.902524
 30
0.0
 11
2376.034395
 21
5231.902534
 31
0.0
  0
LINE
  8
12
  6
CONTINUOUS
 62
     4
  5
258
 10
2367.534295
 20
5234.902524
 30
0.0
 11
2367.534295
 21
5231.902534
 31
0.0
  0
LINE
  8
12
  6
CONTINUOUS
 62
     4
  5
259
 10
2367.534295
 20
5231.902534
 30
0.0
 11
2367.534295
 21
5234.902524
 31
0.0
  0
LINE
  8
12
  6
CONTINUOUS
 62
     4
  5
25A
 10
2376.034395
 20
5231.902534
 30
0.0
 11
2376.034395
 21
5234.902524
 31
0.0
  0
LINE
  8
12
  6
CONTINUOUS
 62
     4
  5
25B
 10
2376.034395
 20
5231.902534
 30
0.0
 11
2367.534295
 21
5231.902534
 31
0.0
  0
ARC
  8
12
  6
CONTINUOUS
 62
     4
  5
25C
 10
2371.784275
 20
5240.433784
 30
0.0
 40
9.53134
 50
243.51896
 51
296.48104
  0
LINE
  8
12
  6
CONTINUOUS
 62
     4
  5
25D
 10
2370.384275
 20
5234.902524
 30
0.0
 11
2370.384275
 21
5265.902514
 31
0.0
  0
LINE
  8
12
  6
CONTINUOUS
 62
     4
  5
25E
 10
2373.184275
 20
5234.902524
 30
0.0
 11
2373.184275
 21
5265.902514
 31
0.0
  0
LINE
  8
12
  6
CONTINUOUS
 62
     4
  5
25F
 10
2370.384275
 20
5265.902514
 30
0.0
 11
2373.184275
 21
5265.902514
 31
0.0
  0
LINE
  8
12
  6
CONTINUOUS
 62
     4
  5
260
 10
2371.784275
 20
5272.902514
 30
0.0
 11
2373.184275
 21
5265.902514
 31
0.0
  0
LINE
  8
12
  6
CONTINUOUS
 62
     4
  5
261
 10
2371.784275
 20
5272.902514
 30
0.0
 11
2370.384275
 21
5265.902514
 31
0.0
  0
LINE
  8
12
  6
CENTER
 62
     4
  5
262
 10
2371.784275
 20
5231.902534
 30
0.0
 11
2371.784275
 21
5272.902514
 31
0.0
  0
LINE
  8
12
  6
CENTER
 62
     4
  5
263
 10
2371.784275
 20
5272.902514
 30
0.0
 11
2371.784275
 21
5233.395494
 31
0.0
  0
LINE
  8
12
  6
CONTINUOUS
 62
     4
  5
264
 10
2426.697595
 20
5235.149764
 30
0.0
 11
2438.197615
 21
5235.149764
 31
0.0
  0
LINE
  8
12
  6
CONTINUOUS
 62
     4
  5
265
 10
2426.697595
 20
5235.949654
 30
0.0
 11
2438.197615
 21
5235.949654
 31
0.0
  0
LINE
  8
12
  6
CONTINUOUS
 62
     4
  5
266
 10
2426.697595
 20
5235.149764
 30
0.0
 11
2426.697595
 21
5235.949654
 31
0.0
  0
LINE
  8
12
  6
CONTINUOUS
 62
     4
  5
267
 10
2429.697515
 20
5235.149764
 30
0.0
 11
2429.697515
 21
5235.949654
 31
0.0
  0
LINE
  8
12
  6
CONTINUOUS
 62
     4
  5
268
 10
2435.197555
 20
5235.149764
 30
0.0
 11
2435.197555
 21
5235.949654
 31
0.0
  0
LINE
  8
12
  6
CONTINUOUS
 62
     4
  5
269
 10
2438.197615
 20
5235.149764
 30
0.0
 11
2438.197615
 21
5235.949654
 31
0.0
  0
LINE
  8
12
  6
CONTINUOUS
 62
     4
  5
26A
 10
2366.079415
 20
5235.149764
 30
0.0
 11
2377.579435
 21
5235.149764
 31
0.0
  0
LINE
  8
12
  6
CONTINUOUS
 62
     4
  5
26B
 10
2366.079415
 20
5235.949654
 30
0.0
 11
2377.579435
 21
5235.949654
 31
0.0
  0
LINE
  8
12
  6
CONTINUOUS
 62
     4
  5
26C
 10
2366.079415
 20
5235.149764
 30
0.0
 11
2366.079415
 21
5235.949654
 31
0.0
  0
LINE
  8
12
  6
CONTINUOUS
 62
     4
  5
26D
 10
2369.079475
 20
5235.149764
 30
0.0
 11
2369.079475
 21
5235.949654
 31
0.0
  0
LINE
  8
12
  6
CONTINUOUS
 62
     4
  5
26E
 10
2374.579515
 20
5235.149764
 30
0.0
 11
2374.579515
 21
5235.949654
 31
0.0
  0
LINE
  8
12
  6
CONTINUOUS
 62
     4
  5
26F
 10
2377.579435
 20
5235.149764
 30
0.0
 11
2377.579435
 21
5235.949654
 31
0.0
  0
LINE
  8
8
  6
CONTINUOUS
 62
     4
  5
270
 10
2385.094775
 20
5221.695904
 30
0.0
 11
2358.599215
 21
5228.533434
 31
0.0
  0
LINE
  8
8
  6
CONTINUOUS
 62
     4
  5
271
 10
2418.907015
 20
5221.665454
 30
0.0
 11
2445.638055
 21
5228.563814
 31
0.0
  0
ARC
  8
8
  6
CONTINUOUS
 62
     4
  5
272
 10
2420.062995
 20
5217.866554
 30
0.0
 40
4.00008
 50
104.470294
 51
180.0
  0
LINE
  8
50
  6
CENTER
 62
     4
  5
273
 10
2432.447535
 20
5235.149764
 30
0.0
 11
2432.447535
 21
5237.271744
 31
0.0
  0
LINE
  8
50
  6
CENTER
 62
     4
  5
274
 10
2371.829495
 20
5235.149764
 30
0.0
 11
2371.829495
 21
5237.271744
 31
0.0
  0
ARC
  8
8
  6
CONTINUOUS
 62
     4
  5
275
 10
2384.100775
 20
5217.815664
 30
0.0
 40
4.00008
 50
360.0
 51
75.529706
  0
LINE
  8
7
  6
CONTINUOUS
 62
     3
  5
276
 10
2416.495175
 20
5225.952394
 30
0.0
 11
2416.495175
 21
5195.902184
 31
0.0
  0
LINE
  8
40
  6
DOT
 62
     3
  5
277
 10
2394.995235
 20
5189.902204
 30
0.0
 11
2409.995255
 21
5189.902204
 31
0.0
  0
LINE
  8
40
  6
DOT
 62
     3
  5
278
 10
2394.995235
 20
5189.902204
 30
0.0
 11
2394.995235
 21
5195.902324
 31
0.0
  0
LINE
  8
40
  6
DOT
 62
     3
  5
279
 10
2409.995255
 20
5189.902204
 30
0.0
 11
2409.995255
 21
5195.902324
 31
0.0
  0
LINE
  8
40
  6
CONTINUOUS
 62
     4
  5
27A
 10
2416.495175
 20
5195.902184
 30
0.0
 11
2416.495175
 21
5218.486517
 31
0.0
  0
LINE
  8
40
  6
CONTINUOUS
 62
     4
  5
27B
 10
2388.495175
 20
5195.902184
 30
0.0
 11
2388.495175
 21
5218.486517
 31
0.0
  0
LINE
  8
40
  6
CONTINUOUS
 62
     4
  5
27C
 10
2416.495175
 20
5195.902324
 30
0.0
 11
2388.495175
 21
5195.902324
 31
0.0
  0
LINE
  8
40
  6
DOT
 62
     3
  5
27D
 10
1979.228588
 20
5189.902204
 30
0.0
 11
1964.228568
 21
5189.902204
 31
0.0
  0
LINE
  8
40
  6
DOT
 62
     3
  5
27E
 10
1979.228588
 20
5189.902204
 30
0.0
 11
1979.228588
 21
5195.902324
 31
0.0
  0
LINE
  8
40
  6
DOT
 62
     3
  5
27F
 10
1964.228568
 20
5189.902204
 30
0.0
 11
1964.228568
 21
5195.902324
 31
0.0
  0
LINE
  8
40
  6
CONTINUOUS
 62
     4
  5
280
 10
1985.728648
 20
5195.902184
 30
0.0
 11
1985.728648
 21
5218.486517
 31
0.0
  0
LINE
  8
7
  6
CONTINUOUS
 62
     4
  5
281
 10
1957.728648
 20
5225.952394
 30
0.0
 11
1957.728648
 21
5195.902184
 31
0.0
  0
LINE
  8
7
  6
CONTINUOUS
 62
     4
  5
282
 10
1957.728648
 20
5170.860343
 30
0.0
 11
2416.495175
 21
5170.860343
 31
0.0
  0
ARC
  8
7
  6
CONTINUOUS
 62
     4
  5
283
 10
1957.728648
 20
5180.87708
 30
0.0
 40
10.016736
 50
180.0
 51
270.0
  0
LINE
  8
7
  6
CONTINUOUS
 62
     4
  5
284
 10
1947.711912
 20
5180.87708
 30
0.0
 11
1947.711912
 21
5195.902184
 31
0.0
  0
LINE
  8
40
  6
CONTINUOUS
 62
     4
  5
285
 10
1957.728648
 20
5195.902184
 30
0.0
 11
1957.728648
 21
5218.486517
 31
0.0
  0
LINE
  8
40
  6
CONTINUOUS
 62
     4
  5
286
 10
1957.728648
 20
5195.902324
 30
0.0
 11
1985.728648
 21
5195.902324
 31
0.0
  0
LINE
  8
7
  6
CONTINUOUS
 62
     4
  5
287
 10
2426.511912
 20
5180.87708
 30
0.0
 11
2426.511912
 21
5195.902184
 31
0.0
  0
LINE
  8
7
  6
CONTINUOUS
 62
     4
  5
288
 10
1947.711912
 20
5195.902184
 30
0.0
 11
2426.511912
 21
5195.902184
 31
0.0
  0
ARC
  8
7
  6
CONTINUOUS
 62
     4
  5
289
 10
2416.495175
 20
5180.87708
 30
0.0
 40
10.016736
 50
270.0
 51
360.0
  0
LINE
  8
5
  6
CONTINUOUS
 62
     3
  5
28A
 10
2169.687636
 20
5020.860343
 30
0.0
 11
1759.687636
 21
5020.860343
 31
0.0
  0
TEXT
  8
5
  6
CONTINUOUS
 62
     3
  5
28B
 10
1785.868816
 20
5020.860343
 30
0.0
 40
60.0
  1
テスリックス
 41
0.837
  7

 72
     5
 11
2145.868816
 21
5020.860343
 31
0.0
  0
LINE
  8
21
  6
CONTINUOUS
 62
     4
  5
28C
 10
2955.15656
 20
4469.030489
 30
0.0
 11
2955.15656
 21
5246.03035
 31
0.0
  0
LINE
  8
21
  6
CONTINUOUS
 62
     4
  5
28D
 10
1355.156845
 20
4494.030485
 30
0.0
 11
1649.156793
 21
4494.030485
 31
0.0
  0
LINE
  8
24
  6
CONTINUOUS
 62
     4
  5
28E
 10
1355.156845
 20
4147.030547
 30
0.0
 11
1355.156845
 21
4494.030485
 31
0.0
  0
LINE
  8
24
  6
CONTINUOUS
 62
     4
  5
28F
 10
1355.156845
 20
5342.030333
 30
0.0
 11
3169.15652
 21
5342.030333
 31
0.0
  0
LINE
  8
24
  6
CONTINUOUS
 62
     4
  5
290
 10
1355.156845
 20
5246.03035
 30
0.0
 11
1355.156845
 21
5342.030333
 31
0.0
  0
LINE
  8
24
  6
CONTINUOUS
 62
     4
  5
291
 10
2955.15656
 20
5246.03035
 30
0.0
 11
1355.156845
 21
5246.03035
 31
0.0
  0
TEXT
  8
5
  6
CONTINUOUS
 62
     3
  5
292
 10
2080.800491
 20
3694.054884
 30
0.0
 40
90.0
  1
平面図
 41
0.837
  7

 72
     5
 11
2350.800491
 21
3694.054884
 31
0.0
  0
TEXT
  8
5
  6
CONTINUOUS
 62
     3
  5
293
 10
1910.083504
 20
506.237859
 30
0.0
 40
90.0
  1
テスリックス
 41
0.837
  7

 72
     5
 11
2450.083504
 21
506.237859
 31
0.0
  0
TEXT
  8
5
  6
CONTINUOUS
 62
     3
  5
294
 10
1910.083504
 20
416.237859
 30
0.0
 40
90.0
  1
取付側展開図
 41
0.837
  7

 72
     5
 11
2450.083504
 21
416.237859
 31
0.0
  0
LINE
  8
6
  6
CONTINUOUS
 62
     6
  5
295
 10
2088.676826
 20
1161.909809
 30
0.0
 11
2091.440526
 21
1161.909809
 31
0.0
  0
LINE
  8
21
  6
CONTINUOUS
 62
     4
  5
296
 10
2955.15656
 20
671.238109
 30
0.0
 11
2955.15656
 21
2971.238109
 31
0.0
  0
LINE
  8
24
  6
CONTINUOUS
 62
     4
  5
297
 10
2955.15656
 20
2971.238109
 30
0.0
 11
1455.156827
 21
2971.238109
 31
0.0
  0
LINE
  8
21
  6
CONTINUOUS
 62
     4
  5
298
 10
1455.156827
 20
671.238109
 30
0.0
 11
1455.156827
 21
2971.238109
 31
0.0
  0
LINE
  8
24
  6
CONTINUOUS
 62
     4
  5
299
 10
2955.15656
 20
671.238109
 30
0.0
 11
1455.156827
 21
671.238109
 31
0.0
  0
LINE
  8
5
  6
CONTINUOUS
 62
     3
  5
29A
 10
2256.290176
 20
5170.860343
 30
0.0
 11
2169.687636
 21
5020.860343
 31
0.0
  0
LINE
  8
2
  6
CONTINUOUS
 62
     6
  5
29B
 10
2784.15659
 20
5130.030371
 30
0.0
 11
2909.156568
 21
5130.030371
 31
0.0
  0
LINE
  8
2
  6
CONTINUOUS
 62
     6
  5
29C
 10
2784.15659
 20
4710.030446
 30
0.0
 11
2909.156568
 21
4710.030446
 31
0.0
  0
LINE
  8
2
  6
CONTINUOUS
 62
     6
  5
29D
 10
2929.156565
 20
4730.030443
 30
0.0
 11
2929.156565
 21
5110.030375
 31
0.0
  0
LINE
  8
2
  6
CONTINUOUS
 62
     6
  5
29E
 10
2734.156599
 20
5080.03038
 30
0.0
 11
2734.156599
 21
4760.030437
 31
0.0
  0
LINE
  8
2
  6
CONTINUOUS
 62
     6
  5
29F
 10
2734.156599
 20
5065.030383
 30
0.0
 11
2439.156652
 21
5103.030376
 31
0.0
  0
LINE
  8
2
  6
CONTINUOUS
 62
     6
  5
2A0
 10
2734.156599
 20
4775.030435
 30
0.0
 11
2439.156652
 21
4737.030441
 31
0.0
  0
LINE
  8
2
  6
CONTINUOUS
 62
     6
  5
2A1
 10
2924.156565
 20
5230.030353
 30
0.0
 11
2924.156565
 21
5190.03036
 31
0.0
  0
LINE
  8
2
  6
CONTINUOUS
 62
     6
  5
2A2
 10
2924.156565
 20
4650.030457
 30
0.0
 11
2924.156565
 21
4610.030464
 31
0.0
  0
LINE
  8
2
  6
CONTINUOUS
 62
     6
  5
2A3
 10
2629.156618
 20
5020.030391
 30
0.0
 11
2629.156618
 21
4820.030427
 31
0.0
  0
LINE
  8
2
  6
CONTINUOUS
 62
     6
  5
2A4
 10
2904.156569
 20
5210.030357
 30
0.0
 11
2969.156557
 21
5210.030357
 31
0.0
  0
ARC
  8
2
  6
CONTINUOUS
 62
     6
  5
2A5
 10
2909.156568
 20
5110.030375
 30
0.0
 40
19.999996
 50
360.0
 51
90.0
  0
ARC
  8
2
  6
CONTINUOUS
 62
     6
  5
2A6
 10
2909.156568
 20
4730.030443
 30
0.0
 40
19.999996
 50
270.0
 51
360.0
  0
ARC
  8
2
  6
CONTINUOUS
 62
     6
  5
2A7
 10
2784.15659
 20
4760.030437
 30
0.0
 40
49.999991
 50
180.0
 51
270.0
  0
ARC
  8
2
  6
CONTINUOUS
 62
     6
  5
2A8
 10
2784.15659
 20
5080.03038
 30
0.0
 40
49.999991
 50
90.0
 51
180.0
  0
LINE
  8
2
  6
CONTINUOUS
 62
     6
  5
2A9
 10
2439.156652
 20
5103.030376
 30
0.0
 11
2396.15666
 21
5100.030376
 31
0.0
  0
LINE
  8
2
  6
CONTINUOUS
 62
     6
  5
2AA
 10
2396.15666
 20
5100.030376
 30
0.0
 11
2354.156667
 21
5092.030378
 31
0.0
  0
LINE
  8
2
  6
CONTINUOUS
 62
     6
  5
2AB
 10
2354.156667
 20
5092.030378
 30
0.0
 11
2314.156675
 21
5079.03038
 31
0.0
  0
LINE
  8
2
  6
CONTINUOUS
 62
     6
  5
2AC
 10
2314.156675
 20
5079.03038
 30
0.0
 11
2278.156681
 21
5060.030384
 31
0.0
  0
LINE
  8
2
  6
CONTINUOUS
 62
     6
  5
2AD
 10
2278.156681
 20
5060.030384
 30
0.0
 11
2248.156686
 21
5038.030388
 31
0.0
  0
LINE
  8
2
  6
CONTINUOUS
 62
     6
  5
2AE
 10
2248.156686
 20
5038.030388
 30
0.0
 11
2223.156691
 21
5012.030392
 31
0.0
  0
LINE
  8
2
  6
CONTINUOUS
 62
     6
  5
2AF
 10
2223.156691
 20
5012.030392
 30
0.0
 11
2204.156694
 21
4983.030397
 31
0.0
  0
LINE
  8
2
  6
CONTINUOUS
 62
     6
  5
2B0
 10
2204.156694
 20
4858.03042
 30
0.0
 11
2223.156691
 21
4829.030425
 31
0.0
  0
LINE
  8
2
  6
CONTINUOUS
 62
     6
  5
2B1
 10
2223.156691
 20
4829.030425
 30
0.0
 11
2248.156686
 21
4803.03043
 31
0.0
  0
LINE
  8
2
  6
CONTINUOUS
 62
     6
  5
2B2
 10
2278.156681
 20
4780.030434
 30
0.0
 11
2314.156675
 21
4762.030437
 31
0.0
  0
LINE
  8
2
  6
CONTINUOUS
 62
     6
  5
2B3
 10
2314.156675
 20
4762.030437
 30
0.0
 11
2354.156667
 21
4748.030439
 31
0.0
  0
LINE
  8
2
  6
CONTINUOUS
 62
     6
  5
2B4
 10
2354.156667
 20
4748.030439
 30
0.0
 11
2396.15666
 21
4740.030441
 31
0.0
  0
LINE
  8
2
  6
CONTINUOUS
 62
     6
  5
2B5
 10
2396.15666
 20
4740.030441
 30
0.0
 11
2439.156652
 21
4737.030441
 31
0.0
  0
ARC
  8
2
  6
CONTINUOUS
 62
     6
  5
2B6
 10
2166.156701
 20
4219.030534
 30
0.0
 40
925.999834
 50
59.97
 51
72.83
  0
ARC
  8
2
  6
CONTINUOUS
 62
     6
  5
2B7
 10
2166.156701
 20
5622.030283
 30
0.0
 40
925.999834
 50
287.17
 51
300.03
  0
LINE
  8
2
  6
CONTINUOUS
 62
     6
  5
2B8
 10
2904.156569
 20
4630.030461
 30
0.0
 11
2969.156557
 21
4630.030461
 31
0.0
  0
LINE
  8
2
  6
CONTINUOUS
 62
     6
  5
2B9
 10
2204.156694
 20
4983.030397
 30
0.0
 11
2193.156696
 21
4952.030403
 31
0.0
  0
LINE
  8
2
  6
CONTINUOUS
 62
     6
  5
2BA
 10
2193.156696
 20
4952.030403
 30
0.0
 11
2189.156697
 21
4920.030409
 31
0.0
  0
LINE
  8
2
  6
CONTINUOUS
 62
     6
  5
2BB
 10
2189.156697
 20
4920.030409
 30
0.0
 11
2193.156696
 21
4888.030414
 31
0.0
  0
LINE
  8
2
  6
CONTINUOUS
 62
     6
  5
2BC
 10
2204.156694
 20
4858.03042
 30
0.0
 11
2193.156696
 21
4888.030414
 31
0.0
  0
LINE
  8
2
  6
CONTINUOUS
 62
     6
  5
2BD
 10
2278.156681
 20
4780.030434
 30
0.0
 11
2248.156686
 21
4803.03043
 31
0.0
  0
LINE
  8
3
  6
CONTINUOUS
 62
     6
  5
2BE
 10
2729.048126
 20
1030.684968
 30
0.0
 11
2179.448118
 21
1030.684968
 31
0.0
  0
LINE
  8
3
  6
CONTINUOUS
 62
     6
  5
2BF
 10
2801.048127
 20
701.084963
 30
0.0
 11
2721.048126
 21
701.084963
 31
0.0
  0
LINE
  8
3
  6
CONTINUOUS
 62
     6
  5
2C0
 10
2932.248129
 20
1404.284974
 30
0.0
 11
2742.248126
 21
1404.284974
 31
0.0
  0
LINE
  8
3
  6
CONTINUOUS
 62
     6
  5
2C1
 10
2729.048126
 20
1082.684969
 30
0.0
 11
2729.048126
 21
1030.684968
 31
0.0
  0
LINE
  8
3
  6
CONTINUOUS
 62
     6
  5
2C2
 10
2173.448117
 20
1049.884969
 30
0.0
 11
2619.448124
 21
1049.884969
 31
0.0
  0
LINE
  8
3
  6
CONTINUOUS
 62
     6
  5
2C3
 10
2729.048126
 20
1035.884968
 30
0.0
 11
2928.248129
 21
1035.884968
 31
0.0
  0
LINE
  8
3
  6
CONTINUOUS
 62
     6
  5
2C4
 10
2619.448124
 20
1082.684969
 30
0.0
 11
2619.448124
 21
1030.684968
 31
0.0
  0
LINE
  8
3
  6
CONTINUOUS
 62
     6
  5
2C5
 10
2729.048126
 20
1082.684969
 30
0.0
 11
2551.448123
 21
1082.684969
 31
0.0
  0
LINE
  8
3
  6
CONTINUOUS
 62
     6
  5
2C6
 10
2381.448121
 20
671.084963
 30
0.0
 11
2381.848121
 21
695.884963
 31
0.0
  0
LINE
  8
3
  6
CONTINUOUS
 62
     6
  5
2C7
 10
2381.848121
 20
695.884963
 30
0.0
 11
2382.648121
 21
720.684964
 31
0.0
  0
LINE
  8
3
  6
CONTINUOUS
 62
     6
  5
2C8
 10
2382.648121
 20
720.684964
 30
0.0
 11
2383.848121
 21
745.884964
 31
0.0
  0
LINE
  8
3
  6
CONTINUOUS
 62
     6
  5
2C9
 10
2383.848121
 20
745.884964
 30
0.0
 11
2385.048121
 21
770.684964
 31
0.0
  0
LINE
  8
3
  6
CONTINUOUS
 62
     6
  5
2CA
 10
2385.048121
 20
770.684964
 30
0.0
 11
2386.248121
 21
795.884965
 31
0.0
  0
LINE
  8
3
  6
CONTINUOUS
 62
     6
  5
2CB
 10
2386.248121
 20
795.884965
 30
0.0
 11
2387.848121
 21
819.484965
 31
0.0
  0
ARC
  8
3
  6
CONTINUOUS
 62
     6
  5
2CC
 10
2241.048118
 20
1028.284968
 30
0.0
 40
60.000001
 50
177.62
 51
211.08
  0
ARC
  8
3
  6
CONTINUOUS
 62
     6
  5
2CD
 10
2265.048119
 20
698.284963
 30
0.0
 40
200.000003
 50
63.23
 51
68.24
  0
ARC
  8
3
  6
CONTINUOUS
 62
     6
  5
2CE
 10
2327.84812
 20
823.484965
 30
0.0
 40
60.000001
 50
356.1
 51
63.23
  0
ARC
  8
3
  6
CONTINUOUS
 62
     6
  5
2CF
 10
2337.04812
 20
645.484962
 30
0.0
 40
600.000009
 50
2.46
 51
13.08
  0
LINE
  8
3
  6
CONTINUOUS
 62
     6
  5
2D0
 10
2903.848128
 20
1035.484968
 30
0.0
 11
2894.648128
 21
1012.684968
 31
0.0
  0
LINE
  8
3
  6
CONTINUOUS
 62
     6
  5
2D1
 10
2894.648128
 20
1012.684968
 30
0.0
 11
2885.048128
 21
989.884968
 31
0.0
  0
LINE
  8
3
  6
CONTINUOUS
 62
     6
  5
2D2
 10
2885.048128
 20
989.884968
 30
0.0
 11
2874.248128
 21
967.084967
 31
0.0
  0
LINE
  8
3
  6
CONTINUOUS
 62
     6
  5
2D3
 10
2874.248128
 20
967.084967
 30
0.0
 11
2862.648128
 21
944.684967
 31
0.0
  0
LINE
  8
3
  6
CONTINUOUS
 62
     6
  5
2D4
 10
2862.648128
 20
944.684967
 30
0.0
 11
2850.648128
 21
923.084967
 31
0.0
  0
LINE
  8
3
  6
CONTINUOUS
 62
     6
  5
2D5
 10
2850.648128
 20
923.084967
 30
0.0
 11
2842.248127
 21
908.684966
 31
0.0
  0
ARC
  8
3
  6
CONTINUOUS
 62
     6
  5
2D6
 10
2769.048126
 20
731.084964
 30
0.0
 40
160.000002
 50
18.17
 51
58.58
  0
ARC
  8
3
  6
CONTINUOUS
 62
     6
  5
2D7
 10
2868.248128
 20
893.484966
 30
0.0
 40
30.0
 50
149.15
 51
238.58
  0
ARC
  8
3
  6
CONTINUOUS
 62
     6
  5
2D8
 10
2209.448118
 20
1009.884968
 30
0.0
 40
400.000006
 50
336.56
 51
352.94
  0
ARC
  8
3
  6
CONTINUOUS
 62
     6
  5
2D9
 10
2301.448119
 20
716.684964
 30
0.0
 40
500.000007
 50
358.21
 51
9.62
  0
ARC
  8
3
  6
CONTINUOUS
 62
     6
  5
2DA
 10
2597.448124
 20
766.684964
 30
0.0
 40
200.000003
 50
9.62
 51
24.37
  0
ARC
  8
3
  6
CONTINUOUS
 62
     6
  5
2DB
 10
3220.648133
 20
716.684964
 30
0.0
 40
500.000007
 50
170.39
 51
181.8
  0
ARC
  8
3
  6
CONTINUOUS
 62
     6
  5
2DC
 10
2761.048126
 20
841.084965
 30
0.0
 40
20.0
 50
24.37
 51
155.64
  0
ARC
  8
3
  6
CONTINUOUS
 62
     6
  5
2DD
 10
2925.048129
 20
766.684964
 30
0.0
 40
200.000003
 50
155.64
 51
170.39
  0
LINE
  8
3
  6
CONTINUOUS
 62
     6
  5
2DE
 10
2261.848119
 20
1074.284969
 30
0.0
 11
2286.648119
 21
1076.284969
 31
0.0
  0
LINE
  8
3
  6
CONTINUOUS
 62
     6
  5
2DF
 10
2286.648119
 20
1076.284969
 30
0.0
 11
2311.448119
 21
1077.884969
 31
0.0
  0
LINE
  8
3
  6
CONTINUOUS
 62
     6
  5
2E0
 10
2311.448119
 20
1077.884969
 30
0.0
 11
2336.64812
 21
1079.084969
 31
0.0
  0
LINE
  8
3
  6
CONTINUOUS
 62
     6
  5
2E1
 10
2336.64812
 20
1079.084969
 30
0.0
 11
2361.44812
 21
1079.884969
 31
0.0
  0
LINE
  8
3
  6
CONTINUOUS
 62
     6
  5
2E2
 10
2361.44812
 20
1079.884969
 30
0.0
 11
2374.64812
 21
1080.284969
 31
0.0
  0
ARC
  8
3
  6
CONTINUOUS
 62
     6
  5
2E3
 10
2302.648119
 20
576.684961
 30
0.0
 40
500.000007
 50
94.7
 51
100.85
  0
ARC
  8
3
  6
CONTINUOUS
 62
     6
  5
2E4
 10
2231.048118
 20
949.484967
 30
0.0
 40
120.000002
 50
100.85
 51
109.02
  0
ARC
  8
3
  6
CONTINUOUS
 62
     6
  5
2E5
 10
2205.048118
 20
1024.684968
 30
0.0
 40
40.000001
 50
109.02
 51
141.74
  0
LINE
  8
3
  6
CONTINUOUS
 62
     6
  5
2E6
 10
2716.248126
 20
1082.284969
 30
0.0
 11
2716.248126
 21
1107.484969
 31
0.0
  0
LINE
  8
3
  6
CONTINUOUS
 62
     6
  5
2E7
 10
2716.248126
 20
1107.484969
 30
0.0
 11
2716.648126
 21
1132.28497
 31
0.0
  0
LINE
  8
3
  6
CONTINUOUS
 62
     6
  5
2E8
 10
2716.648126
 20
1132.28497
 30
0.0
 11
2717.448126
 21
1157.48497
 31
0.0
  0
LINE
  8
3
  6
CONTINUOUS
 62
     6
  5
2E9
 10
2717.448126
 20
1157.48497
 30
0.0
 11
2718.648126
 21
1182.28497
 31
0.0
  0
LINE
  8
3
  6
CONTINUOUS
 62
     6
  5
2EA
 10
2718.648126
 20
1182.28497
 30
0.0
 11
2720.248126
 21
1207.484971
 31
0.0
  0
LINE
  8
3
  6
CONTINUOUS
 62
     6
  5
2EB
 10
2720.248126
 20
1207.484971
 30
0.0
 11
2721.848126
 21
1232.284971
 31
0.0
  0
LINE
  8
3
  6
CONTINUOUS
 62
     6
  5
2EC
 10
2721.848126
 20
1232.284971
 30
0.0
 11
2723.848126
 21
1257.484972
 31
0.0
  0
LINE
  8
3
  6
CONTINUOUS
 62
     6
  5
2ED
 10
2723.848126
 20
1257.484972
 30
0.0
 11
2726.248126
 21
1282.284972
 31
0.0
  0
LINE
  8
3
  6
CONTINUOUS
 62
     6
  5
2EE
 10
2726.248126
 20
1282.284972
 30
0.0
 11
2734.648126
 21
1356.684973
 31
0.0
  0
LINE
  8
3
  6
CONTINUOUS
 62
     6
  5
2EF
 10
2735.048126
 20
1356.684973
 30
0.0
 11
2739.048126
 21
1381.484973
 31
0.0
  0
LINE
  8
3
  6
CONTINUOUS
 62
     6
  5
2F0
 10
2747.048126
 20
1430.684974
 30
0.0
 11
2739.048126
 21
1381.484973
 31
0.0
  0
LINE
  8
3
  6
CONTINUOUS
 62
     6
  5
2F1
 10
2747.048126
 20
1430.684974
 30
0.0
 11
2747.048126
 21
1431.084974
 31
0.0
  0
ARC
  8
3
  6
CONTINUOUS
 62
     6
  5
2F2
 10
2215.848118
 20
1013.884968
 30
0.0
 40
40.000001
 50
116.04
 51
154.95
  0
LINE
  8
3
  6
CONTINUOUS
 62
     6
  5
2F3
 10
2374.64812
 20
1080.284969
 30
0.0
 11
2399.848121
 21
1081.084969
 31
0.0
  0
LINE
  8
3
  6
CONTINUOUS
 62
     6
  5
2F4
 10
2399.848121
 20
1081.084969
 30
0.0
 11
2424.648121
 21
1081.484969
 31
0.0
  0
LINE
  8
3
  6
CONTINUOUS
 62
     6
  5
2F5
 10
2424.648121
 20
1081.484969
 30
0.0
 11
2449.848122
 21
1081.884969
 31
0.0
  0
LINE
  8
3
  6
CONTINUOUS
 62
     6
  5
2F6
 10
2449.848122
 20
1081.884969
 30
0.0
 11
2474.648122
 21
1082.284969
 31
0.0
  0
LINE
  8
3
  6
CONTINUOUS
 62
     6
  5
2F7
 10
2474.648122
 20
1082.284969
 30
0.0
 11
2499.848122
 21
1082.284969
 31
0.0
  0
LINE
  8
3
  6
CONTINUOUS
 62
     6
  5
2F8
 10
2499.848122
 20
1082.284969
 30
0.0
 11
2524.648123
 21
1082.284969
 31
0.0
  0
LINE
  8
3
  6
CONTINUOUS
 62
     6
  5
2F9
 10
2524.648123
 20
1082.284969
 30
0.0
 11
2549.848123
 21
1082.284969
 31
0.0
  0
LINE
  8
3
  6
CONTINUOUS
 62
     6
  5
2FA
 10
2549.848123
 20
1082.284969
 30
0.0
 11
2551.448123
 21
1082.684969
 31
0.0
  0
ARC
  8
3
  6
CONTINUOUS
 62
     6
  5
2FB
 10
2487.048122
 20
1255.084972
 30
0.0
 40
400.000006
 50
230.77
 51
248.24
  0
ARC
  8
3
  6
CONTINUOUS
 62
     6
  5
2FC
 10
2360.64812
 20
1100.284969
 30
0.0
 40
200.000003
 50
211.08
 51
230.77
  0
LINE
  8
3
  6
CONTINUOUS
 62
     6
  5
2FD
 10
2929.048129
 20
1455.084975
 30
0.0
 11
2930.648129
 21
1430.284974
 31
0.0
  0
LINE
  8
3
  6
CONTINUOUS
 62
     6
  5
2FE
 10
2930.648129
 20
1430.284974
 30
0.0
 11
2932.248129
 21
1405.084974
 31
0.0
  0
LINE
  8
3
  6
CONTINUOUS
 62
     6
  5
2FF
 10
2932.248129
 20
1405.084974
 30
0.0
 11
2933.048129
 21
1380.284973
 31
0.0
  0
LINE
  8
3
  6
CONTINUOUS
 62
     6
  5
300
 10
2933.048129
 20
1380.284973
 30
0.0
 11
2934.248129
 21
1355.084973
 31
0.0
  0
LINE
  8
3
  6
CONTINUOUS
 62
     6
  5
301
 10
2934.248129
 20
1355.084973
 30
0.0
 11
2935.048129
 21
1330.284973
 31
0.0
  0
LINE
  8
3
  6
CONTINUOUS
 62
     6
  5
302
 10
2935.048129
 20
1330.284973
 30
0.0
 11
2935.448129
 21
1305.084972
 31
0.0
  0
LINE
  8
3
  6
CONTINUOUS
 62
     6
  5
303
 10
2935.448129
 20
1305.084972
 30
0.0
 11
2935.848129
 21
1280.284972
 31
0.0
  0
LINE
  8
3
  6
CONTINUOUS
 62
     6
  5
304
 10
2935.848129
 20
1280.284972
 30
0.0
 11
2935.848129
 21
1255.084972
 31
0.0
  0
LINE
  8
3
  6
CONTINUOUS
 62
     6
  5
305
 10
2935.848129
 20
1255.084972
 30
0.0
 11
2935.848129
 21
1230.284971
 31
0.0
  0
LINE
  8
3
  6
CONTINUOUS
 62
     6
  5
306
 10
2935.848129
 20
1230.284971
 30
0.0
 11
2935.448129
 21
1205.084971
 31
0.0
  0
LINE
  8
3
  6
CONTINUOUS
 62
     6
  5
307
 10
2935.448129
 20
1205.084971
 30
0.0
 11
2935.048129
 21
1180.28497
 31
0.0
  0
LINE
  8
3
  6
CONTINUOUS
 62
     6
  5
308
 10
2935.048129
 20
1180.28497
 30
0.0
 11
2934.248129
 21
1155.08497
 31
0.0
  0
LINE
  8
3
  6
CONTINUOUS
 62
     6
  5
309
 10
2934.248129
 20
1155.08497
 30
0.0
 11
2933.448129
 21
1130.28497
 31
0.0
  0
LINE
  8
3
  6
CONTINUOUS
 62
     6
  5
30A
 10
2933.448129
 20
1130.28497
 30
0.0
 11
2932.248129
 21
1105.084969
 31
0.0
  0
LINE
  8
3
  6
CONTINUOUS
 62
     6
  5
30B
 10
2932.248129
 20
1105.084969
 30
0.0
 11
2931.048129
 21
1080.284969
 31
0.0
  0
LINE
  8
3
  6
CONTINUOUS
 62
     6
  5
30C
 10
2931.048129
 20
1080.284969
 30
0.0
 11
2929.448129
 21
1055.484969
 31
0.0
  0
LINE
  8
3
  6
CONTINUOUS
 62
     6
  5
30D
 10
2929.448129
 20
1055.484969
 30
0.0
 11
2928.248129
 21
1035.884968
 31
0.0
  0
ARC
  8
3
  6
CONTINUOUS
 62
     6
  5
30E
 10
2956.248129
 20
1287.084972
 30
0.0
 40
170.000003
 50
99.28
 51
116.72
  0
ARC
  8
3
  6
CONTINUOUS
 62
     6
  5
30F
 10
2841.448127
 20
981.084967
 30
0.0
 40
460.000007
 50
85.21
 51
101.86
  0
LINE
  8
52
  6
CONTINUOUS
 62
     6
  5
310
 10
2924.446787
 20
767.807556
 30
0.0
 11
2927.877339
 21
771.238109
 31
0.0
  0
LINE
  8
5
  6
CONTINUOUS
 62
     3
  5
311
 10
1605.156553
 20
671.238109
 30
0.0
 11
1805.156553
 21
671.238109
 31
0.0
  0
CIRCLE
  8
5
  6
CONTINUOUS
 62
     3
  5
312
 10
1605.156553
 20
671.238109
 30
0.0
 40
7.5
  0
CIRCLE
  8
5
  6
CONTINUOUS
 62
     3
  5
313
 10
1705.156553
 20
671.238109
 30
0.0
 40
7.5
  0
LINE
  8
5
  6
CONTINUOUS
 62
     3
  5
314
 10
2955.15656
 20
1966.238116
 30
0.0
 11
2955.15656
 21
1766.238116
 31
0.0
  0
CIRCLE
  8
5
  6
CONTINUOUS
 62
     3
  5
315
 10
2955.15656
 20
1966.238116
 30
0.0
 40
7.5
  0
CIRCLE
  8
5
  6
CONTINUOUS
 62
     3
  5
316
 10
2955.15656
 20
1866.238116
 30
0.0
 40
7.5
  0
ARC
  8
80
  6
CONTINUOUS
 62
     4
  5
317
 10
1860.656554
 20
1555.938113
 30
0.0
 40
7.7
 50
30.0
 51
210.0
  0
ARC
  8
80
  6
CONTINUOUS
 62
     4
  5
318
 10
1860.656554
 20
1555.938113
 30
0.0
 40
6.8
 50
30.0
 51
210.0
  0
LINE
  8
80
  6
CONTINUOUS
 62
     4
  5
319
 10
1870.756554
 20
1553.638113
 30
0.0
 11
1867.256554
 21
1559.738113
 31
0.0
  0
LINE
  8
80
  6
CONTINUOUS
 62
     4
  5
31A
 10
1866.456554
 20
1559.238113
 30
0.0
 11
1869.656554
 21
1553.838113
 31
0.0
  0
ARC
  8
80
  6
CONTINUOUS
 62
     4
  5
31B
 10
1843.156553
 20
1586.238113
 30
0.0
 40
41.800001
 50
290.63
 51
309.02
  0
LINE
  8
80
  6
CONTINUOUS
 62
     4
  5
31C
 10
1854.756553
 20
1552.538113
 30
0.0
 11
1857.856554
 21
1547.138113
 31
0.0
  0
LINE
  8
80
  6
CONTINUOUS
 62
     4
  5
31D
 10
1857.456554
 20
1546.038113
 30
0.0
 11
1853.956553
 21
1552.038113
 31
0.0
  0
ARC
  8
80
  6
CONTINUOUS
 62
     4
  5
31E
 10
1808.156553
 20
1586.238113
 30
0.0
 40
7.7
 50
270.0
 51
90.0
  0
ARC
  8
80
  6
CONTINUOUS
 62
     4
  5
31F
 10
1808.156553
 20
1586.238113
 30
0.0
 40
6.8
 50
270.0
 51
90.0
  0
LINE
  8
80
  6
CONTINUOUS
 62
     4
  5
320
 10
1801.156553
 20
1578.638113
 30
0.0
 11
1808.156553
 21
1578.638113
 31
0.0
  0
LINE
  8
80
  6
CONTINUOUS
 62
     4
  5
321
 10
1808.156553
 20
1579.538113
 30
0.0
 11
1801.856553
 21
1579.538113
 31
0.0
  0
ARC
  8
80
  6
CONTINUOUS
 62
     4
  5
322
 10
1843.156553
 20
1586.238113
 30
0.0
 40
41.800001
 50
170.63
 51
189.02
  0
LINE
  8
80
  6
CONTINUOUS
 62
     4
  5
323
 10
1808.156553
 20
1593.038113
 30
0.0
 11
1801.956553
 21
1593.038113
 31
0.0
  0
LINE
  8
80
  6
CONTINUOUS
 62
     4
  5
324
 10
1801.156553
 20
1593.938113
 30
0.0
 11
1808.156553
 21
1593.938113
 31
0.0
  0
ARC
  8
80
  6
CONTINUOUS
 62
     4
  5
325
 10
1860.656554
 20
1616.538114
 30
0.0
 40
7.7
 50
150.0
 51
330.0
  0
ARC
  8
80
  6
CONTINUOUS
 62
     4
  5
326
 10
1860.656554
 20
1616.538114
 30
0.0
 40
6.8
 50
150.0
 51
330.0
  0
LINE
  8
80
  6
CONTINUOUS
 62
     4
  5
327
 10
1857.556554
 20
1626.438114
 30
0.0
 11
1854.056553
 21
1620.338114
 31
0.0
  0
LINE
  8
80
  6
CONTINUOUS
 62
     4
  5
328
 10
1854.856553
 20
1619.938114
 30
0.0
 11
1857.956554
 21
1625.338114
 31
0.0
  0
ARC
  8
80
  6
CONTINUOUS
 62
     4
  5
329
 10
1843.156553
 20
1586.238113
 30
0.0
 40
41.800001
 50
50.63
 51
69.02
  0
LINE
  8
80
  6
CONTINUOUS
 62
     4
  5
32A
 10
1866.556554
 20
1613.138114
 30
0.0
 11
1869.656554
 21
1618.538114
 31
0.0
  0
LINE
  8
80
  6
CONTINUOUS
 62
     4
  5
32B
 10
1870.856554
 20
1618.738114
 30
0.0
 11
1867.356554
 21
1612.738114
 31
0.0
  0
ARC
  8
80
  6
CONTINUOUS
 62
     4
  5
32C
 10
1860.656554
 20
1255.938108
 30
0.0
 40
7.7
 50
30.0
 51
210.0
  0
ARC
  8
80
  6
CONTINUOUS
 62
     4
  5
32D
 10
1860.656554
 20
1255.938108
 30
0.0
 40
6.8
 50
30.0
 51
210.0
  0
LINE
  8
80
  6
CONTINUOUS
 62
     4
  5
32E
 10
1870.756554
 20
1253.638108
 30
0.0
 11
1867.256554
 21
1259.738108
 31
0.0
  0
LINE
  8
80
  6
CONTINUOUS
 62
     4
  5
32F
 10
1866.456554
 20
1259.238108
 30
0.0
 11
1869.656554
 21
1253.838108
 31
0.0
  0
ARC
  8
80
  6
CONTINUOUS
 62
     4
  5
330
 10
1843.156553
 20
1286.238109
 30
0.0
 40
41.800001
 50
290.63
 51
309.02
  0
LINE
  8
80
  6
CONTINUOUS
 62
     4
  5
331
 10
1854.756553
 20
1252.538108
 30
0.0
 11
1857.856554
 21
1247.138108
 31
0.0
  0
LINE
  8
80
  6
CONTINUOUS
 62
     4
  5
332
 10
1857.456554
 20
1246.038108
 30
0.0
 11
1853.956553
 21
1252.038108
 31
0.0
  0
ARC
  8
80
  6
CONTINUOUS
 62
     4
  5
333
 10
1808.156553
 20
1286.238109
 30
0.0
 40
7.7
 50
270.0
 51
90.0
  0
ARC
  8
80
  6
CONTINUOUS
 62
     4
  5
334
 10
1808.156553
 20
1286.238109
 30
0.0
 40
6.8
 50
270.0
 51
90.0
  0
LINE
  8
80
  6
CONTINUOUS
 62
     4
  5
335
 10
1801.156553
 20
1278.638109
 30
0.0
 11
1808.156553
 21
1278.638109
 31
0.0
  0
LINE
  8
80
  6
CONTINUOUS
 62
     4
  5
336
 10
1808.156553
 20
1279.538109
 30
0.0
 11
1801.856553
 21
1279.538109
 31
0.0
  0
ARC
  8
80
  6
CONTINUOUS
 62
     4
  5
337
 10
1843.156553
 20
1286.238109
 30
0.0
 40
41.800001
 50
170.63
 51
189.02
  0
LINE
  8
80
  6
CONTINUOUS
 62
     4
  5
338
 10
1808.156553
 20
1293.038109
 30
0.0
 11
1801.956553
 21
1293.038109
 31
0.0
  0
LINE
  8
80
  6
CONTINUOUS
 62
     4
  5
339
 10
1801.156553
 20
1293.938109
 30
0.0
 11
1808.156553
 21
1293.938109
 31
0.0
  0
ARC
  8
80
  6
CONTINUOUS
 62
     4
  5
33A
 10
1860.656554
 20
1316.538109
 30
0.0
 40
7.7
 50
150.0
 51
330.0
  0
ARC
  8
80
  6
CONTINUOUS
 62
     4
  5
33B
 10
1860.656554
 20
1316.538109
 30
0.0
 40
6.8
 50
150.0
 51
330.0
  0
LINE
  8
80
  6
CONTINUOUS
 62
     4
  5
33C
 10
1857.556554
 20
1326.438109
 30
0.0
 11
1854.056553
 21
1320.338109
 31
0.0
  0
LINE
  8
80
  6
CONTINUOUS
 62
     4
  5
33D
 10
1854.856553
 20
1319.938109
 30
0.0
 11
1857.956554
 21
1325.338109
 31
0.0
  0
ARC
  8
80
  6
CONTINUOUS
 62
     4
  5
33E
 10
1843.156553
 20
1286.238109
 30
0.0
 40
41.800001
 50
50.63
 51
69.02
  0
LINE
  8
80
  6
CONTINUOUS
 62
     4
  5
33F
 10
1866.556554
 20
1313.138109
 30
0.0
 11
1869.656554
 21
1318.538109
 31
0.0
  0
LINE
  8
80
  6
CONTINUOUS
 62
     4
  5
340
 10
1870.856554
 20
1318.738109
 30
0.0
 11
1867.356554
 21
1312.738109
 31
0.0
  0
ARC
  8
80
  6
CONTINUOUS
 62
     4
  5
341
 10
2259.65656
 20
1616.538114
 30
0.0
 40
7.7
 50
210.0
 51
30.0
  0
ARC
  8
80
  6
CONTINUOUS
 62
     4
  5
342
 10
2259.65656
 20
1616.538114
 30
0.0
 40
6.8
 50
210.0
 51
30.0
  0
LINE
  8
80
  6
CONTINUOUS
 62
     4
  5
343
 10
2249.556559
 20
1618.838114
 30
0.0
 11
2253.056559
 21
1612.738114
 31
0.0
  0
LINE
  8
80
  6
CONTINUOUS
 62
     4
  5
344
 10
2253.856559
 20
1613.238114
 30
0.0
 11
2250.656559
 21
1618.638114
 31
0.0
  0
ARC
  8
80
  6
CONTINUOUS
 62
     4
  5
345
 10
2277.15656
 20
1586.238113
 30
0.0
 40
41.800001
 50
110.63
 51
129.02
  0
LINE
  8
80
  6
CONTINUOUS
 62
     4
  5
346
 10
2265.55656
 20
1619.938114
 30
0.0
 11
2262.45656
 21
1625.338114
 31
0.0
  0
LINE
  8
80
  6
CONTINUOUS
 62
     4
  5
347
 10
2262.85656
 20
1626.438114
 30
0.0
 11
2266.35656
 21
1620.438114
 31
0.0
  0
ARC
  8
80
  6
CONTINUOUS
 62
     4
  5
348
 10
2312.15656
 20
1586.238113
 30
0.0
 40
7.7
 50
90.0
 51
270.0
  0
ARC
  8
80
  6
CONTINUOUS
 62
     4
  5
349
 10
2312.15656
 20
1586.238113
 30
0.0
 40
6.8
 50
90.0
 51
270.0
  0
LINE
  8
80
  6
CONTINUOUS
 62
     4
  5
34A
 10
2319.15656
 20
1593.838113
 30
0.0
 11
2312.15656
 21
1593.838113
 31
0.0
  0
LINE
  8
80
  6
CONTINUOUS
 62
     4
  5
34B
 10
2312.15656
 20
1592.938113
 30
0.0
 11
2318.45656
 21
1592.938113
 31
0.0
  0
ARC
  8
80
  6
CONTINUOUS
 62
     4
  5
34C
 10
2277.15656
 20
1586.238113
 30
0.0
 40
41.800001
 50
350.63
 51
9.02
  0
LINE
  8
80
  6
CONTINUOUS
 62
     4
  5
34D
 10
2312.15656
 20
1579.438113
 30
0.0
 11
2318.35656
 21
1579.438113
 31
0.0
  0
LINE
  8
80
  6
CONTINUOUS
 62
     4
  5
34E
 10
2319.15656
 20
1578.538113
 30
0.0
 11
2312.15656
 21
1578.538113
 31
0.0
  0
ARC
  8
80
  6
CONTINUOUS
 62
     4
  5
34F
 10
2259.65656
 20
1555.938113
 30
0.0
 40
7.7
 50
330.0
 51
150.0
  0
ARC
  8
80
  6
CONTINUOUS
 62
     4
  5
350
 10
2259.65656
 20
1555.938113
 30
0.0
 40
6.8
 50
330.0
 51
150.0
  0
LINE
  8
80
  6
CONTINUOUS
 62
     4
  5
351
 10
2262.75656
 20
1546.038113
 30
0.0
 11
2266.25656
 21
1552.138113
 31
0.0
  0
LINE
  8
80
  6
CONTINUOUS
 62
     4
  5
352
 10
2265.45656
 20
1552.538113
 30
0.0
 11
2262.35656
 21
1547.138113
 31
0.0
  0
ARC
  8
80
  6
CONTINUOUS
 62
     4
  5
353
 10
2277.15656
 20
1586.238113
 30
0.0
 40
41.800001
 50
230.63
 51
249.02
  0
LINE
  8
80
  6
CONTINUOUS
 62
     4
  5
354
 10
2253.756559
 20
1559.338113
 30
0.0
 11
2250.656559
 21
1553.938113
 31
0.0
  0
LINE
  8
80
  6
CONTINUOUS
 62
     4
  5
355
 10
2249.456559
 20
1553.738113
 30
0.0
 11
2252.956559
 21
1559.738113
 31
0.0
  0
ARC
  8
80
  6
CONTINUOUS
 62
     4
  5
356
 10
2259.65656
 20
1316.538109
 30
0.0
 40
7.7
 50
210.0
 51
30.0
  0
ARC
  8
80
  6
CONTINUOUS
 62
     4
  5
357
 10
2259.65656
 20
1316.538109
 30
0.0
 40
6.8
 50
210.0
 51
30.0
  0
LINE
  8
80
  6
CONTINUOUS
 62
     4
  5
358
 10
2249.556559
 20
1318.838109
 30
0.0
 11
2253.056559
 21
1312.738109
 31
0.0
  0
LINE
  8
80
  6
CONTINUOUS
 62
     4
  5
359
 10
2253.856559
 20
1313.238109
 30
0.0
 11
2250.656559
 21
1318.638109
 31
0.0
  0
ARC
  8
80
  6
CONTINUOUS
 62
     4
  5
35A
 10
2277.15656
 20
1286.238109
 30
0.0
 40
41.800001
 50
110.63
 51
129.02
  0
LINE
  8
80
  6
CONTINUOUS
 62
     4
  5
35B
 10
2265.55656
 20
1319.938109
 30
0.0
 11
2262.45656
 21
1325.338109
 31
0.0
  0
LINE
  8
80
  6
CONTINUOUS
 62
     4
  5
35C
 10
2262.85656
 20
1326.438109
 30
0.0
 11
2266.35656
 21
1320.438109
 31
0.0
  0
ARC
  8
80
  6
CONTINUOUS
 62
     4
  5
35D
 10
2312.15656
 20
1286.238109
 30
0.0
 40
7.7
 50
90.0
 51
270.0
  0
ARC
  8
80
  6
CONTINUOUS
 62
     4
  5
35E
 10
2312.15656
 20
1286.238109
 30
0.0
 40
6.8
 50
90.0
 51
270.0
  0
LINE
  8
80
  6
CONTINUOUS
 62
     4
  5
35F
 10
2319.15656
 20
1293.838109
 30
0.0
 11
2312.15656
 21
1293.838109
 31
0.0
  0
LINE
  8
80
  6
CONTINUOUS
 62
     4
  5
360
 10
2312.15656
 20
1292.938109
 30
0.0
 11
2318.45656
 21
1292.938109
 31
0.0
  0
ARC
  8
80
  6
CONTINUOUS
 62
     4
  5
361
 10
2277.15656
 20
1286.238109
 30
0.0
 40
41.800001
 50
350.63
 51
9.02
  0
LINE
  8
80
  6
CONTINUOUS
 62
     4
  5
362
 10
2312.15656
 20
1279.438109
 30
0.0
 11
2318.35656
 21
1279.438109
 31
0.0
  0
LINE
  8
80
  6
CONTINUOUS
 62
     4
  5
363
 10
2319.15656
 20
1278.538109
 30
0.0
 11
2312.15656
 21
1278.538109
 31
0.0
  0
ARC
  8
80
  6
CONTINUOUS
 62
     4
  5
364
 10
2259.65656
 20
1255.938108
 30
0.0
 40
7.7
 50
330.0
 51
150.0
  0
ARC
  8
80
  6
CONTINUOUS
 62
     4
  5
365
 10
2259.65656
 20
1255.938108
 30
0.0
 40
6.8
 50
330.0
 51
150.0
  0
LINE
  8
80
  6
CONTINUOUS
 62
     4
  5
366
 10
2262.75656
 20
1246.038108
 30
0.0
 11
2266.25656
 21
1252.138108
 31
0.0
  0
LINE
  8
80
  6
CONTINUOUS
 62
     4
  5
367
 10
2265.45656
 20
1252.538108
 30
0.0
 11
2262.35656
 21
1247.138108
 31
0.0
  0
ARC
  8
80
  6
CONTINUOUS
 62
     4
  5
368
 10
2277.15656
 20
1286.238109
 30
0.0
 40
41.800001
 50
230.63
 51
249.02
  0
LINE
  8
80
  6
CONTINUOUS
 62
     4
  5
369
 10
2253.756559
 20
1259.338108
 30
0.0
 11
2250.656559
 21
1253.938108
 31
0.0
  0
LINE
  8
80
  6
CONTINUOUS
 62
     4
  5
36A
 10
2249.456559
 20
1253.738108
 30
0.0
 11
2252.956559
 21
1259.738108
 31
0.0
  0
ARC
  8
80
  6
CONTINUOUS
 62
     4
  5
36B
 10
1843.156553
 20
1286.238109
 30
0.0
 40
45.000001
 50
119.87
 51
240.13
  0
ARC
  8
80
  6
DIVIDE
 62
     4
  5
36C
 10
1843.156553
 20
1286.238109
 30
0.0
 40
42.700001
 50
121.61
 51
238.39
  0
ARC
  8
80
  6
DIVIDE
 62
     4
  5
36D
 10
1843.156553
 20
1286.238109
 30
0.0
 40
42.700001
 50
278.62
 51
340.29
  0
ARC
  8
80
  6
DIVIDE
 62
     4
  5
36E
 10
1843.156553
 20
1286.238109
 30
0.0
 40
42.700001
 50
19.71
 51
81.38
  0
ARC
  8
80
  6
CONTINUOUS
 62
     4
  5
36F
 10
1843.156553
 20
1286.238109
 30
0.0
 40
45.000001
 50
278.18
 51
341.32
  0
ARC
  8
80
  6
CONTINUOUS
 62
     4
  5
370
 10
1843.156553
 20
1286.238109
 30
0.0
 40
45.000001
 50
18.68
 51
81.82
  0
ARC
  8
80
  6
DIVIDE
 62
     4
  5
371
 10
1843.156553
 20
1586.238113
 30
0.0
 40
42.700001
 50
121.61
 51
238.39
  0
ARC
  8
80
  6
CONTINUOUS
 62
     4
  5
372
 10
1843.156553
 20
1586.238113
 30
0.0
 40
45.000001
 50
119.87
 51
240.13
  0
ARC
  8
80
  6
DIVIDE
 62
     4
  5
373
 10
1843.156553
 20
1586.238113
 30
0.0
 40
42.700001
 50
278.62
 51
340.29
  0
ARC
  8
80
  6
DIVIDE
 62
     4
  5
374
 10
1843.156553
 20
1586.238113
 30
0.0
 40
42.700001
 50
19.71
 51
81.38
  0
ARC
  8
80
  6
CONTINUOUS
 62
     4
  5
375
 10
1843.156553
 20
1586.238113
 30
0.0
 40
45.000001
 50
278.18
 51
341.32
  0
ARC
  8
80
  6
CONTINUOUS
 62
     4
  5
376
 10
1843.156553
 20
1586.238113
 30
0.0
 40
45.000001
 50
18.68
 51
81.82
  0
ARC
  8
80
  6
DIVIDE
 62
     4
  5
377
 10
2277.15656
 20
1586.238113
 30
0.0
 40
42.700001
 50
199.71
 51
261.38
  0
ARC
  8
80
  6
CONTINUOUS
 62
     4
  5
378
 10
2277.15656
 20
1586.238113
 30
0.0
 40
45.000001
 50
198.68
 51
261.82
  0
ARC
  8
80
  6
CONTINUOUS
 62
     4
  5
379
 10
2277.15656
 20
1586.238113
 30
0.0
 40
45.000001
 50
299.87
 51
60.13
  0
ARC
  8
80
  6
CONTINUOUS
 62
     4
  5
37A
 10
2277.15656
 20
1586.238113
 30
0.0
 40
45.000001
 50
98.18
 51
161.32
  0
ARC
  8
80
  6
DIVIDE
 62
     4
  5
37B
 10
2277.15656
 20
1586.238113
 30
0.0
 40
42.700001
 50
301.61
 51
58.39
  0
ARC
  8
80
  6
DIVIDE
 62
     4
  5
37C
 10
2277.15656
 20
1586.238113
 30
0.0
 40
42.700001
 50
98.62
 51
160.29
  0
ARC
  8
80
  6
CONTINUOUS
 62
     4
  5
37D
 10
2277.15656
 20
1286.238109
 30
0.0
 40
45.000001
 50
198.68
 51
261.82
  0
ARC
  8
80
  6
DIVIDE
 62
     4
  5
37E
 10
2277.15656
 20
1286.238109
 30
0.0
 40
42.700001
 50
199.71
 51
261.38
  0
ARC
  8
80
  6
DIVIDE
 62
     4
  5
37F
 10
2277.15656
 20
1286.238109
 30
0.0
 40
42.700001
 50
301.61
 51
58.39
  0
ARC
  8
80
  6
DIVIDE
 62
     4
  5
380
 10
2277.15656
 20
1286.238109
 30
0.0
 40
42.700001
 50
98.62
 51
160.29
  0
ARC
  8
80
  6
CONTINUOUS
 62
     4
  5
381
 10
2277.15656
 20
1286.238109
 30
0.0
 40
45.000001
 50
299.87
 51
60.13
  0
ARC
  8
80
  6
CONTINUOUS
 62
     4
  5
382
 10
2277.15656
 20
1286.238109
 30
0.0
 40
45.000001
 50
98.18
 51
161.32
  0
CIRCLE
  8
80
  6
CONTINUOUS
 62
     4
  5
383
 10
1808.156553
 20
1586.238113
 30
0.0
 40
4.0
  0
CIRCLE
  8
80
  6
CONTINUOUS
 62
     4
  5
384
 10
1808.156553
 20
1586.238113
 30
0.0
 40
4.4
  0
CIRCLE
  8
80
  6
CONTINUOUS
 62
     4
  5
385
 10
1860.656554
 20
1555.938113
 30
0.0
 40
4.0
  0
CIRCLE
  8
80
  6
CONTINUOUS
 62
     4
  5
386
 10
1860.656554
 20
1555.938113
 30
0.0
 40
4.4
  0
CIRCLE
  8
80
  6
CONTINUOUS
 62
     4
  5
387
 10
1860.656554
 20
1616.538114
 30
0.0
 40
4.0
  0
CIRCLE
  8
80
  6
CONTINUOUS
 62
     4
  5
388
 10
1860.656554
 20
1616.538114
 30
0.0
 40
4.4
  0
CIRCLE
  8
80
  6
CONTINUOUS
 62
     4
  5
389
 10
1808.156553
 20
1286.238109
 30
0.0
 40
4.0
  0
CIRCLE
  8
80
  6
CONTINUOUS
 62
     4
  5
38A
 10
1808.156553
 20
1286.238109
 30
0.0
 40
4.4
  0
CIRCLE
  8
80
  6
CONTINUOUS
 62
     4
  5
38B
 10
1860.656554
 20
1316.538109
 30
0.0
 40
4.0
  0
CIRCLE
  8
80
  6
CONTINUOUS
 62
     4
  5
38C
 10
1860.656554
 20
1316.538109
 30
0.0
 40
4.4
  0
CIRCLE
  8
80
  6
CONTINUOUS
 62
     4
  5
38D
 10
1860.656554
 20
1255.938108
 30
0.0
 40
4.0
  0
CIRCLE
  8
80
  6
CONTINUOUS
 62
     4
  5
38E
 10
1860.656554
 20
1255.938108
 30
0.0
 40
4.4
  0
CIRCLE
  8
80
  6
CONTINUOUS
 62
     4
  5
38F
 10
2259.65656
 20
1255.938108
 30
0.0
 40
4.4
  0
CIRCLE
  8
80
  6
CONTINUOUS
 62
     4
  5
390
 10
2259.65656
 20
1255.938108
 30
0.0
 40
4.0
  0
CIRCLE
  8
80
  6
CONTINUOUS
 62
     4
  5
391
 10
2259.65656
 20
1316.538109
 30
0.0
 40
4.0
  0
CIRCLE
  8
80
  6
CONTINUOUS
 62
     4
  5
392
 10
2259.65656
 20
1316.538109
 30
0.0
 40
4.4
  0
CIRCLE
  8
80
  6
CONTINUOUS
 62
     4
  5
393
 10
2312.15656
 20
1286.238109
 30
0.0
 40
4.0
  0
CIRCLE
  8
80
  6
CONTINUOUS
 62
     4
  5
394
 10
2312.15656
 20
1286.238109
 30
0.0
 40
4.4
  0
CIRCLE
  8
80
  6
CONTINUOUS
 62
     4
  5
395
 10
2259.65656
 20
1555.938113
 30
0.0
 40
4.4
  0
CIRCLE
  8
80
  6
CONTINUOUS
 62
     4
  5
396
 10
2259.65656
 20
1555.938113
 30
0.0
 40
4.0
  0
CIRCLE
  8
80
  6
CONTINUOUS
 62
     4
  5
397
 10
2259.65656
 20
1616.538114
 30
0.0
 40
4.0
  0
CIRCLE
  8
80
  6
CONTINUOUS
 62
     4
  5
398
 10
2259.65656
 20
1616.538114
 30
0.0
 40
4.4
  0
CIRCLE
  8
80
  6
CONTINUOUS
 62
     4
  5
399
 10
2312.15656
 20
1586.238113
 30
0.0
 40
4.0
  0
CIRCLE
  8
80
  6
CONTINUOUS
 62
     4
  5
39A
 10
2312.15656
 20
1586.238113
 30
0.0
 40
4.4
  0
ARC
  8
80
  6
CONTINUOUS
 62
     4
  5
39B
 10
2254.556559
 20
1705.638115
 30
0.0
 40
45.000001
 50
360.0
 51
90.0
  0
ARC
  8
80
  6
CONTINUOUS
 62
     4
  5
39C
 10
1865.756554
 20
1705.638115
 30
0.0
 40
45.000001
 50
90.0
 51
180.0
  0
ARC
  8
80
  6
CONTINUOUS
 62
     4
  5
39D
 10
1867.556554
 20
1703.838115
 30
0.0
 40
18.0
 50
90.0
 51
180.0
  0
ARC
  8
80
  6
CONTINUOUS
 62
     4
  5
39E
 10
2252.756559
 20
1703.838115
 30
0.0
 40
18.0
 50
360.0
 51
90.0
  0
POINT
  8
80
  6
CONTINUOUS
 62
     4
  5
39F
 10
2060.156557
 20
1271.838109
 30
0.0
 50
57.29578
  0
LINE
  8
80
  6
CONTINUOUS
 62
     4
  5
3A0
 10
2017.556556
 20
1271.838109
 30
0.0
 11
2102.756557
 21
1271.838109
 31
0.0
  0
LINE
  8
80
  6
CONTINUOUS
 62
     4
  5
3A1
 10
2017.556556
 20
1300.638109
 30
0.0
 11
2102.756557
 21
1300.638109
 31
0.0
  0
LINE
  8
80
  6
CONTINUOUS
 62
     4
  5
3A2
 10
2017.556556
 20
1571.838113
 30
0.0
 11
2102.756557
 21
1571.838113
 31
0.0
  0
LINE
  8
80
  6
CONTINUOUS
 62
     4
  5
3A3
 10
2017.556556
 20
1600.638114
 30
0.0
 11
2102.756557
 21
1600.638114
 31
0.0
  0
LINE
  8
80
  6
CONTINUOUS
 62
     4
  5
3A4
 10
2120.756557
 20
1618.638114
 30
0.0
 11
2120.756557
 21
1703.838115
 31
0.0
  0
LINE
  8
80
  6
CONTINUOUS
 62
     4
  5
3A5
 10
1999.556556
 20
1618.638114
 30
0.0
 11
1999.556556
 21
1703.838115
 31
0.0
  0
ARC
  8
80
  6
CONTINUOUS
 62
     4
  5
3A6
 10
2102.756557
 20
1253.838108
 30
0.0
 40
18.0
 50
360.0
 51
90.0
  0
ARC
  8
80
  6
CONTINUOUS
 62
     4
  5
3A7
 10
2102.756557
 20
1318.638109
 30
0.0
 40
18.0
 50
270.0
 51
360.0
  0
ARC
  8
80
  6
CONTINUOUS
 62
     4
  5
3A8
 10
2017.556556
 20
1253.838108
 30
0.0
 40
18.0
 50
90.0
 51
180.0
  0
ARC
  8
80
  6
CONTINUOUS
 62
     4
  5
3A9
 10
2017.556556
 20
1318.638109
 30
0.0
 40
18.0
 50
180.0
 51
270.0
  0
ARC
  8
80
  6
CONTINUOUS
 62
     4
  5
3AA
 10
2102.756557
 20
1553.838113
 30
0.0
 40
18.0
 50
360.0
 51
90.0
  0
ARC
  8
80
  6
CONTINUOUS
 62
     4
  5
3AB
 10
2017.556556
 20
1618.638114
 30
0.0
 40
18.0
 50
180.0
 51
270.0
  0
ARC
  8
80
  6
CONTINUOUS
 62
     4
  5
3AC
 10
2017.556556
 20
1553.838113
 30
0.0
 40
18.0
 50
90.0
 51
180.0
  0
ARC
  8
80
  6
CONTINUOUS
 62
     4
  5
3AD
 10
2102.756557
 20
1618.638114
 30
0.0
 40
18.0
 50
270.0
 51
360.0
  0
LINE
  8
80
  6
CONTINUOUS
 62
     4
  5
3AE
 10
1970.756555
 20
1618.638114
 30
0.0
 11
1970.756555
 21
1703.838115
 31
0.0
  0
ARC
  8
80
  6
CONTINUOUS
 62
     4
  5
3AF
 10
1952.756555
 20
1253.838108
 30
0.0
 40
18.0
 50
360.0
 51
90.0
  0
ARC
  8
80
  6
CONTINUOUS
 62
     4
  5
3B0
 10
1952.756555
 20
1318.638109
 30
0.0
 40
18.0
 50
270.0
 51
360.0
  0
ARC
  8
80
  6
CONTINUOUS
 62
     4
  5
3B1
 10
1952.756555
 20
1618.638114
 30
0.0
 40
18.0
 50
270.0
 51
360.0
  0
ARC
  8
80
  6
CONTINUOUS
 62
     4
  5
3B2
 10
1952.756555
 20
1553.838113
 30
0.0
 40
18.0
 50
360.0
 51
90.0
  0
LINE
  8
80
  6
CONTINUOUS
 62
     4
  5
3B3
 10
2149.556558
 20
1618.638114
 30
0.0
 11
2149.556558
 21
1703.838115
 31
0.0
  0
ARC
  8
80
  6
CONTINUOUS
 62
     4
  5
3B4
 10
2167.556558
 20
1253.838108
 30
0.0
 40
18.0
 50
90.0
 51
180.0
  0
ARC
  8
80
  6
CONTINUOUS
 62
     4
  5
3B5
 10
2167.556558
 20
1318.638109
 30
0.0
 40
18.0
 50
180.0
 51
270.0
  0
ARC
  8
80
  6
CONTINUOUS
 62
     4
  5
3B6
 10
2167.556558
 20
1618.638114
 30
0.0
 40
18.0
 50
180.0
 51
270.0
  0
ARC
  8
80
  6
CONTINUOUS
 62
     4
  5
3B7
 10
2167.556558
 20
1553.838113
 30
0.0
 40
18.0
 50
90.0
 51
180.0
  0
LINE
  8
80
  6
CONTINUOUS
 62
     4
  5
3B8
 10
2120.756557
 20
1318.638109
 30
0.0
 11
2120.756557
 21
1403.838111
 31
0.0
  0
LINE
  8
80
  6
CONTINUOUS
 62
     4
  5
3B9
 10
2120.756557
 20
1468.638112
 30
0.0
 11
2120.756557
 21
1553.838113
 31
0.0
  0
LINE
  8
80
  6
CONTINUOUS
 62
     4
  5
3BA
 10
1999.556556
 20
1468.638112
 30
0.0
 11
1999.556556
 21
1553.838113
 31
0.0
  0
LINE
  8
80
  6
CONTINUOUS
 62
     4
  5
3BB
 10
1999.556556
 20
1318.638109
 30
0.0
 11
1999.556556
 21
1403.838111
 31
0.0
  0
LINE
  8
80
  6
CONTINUOUS
 62
     4
  5
3BC
 10
1970.756555
 20
1468.638112
 30
0.0
 11
1970.756555
 21
1553.838113
 31
0.0
  0
LINE
  8
80
  6
CONTINUOUS
 62
     4
  5
3BD
 10
1970.756555
 20
1318.638109
 30
0.0
 11
1970.756555
 21
1403.838111
 31
0.0
  0
LINE
  8
80
  6
CONTINUOUS
 62
     4
  5
3BE
 10
2149.556558
 20
1468.638112
 30
0.0
 11
2149.556558
 21
1553.838113
 31
0.0
  0
LINE
  8
80
  6
CONTINUOUS
 62
     4
  5
3BF
 10
2149.556558
 20
1318.638109
 30
0.0
 11
2149.556558
 21
1403.838111
 31
0.0
  0
LINE
  8
80
  6
CONTINUOUS
 62
     4
  5
3C0
 10
1952.756555
 20
1421.838111
 30
0.0
 11
1867.556554
 21
1421.838111
 31
0.0
  0
LINE
  8
80
  6
CONTINUOUS
 62
     4
  5
3C1
 10
1952.756555
 20
1450.638111
 30
0.0
 11
1867.156554
 21
1450.638111
 31
0.0
  0
LINE
  8
80
  6
CONTINUOUS
 62
     4
  5
3C2
 10
2167.556558
 20
1421.838111
 30
0.0
 11
2252.756559
 21
1421.838111
 31
0.0
  0
LINE
  8
80
  6
CONTINUOUS
 62
     4
  5
3C3
 10
2167.556558
 20
1450.638111
 30
0.0
 11
2253.156559
 21
1450.638111
 31
0.0
  0
LINE
  8
80
  6
CONTINUOUS
 62
     4
  5
3C4
 10
2017.556556
 20
1421.838111
 30
0.0
 11
2102.756557
 21
1421.838111
 31
0.0
  0
LINE
  8
80
  6
CONTINUOUS
 62
     4
  5
3C5
 10
2017.556556
 20
1450.638111
 30
0.0
 11
2103.056557
 21
1450.638111
 31
0.0
  0
ARC
  8
80
  6
CONTINUOUS
 62
     4
  5
3C6
 10
2102.756557
 20
1403.838111
 30
0.0
 40
18.0
 50
360.0
 51
90.0
  0
ARC
  8
80
  6
CONTINUOUS
 62
     4
  5
3C7
 10
2102.756557
 20
1468.638112
 30
0.0
 40
18.0
 50
270.0
 51
360.0
  0
ARC
  8
80
  6
CONTINUOUS
 62
     4
  5
3C8
 10
2017.556556
 20
1403.838111
 30
0.0
 40
18.0
 50
90.0
 51
180.0
  0
ARC
  8
80
  6
CONTINUOUS
 62
     4
  5
3C9
 10
2017.556556
 20
1468.638112
 30
0.0
 40
18.0
 50
180.0
 51
270.0
  0
ARC
  8
80
  6
CONTINUOUS
 62
     4
  5
3CA
 10
1952.756555
 20
1403.838111
 30
0.0
 40
18.0
 50
360.0
 51
90.0
  0
ARC
  8
80
  6
CONTINUOUS
 62
     4
  5
3CB
 10
1952.756555
 20
1468.638112
 30
0.0
 40
18.0
 50
270.0
 51
360.0
  0
ARC
  8
80
  6
CONTINUOUS
 62
     4
  5
3CC
 10
2167.556558
 20
1403.838111
 30
0.0
 40
18.0
 50
90.0
 51
180.0
  0
ARC
  8
80
  6
CONTINUOUS
 62
     4
  5
3CD
 10
2167.556558
 20
1468.638112
 30
0.0
 40
18.0
 50
180.0
 51
270.0
  0
LINE
  8
80
  6
CONTINUOUS
 62
     4
  5
3CE
 10
2120.756557
 20
1168.638107
 30
0.0
 11
2120.756557
 21
1253.838108
 31
0.0
  0
LINE
  8
80
  6
CONTINUOUS
 62
     4
  5
3CF
 10
1999.556556
 20
1168.638107
 30
0.0
 11
1999.556556
 21
1253.838108
 31
0.0
  0
LINE
  8
80
  6
CONTINUOUS
 62
     4
  5
3D0
 10
1970.756555
 20
1168.638107
 30
0.0
 11
1970.756555
 21
1253.838108
 31
0.0
  0
LINE
  8
80
  6
CONTINUOUS
 62
     4
  5
3D1
 10
2149.556558
 20
1168.638107
 30
0.0
 11
2149.556558
 21
1253.838108
 31
0.0
  0
LINE
  8
80
  6
CONTINUOUS
 62
     4
  5
3D2
 10
2167.556558
 20
1271.838109
 30
0.0
 11
2252.756559
 21
1271.838109
 31
0.0
  0
LINE
  8
80
  6
CONTINUOUS
 62
     4
  5
3D3
 10
2167.556558
 20
1300.638109
 30
0.0
 11
2252.756559
 21
1300.638109
 31
0.0
  0
LINE
  8
80
  6
CONTINUOUS
 62
     4
  5
3D4
 10
2167.556558
 20
1571.838113
 30
0.0
 11
2252.756559
 21
1571.838113
 31
0.0
  0
LINE
  8
80
  6
CONTINUOUS
 62
     4
  5
3D5
 10
2167.556558
 20
1600.638114
 30
0.0
 11
2252.756559
 21
1600.638114
 31
0.0
  0
LINE
  8
80
  6
CONTINUOUS
 62
     4
  5
3D6
 10
1952.756555
 20
1600.638114
 30
0.0
 11
1867.556554
 21
1600.638114
 31
0.0
  0
LINE
  8
80
  6
CONTINUOUS
 62
     4
  5
3D7
 10
1952.756555
 20
1571.838113
 30
0.0
 11
1867.556554
 21
1571.838113
 31
0.0
  0
LINE
  8
80
  6
CONTINUOUS
 62
     4
  5
3D8
 10
1952.756555
 20
1300.638109
 30
0.0
 11
1867.556554
 21
1300.638109
 31
0.0
  0
LINE
  8
80
  6
CONTINUOUS
 62
     4
  5
3D9
 10
1952.756555
 20
1271.838109
 30
0.0
 11
1867.556554
 21
1271.838109
 31
0.0
  0
LINE
  8
80
  6
CONTINUOUS
 62
     4
  5
3DA
 10
1865.756554
 20
1750.638116
 30
0.0
 11
2254.556559
 21
1750.638116
 31
0.0
  0
LINE
  8
80
  6
CONTINUOUS
 62
     4
  5
3DB
 10
1952.756555
 20
1721.838115
 30
0.0
 11
1867.556554
 21
1721.838115
 31
0.0
  0
LINE
  8
80
  6
CONTINUOUS
 62
     4
  5
3DC
 10
2167.556558
 20
1721.838115
 30
0.0
 11
2252.756559
 21
1721.838115
 31
0.0
  0
LINE
  8
80
  6
CONTINUOUS
 62
     4
  5
3DD
 10
2017.556556
 20
1721.838115
 30
0.0
 11
2102.756557
 21
1721.838115
 31
0.0
  0
ARC
  8
80
  6
CONTINUOUS
 62
     4
  5
3DE
 10
2102.756557
 20
1703.838115
 30
0.0
 40
18.0
 50
360.0
 51
90.0
  0
ARC
  8
80
  6
CONTINUOUS
 62
     4
  5
3DF
 10
2017.556556
 20
1703.838115
 30
0.0
 40
18.0
 50
90.0
 51
180.0
  0
ARC
  8
80
  6
CONTINUOUS
 62
     4
  5
3E0
 10
1952.756555
 20
1703.838115
 30
0.0
 40
18.0
 50
360.0
 51
90.0
  0
ARC
  8
80
  6
CONTINUOUS
 62
     4
  5
3E1
 10
2167.556558
 20
1703.838115
 30
0.0
 40
18.0
 50
90.0
 51
180.0
  0
LINE
  8
80
  6
CONTINUOUS
 62
     4
  5
3E2
 10
1849.556553
 20
1318.638109
 30
0.0
 11
1849.556553
 21
1403.838111
 31
0.0
  0
LINE
  8
80
  6
CONTINUOUS
 62
     4
  5
3E3
 10
1849.556553
 20
1468.638112
 30
0.0
 11
1849.556553
 21
1553.838113
 31
0.0
  0
ARC
  8
80
  6
CONTINUOUS
 62
     4
  5
3E4
 10
1867.556554
 20
1403.838111
 30
0.0
 40
18.0
 50
90.0
 51
180.0
  0
ARC
  8
80
  6
CONTINUOUS
 62
     4
  5
3E5
 10
1867.556554
 20
1468.638112
 30
0.0
 40
18.0
 50
180.0
 51
270.0
  0
LINE
  8
80
  6
CONTINUOUS
 62
     4
  5
3E6
 10
1820.756553
 20
1166.838107
 30
0.0
 11
1820.756553
 21
1705.638115
 31
0.0
  0
ARC
  8
80
  6
CONTINUOUS
 62
     4
  5
3E7
 10
1867.556554
 20
1553.838113
 30
0.0
 40
18.0
 50
90.0
 51
180.0
  0
ARC
  8
80
  6
CONTINUOUS
 62
     4
  5
3E8
 10
1867.556554
 20
1618.638114
 30
0.0
 40
18.0
 50
180.0
 51
270.0
  0
LINE
  8
80
  6
CONTINUOUS
 62
     4
  5
3E9
 10
1849.556553
 20
1618.638114
 30
0.0
 11
1849.556553
 21
1703.838115
 31
0.0
  0
LINE
  8
80
  6
CONTINUOUS
 62
     4
  5
3EA
 10
2299.55656
 20
1166.838107
 30
0.0
 11
2299.55656
 21
1705.638115
 31
0.0
  0
LINE
  8
80
  6
CONTINUOUS
 62
     4
  5
3EB
 10
2270.75656
 20
1618.638114
 30
0.0
 11
2270.75656
 21
1703.838115
 31
0.0
  0
ARC
  8
80
  6
CONTINUOUS
 62
     4
  5
3EC
 10
2252.756559
 20
1618.638114
 30
0.0
 40
18.0
 50
270.0
 51
360.0
  0
ARC
  8
80
  6
CONTINUOUS
 62
     4
  5
3ED
 10
2252.756559
 20
1553.838113
 30
0.0
 40
18.0
 50
360.0
 51
90.0
  0
LINE
  8
80
  6
CONTINUOUS
 62
     4
  5
3EE
 10
2270.75656
 20
1318.638109
 30
0.0
 11
2270.75656
 21
1403.838111
 31
0.0
  0
LINE
  8
80
  6
CONTINUOUS
 62
     4
  5
3EF
 10
2270.75656
 20
1468.638112
 30
0.0
 11
2270.75656
 21
1553.838113
 31
0.0
  0
ARC
  8
80
  6
CONTINUOUS
 62
     4
  5
3F0
 10
2252.756559
 20
1403.838111
 30
0.0
 40
18.0
 50
360.0
 51
90.0
  0
ARC
  8
80
  6
CONTINUOUS
 62
     4
  5
3F1
 10
2252.756559
 20
1468.638112
 30
0.0
 40
18.0
 50
270.0
 51
360.0
  0
ARC
  8
80
  6
CONTINUOUS
 62
     4
  5
3F2
 10
2252.756559
 20
1253.838108
 30
0.0
 40
18.0
 50
360.0
 51
90.0
  0
ARC
  8
80
  6
CONTINUOUS
 62
     4
  5
3F3
 10
2252.756559
 20
1318.638109
 30
0.0
 40
18.0
 50
270.0
 51
360.0
  0
ARC
  8
80
  6
CONTINUOUS
 62
     4
  5
3F4
 10
1867.556554
 20
1318.638109
 30
0.0
 40
18.0
 50
180.0
 51
270.0
  0
ARC
  8
80
  6
CONTINUOUS
 62
     4
  5
3F5
 10
1867.556554
 20
1253.838108
 30
0.0
 40
18.0
 50
90.0
 51
180.0
  0
LINE
  8
80
  6
CONTINUOUS
 62
     4
  5
3F6
 10
1849.556553
 20
1168.638107
 30
0.0
 11
1849.556553
 21
1253.838108
 31
0.0
  0
ARC
  8
80
  6
CONTINUOUS
 62
     4
  5
3F7
 10
1865.756554
 20
1166.838107
 30
0.0
 40
45.000001
 50
180.0
 51
270.0
  0
ARC
  8
80
  6
CONTINUOUS
 62
     4
  5
3F8
 10
2254.556559
 20
1166.838107
 30
0.0
 40
45.000001
 50
270.0
 51
360.0
  0
ARC
  8
80
  6
CONTINUOUS
 62
     4
  5
3F9
 10
1867.556554
 20
1168.638107
 30
0.0
 40
18.0
 50
180.0
 51
270.0
  0
ARC
  8
80
  6
CONTINUOUS
 62
     4
  5
3FA
 10
2252.756559
 20
1168.638107
 30
0.0
 40
18.0
 50
270.0
 51
360.0
  0
LINE
  8
80
  6
CONTINUOUS
 62
     4
  5
3FB
 10
1865.756554
 20
1121.838106
 30
0.0
 11
2254.556559
 21
1121.838106
 31
0.0
  0
LINE
  8
80
  6
CONTINUOUS
 62
     4
  5
3FC
 10
1867.556554
 20
1150.638107
 30
0.0
 11
1952.756555
 21
1150.638107
 31
0.0
  0
LINE
  8
80
  6
CONTINUOUS
 62
     4
  5
3FD
 10
2252.756559
 20
1150.638107
 30
0.0
 11
2167.556558
 21
1150.638107
 31
0.0
  0
ARC
  8
80
  6
CONTINUOUS
 62
     4
  5
3FE
 10
2102.756557
 20
1168.638107
 30
0.0
 40
18.0
 50
270.0
 51
360.0
  0
ARC
  8
80
  6
CONTINUOUS
 62
     4
  5
3FF
 10
2017.556556
 20
1168.638107
 30
0.0
 40
18.0
 50
180.0
 51
270.0
  0
LINE
  8
80
  6
CONTINUOUS
 62
     4
  5
400
 10
2102.756557
 20
1150.638107
 30
0.0
 11
2017.556556
 21
1150.638107
 31
0.0
  0
ARC
  8
80
  6
CONTINUOUS
 62
     4
  5
401
 10
1952.756555
 20
1168.638107
 30
0.0
 40
18.0
 50
270.0
 51
360.0
  0
ARC
  8
80
  6
CONTINUOUS
 62
     4
  5
402
 10
2167.556558
 20
1168.638107
 30
0.0
 40
18.0
 50
180.0
 51
270.0
  0
LINE
  8
80
  6
CONTINUOUS
 62
     4
  5
403
 10
2270.75656
 20
1168.638107
 30
0.0
 11
2270.75656
 21
1253.838108
 31
0.0
  0
LINE
  8
5
  6
CENTER
 62
     3
  5
404
 10
1835.156553
 20
1136.238107
 30
0.0
 11
1835.156553
 21
1736.238116
 31
0.0
  0
LINE
  8
5
  6
CENTER
 62
     3
  5
405
 10
2285.15656
 20
1136.238107
 30
0.0
 11
2285.15656
 21
1736.238116
 31
0.0
  0
LINE
  8
5
  6
CENTER
 62
     3
  5
406
 10
1835.156553
 20
1736.238116
 30
0.0
 11
2285.15656
 21
1736.238116
 31
0.0
  0
LINE
  8
5
  6
CENTER
 62
     3
  5
407
 10
1835.156553
 20
1586.238116
 30
0.0
 11
2285.15656
 21
1586.238116
 31
0.0
  0
LINE
  8
5
  6
CENTER
 62
     3
  5
408
 10
1835.156553
 20
1436.238116
 30
0.0
 11
2285.15656
 21
1436.238116
 31
0.0
  0
LINE
  8
5
  6
CENTER
 62
     3
  5
409
 10
1835.156553
 20
1286.238116
 30
0.0
 11
2285.15656
 21
1286.238116
 31
0.0
  0
LINE
  8
5
  6
CENTER
 62
     3
  5
40A
 10
1985.156553
 20
1136.238107
 30
0.0
 11
1985.156553
 21
1736.238116
 31
0.0
  0
LINE
  8
5
  6
CENTER
 62
     3
  5
40B
 10
2135.156553
 20
1136.238107
 30
0.0
 11
2135.156553
 21
1736.238116
 31
0.0
  0
CIRCLE
  8
5
  6
CONTINUOUS
 62
     3
  5
40C
 10
1835.156553
 20
1966.238116
 30
0.0
 40
7.5
  0
CIRCLE
  8
5
  6
CONTINUOUS
 62
     3
  5
40D
 10
1835.156553
 20
1866.238116
 30
0.0
 40
7.5
  0
CIRCLE
  8
5
  6
CONTINUOUS
 62
     3
  5
40E
 10
2285.15656
 20
1866.238116
 30
0.0
 40
7.5
  0
CIRCLE
  8
5
  6
CONTINUOUS
 62
     3
  5
40F
 10
1605.156553
 20
1736.238116
 30
0.0
 40
7.5
  0
CIRCLE
  8
5
  6
CONTINUOUS
 62
     3
  5
410
 10
1705.156553
 20
1136.238107
 30
0.0
 40
7.5
  0
CIRCLE
  8
5
  6
CONTINUOUS
 62
     3
  5
411
 10
1705.156553
 20
1736.238116
 30
0.0
 40
7.5
  0
LINE
  8
5
  6
CONTINUOUS
 62
     3
  5
412
 10
1705.156553
 20
1136.238107
 30
0.0
 11
1705.156553
 21
1736.238116
 31
0.0
  0
LINE
  8
5
  6
CONTINUOUS
 62
     3
  5
413
 10
1835.156553
 20
1866.238116
 30
0.0
 11
2285.15656
 21
1866.238116
 31
0.0
  0
LINE
  8
5
  6
CONTINUOUS
 62
     3
  5
414
 10
2285.15656
 20
1866.238116
 30
0.0
 11
2285.15656
 21
1766.238116
 31
0.0
  0
LINE
  8
5
  6
CONTINUOUS
 62
     3
  5
415
 10
2285.15656
 20
1866.238116
 30
0.0
 11
2955.15656
 21
1866.238116
 31
0.0
  0
LINE
  8
5
  6
CONTINUOUS
 62
     3
  5
416
 10
1835.156553
 20
1966.238116
 30
0.0
 11
2955.15656
 21
1966.238116
 31
0.0
  0
LINE
  8
5
  6
CONTINUOUS
 62
     3
  5
417
 10
1835.156553
 20
1966.238116
 30
0.0
 11
1835.156553
 21
1766.238116
 31
0.0
  0
LINE
  8
5
  6
CONTINUOUS
 62
     3
  5
418
 10
1605.156553
 20
1736.238116
 30
0.0
 11
1805.156553
 21
1736.238116
 31
0.0
  0
LINE
  8
5
  6
CONTINUOUS
 62
     3
  5
419
 10
1605.156553
 20
1736.238116
 30
0.0
 11
1605.156553
 21
671.238109
 31
0.0
  0
LINE
  8
5
  6
CONTINUOUS
 62
     3
  5
41A
 10
1705.156553
 20
1136.238107
 30
0.0
 11
1805.156553
 21
1136.238107
 31
0.0
  0
LINE
  8
5
  6
CONTINUOUS
 62
     3
  5
41B
 10
1705.156553
 20
671.238109
 30
0.0
 11
1705.156553
 21
1136.238107
 31
0.0
  0
TEXT
  8
5
  6
CONTINUOUS
 62
     3
  5
41C
 10
1970.156557
 20
1866.238116
 30
0.0
 40
90.0
  1
450
 41
0.666667
  7

 72
     5
 11
2150.156557
 21
1866.238116
 31
0.0
  0
TEXT
  8
5
  6
CONTINUOUS
 62
     3
  5
41D
 10
2527.856563
 20
1866.238116
 30
0.0
 40
90.0
  1
670
 41
0.666667
  7

 72
     5
 11
2707.856563
 21
1866.238116
 31
0.0
  0
LINE
  8
5
  6
CONTINUOUS
 62
     3
  5
41E
 10
2339.443661
 20
1665.608013
 30
0.0
 11
2291.503712
 21
1582.573585
 31
0.0
  0
LINE
  8
22
  6
CONTINUOUS
 62
     2
  5
41F
 10
2955.15656
 20
731.238109
 30
0.0
 11
2930.88851
 21
731.238109
 31
0.0
  0
TEXT
  8
5
  6
CONTINUOUS
 62
     3
  5
420
 10
1705.156553
 20
1376.238111
 30
0.0
 40
60.0
  1
600
 50
90.0
 41
0.666667
  7

 72
     5
 11
1705.156553
 21
1496.238111
 31
0.0
  0
TEXT
  8
5
  6
CONTINUOUS
 62
     3
  5
421
 10
2302.85656
 20
1966.238116
 30
0.0
 40
60.0
  1
1,120
 41
0.6
  7

 72
     5
 11
2482.85656
 21
1966.238116
 31
0.0
  0
TEXT
  8
5
  6
CONTINUOUS
 62
     3
  5
422
 10
1605.156553
 20
1113.438112
 30
0.0
 40
60.0
  1
1,065
 50
90.0
 41
0.6
  7

 72
     5
 11
1605.156553
 21
1293.438112
 31
0.0
  0
TEXT
  8
5
  6
CONTINUOUS
 62
     3
  5
423
 10
1705.156553
 20
843.438108
 30
0.0
 40
60.0
  1
465
 50
90.0
 41
0.666667
  7

 72
     5
 11
1705.156553
 21
963.438108
 31
0.0
  0
LINE
  8
5
  6
CONTINUOUS
 62
     3
  5
424
 10
2749.443661
 20
1665.608013
 30
0.0
 11
2339.443661
 21
1665.608013
 31
0.0
  0
TEXT
  8
5
  6
CONTINUOUS
 62
     3
  5
425
 10
2365.624842
 20
1665.608013
 30
0.0
 40
60.0
  1
テスリックス
 41
0.837
  7

 72
     5
 11
2725.624842
 21
1665.608013
 31
0.0
  0
LINE
  8
5
  6
CENTER
 62
     3
  5
426
 10
2285.15656
 20
1136.238107
 30
0.0
 11
1835.156553
 21
1136.238107
 31
0.0
  0
ENDSEC
  0
EOF
