  0
SECTION
  2
HEADER
  9
$ACADVER
  1
AC1009
  9
$INSBASE
 10
0.0
 20
0.0
 30
0.0
  9
$EXTMIN
 10
46983.763388
 20
8057.46916
 30
0.0
  9
$EXTMAX
 10
50636.262778
 20
13401.981001
 30
0.0
  9
$LIMMIN
 10
46732.395087
 20
7820.98695
  9
$LIMMAX
 10
50932.395087
 20
13760.98695
  9
$ORTHOMODE
 70
     0
  9
$REGENMODE
 70
     1
  9
$FILLMODE
 70
     1
  9
$QTEXTMODE
 70
     0
  9
$MIRRTEXT
 70
     1
  9
$DRAGMODE
 70
     2
  9
$LTSCALE
 40
20.0
  9
$OSMODE
 70
     0
  9
$ATTMODE
 70
     1
  9
$TEXTSIZE
 40
0.2
  9
$TRACEWID
 40
0.05
  9
$TEXTSTYLE
  7
STANDARD
  9
$CLAYER
  8
0
  9
$CELTYPE
  6
CONTINUOUS
  9
$CECOLOR
 62
   256
  9
$DIMSCALE
 40
1.0
  9
$DIMASZ
 40
0.18
  9
$DIMEXO
 40
0.0625
  9
$DIMDLI
 40
0.38
  9
$DIMRND
 40
0.0
  9
$DIMDLE
 40
0.0
  9
$DIMEXE
 40
0.18
  9
$DIMTP
 40
0.0
  9
$DIMTM
 40
0.0
  9
$DIMTXT
 40
0.18
  9
$DIMCEN
 40
0.09
  9
$DIMTSZ
 40
0.0
  9
$DIMTOL
 70
     0
  9
$DIMLIM
 70
     0
  9
$DIMTIH
 70
     1
  9
$DIMTOH
 70
     1
  9
$DIMSE1
 70
     0
  9
$DIMSE2
 70
     0
  9
$DIMTAD
 70
     0
  9
$DIMZIN
 70
     0
  9
$DIMBLK
  1

  9
$DIMASO
 70
     1
  9
$DIMSHO
 70
     1
  9
$DIMPOST
  1

  9
$DIMAPOST
  1

  9
$DIMALT
 70
     0
  9
$DIMALTD
 70
     2
  9
$DIMALTF
 40
25.4
  9
$DIMLFAC
 40
1.0
  9
$DIMTOFL
 70
     0
  9
$DIMTVP
 40
0.0
  9
$DIMTIX
 70
     0
  9
$DIMSOXD
 70
     0
  9
$DIMSAH
 70
     0
  9
$DIMBLK1
  1

  9
$DIMBLK2
  1

  9
$DIMSTYLE
  2
STANDARD
  9
$DIMCLRD
 70
     0
  9
$DIMCLRE
 70
     0
  9
$DIMCLRT
 70
     0
  9
$DIMTFAC
 40
1.0
  9
$DIMGAP
 40
0.09
  9
$LUNITS
 70
     2
  9
$LUPREC
 70
     4
  9
$AXISMODE
 70
     0
  9
$AXISUNIT
 10
0.0
 20
0.0
  9
$SKETCHINC
 40
0.1
  9
$FILLETRAD
 40
0.0
  9
$AUNITS
 70
     0
  9
$AUPREC
 70
     0
  9
$MENU
  1
acad
  9
$ELEVATION
 40
0.0
  9
$PELEVATION
 40
0.0
  9
$THICKNESS
 40
0.0
  9
$LIMCHECK
 70
     0
  9
$BLIPMODE
 70
     1
  9
$CHAMFERA
 40
0.0
  9
$CHAMFERB
 40
0.0
  9
$SKPOLY
 70
     0
  9
$TDCREATE
 40
0.000000000
  9
$TDUPDATE
 40
0.000000000
  9
$TDINDWG
 40
0.0000000000
  9
$TDUSRTIMER
 40
0.0000000000
  9
$USRTIMER
 70
     1
  9
$ANGBASE
 50
0.0
  9
$ANGDIR
 70
     0
  9
$PDMODE
 70
     0
  9
$PDSIZE
 40
0.0
  9
$PLINEWID
 40
0.0
  9
$COORDS
 70
     0
  9
$SPLFRAME
 70
     0
  9
$SPLINETYPE
 70
     6
  9
$SPLINESEGS
 70
     8
  9
$ATTDIA
 70
     0
  9
$ATTREQ
 70
     1
  9
$HANDLING
 70
     1
  9
$HANDSEED
  5
59C
  9
$SURFTAB1
 70
     6
  9
$SURFTAB2
 70
     6
  9
$SURFTYPE
 70
     6
  9
$SURFU
 70
     6
  9
$SURFV
 70
     6
  9
$UCSNAME
  2

  9
$UCSORG
 10
0.0
 20
0.0
 30
0.0
  9
$UCSXDIR
 10
1.0
 20
0.0
 30
0.0
  9
$UCSYDIR
 10
0.0
 20
1.0
 30
0.0
  9
$PUCSNAME
  2

  9
$PUCSORG
 10
0.0
 20
0.0
 30
0.0
  9
$PUCSXDIR
 10
1.0
 20
0.0
 30
0.0
  9
$PUCSYDIR
 10
0.0
 20
1.0
 30
0.0
  9
$USERI1
 70
     0
  9
$USERI2
 70
     0
  9
$USERI3
 70
     0
  9
$USERI4
 70
     0
  9
$USERI5
 70
     0
  9
$USERR1
 40
0.0
  9
$USERR2
 40
0.0
  9
$USERR3
 40
0.0
  9
$USERR4
 40
0.0
  9
$USERR5
 40
0.0
  9
$WORLDVIEW
 70
     1
  9
$SHADEDGE
 70
     3
  9
$SHADEDIF
 70
    70
  9
$TILEMODE
 70
     1
  9
$MAXACTVP
 70
    16
  9
$PINSBASE
 10
0.0
 20
0.0
 30
0.0
  9
$PLIMCHECK
 70
     0
  9
$PEXTMIN
 10
1.000000E+20
 20
1.000000E+20
 30
1.000000E+20
  9
$PEXTMAX
 10
-1.000000E+20
 20
-1.000000E+20
 30
-1.000000E+20
  9
$PLIMMIN
 10
0.0
 20
0.0
  9
$PLIMMAX
 10
12.0
 20
9.0
  9
$UNITMODE
 70
     0
  9
$VISRETAIN
 70
     0
  9
$PLINEGEN
 70
     1
  9
$PSLTSCALE
 70
     0
  9
$TREEDEPTH
 70
  3020
  9
$DWGCODEPAGE
  3
dos932
  0
ENDSEC
  0
SECTION
  2
TABLES
  0
TABLE
  2
VPORT
 70
     1
  0
VPORT
  2
*ACTIVE
 70
     0
 10
0.0
 20
0.0
 11
1.0
 21
1.0
 12
48832.395087
 22
10790.98695
 13
0.0
 23
0.0
 14
1000.0
 24
1000.0
 15
1000.0
 25
1000.0
 16
0.0
 26
0.0
 36
1.0
 17
0.0
 27
0.0
 37
0.0
 40
5940.0
 41
0.707071
 42
50.0
 43
0.0
 44
0.0
 50
0.0
 51
0.0
 71
     0
 72
   100
 73
     1
 74
     1
 75
     0
 76
     0
 77
     0
 78
     0
  0
ENDTAB
  0
TABLE
  2
LTYPE
 70
     9
  0
LTYPE
  2
CONTINUOUS
 70
    64
  3
Solid line
 72
    65
 73
     0
 40
0.0
  0
LTYPE
  2
HIDDEN
 70
    64
  3
__ __ __ __ __ __ __ __ __ __ __ __ __ __ __ __
 72
    65
 73
     5
 40
8.0
 49
1.0
 49
-2.0
 49
2.0
 49
-2.0
 49
1.0
  0
LTYPE
  2
DOT
 70
    64
  3
. . . . . . . . . . . . . . . . . . . . . . . .
 72
    65
 73
     3
 40
1.6
 49
0.4
 49
-0.8
 49
0.4
  0
LTYPE
  2
CENTER
 70
    64
  3
____ _ ____ _ ____ _ ____ _ ____ _ ____ _ ____ 
 72
    65
 73
     5
 40
12.0
 49
5.0
 49
-0.8
 49
0.4
 49
-0.8
 49
5.0
  0
LTYPE
  2
DIVIDE
 70
    64
  3
____ . . ____ . . ____ . . ____ . . ____ . . __
 72
    65
 73
     7
 40
13.2
 49
5.0
 49
-0.8
 49
0.4
 49
-0.8
 49
0.4
 49
-0.8
 49
5.0
  0
LTYPE
  2
DASHED1
 70
     0
  3
Solid Line
 72
    65
 73
     2
 40
2.5
 49
1.25
 49
-1.25
  0
LTYPE
  2
DASHED3
 70
     0
  3
Solid Line
 72
    65
 73
     2
 40
5.0
 49
3.75
 49
-1.25
  0
LTYPE
  2
CENTER1
 70
     0
  3
Solid Line
 72
    65
 73
     4
 40
10.0
 49
6.25
 49
-1.25
 49
1.25
 49
-1.25
  0
LTYPE
  2
PHANTOM1
 70
     0
  3
Solid Line
 72
    65
 73
     6
 40
9.5
 49
3.25
 49
-1.25
 49
1.25
 49
-1.25
 49
1.25
 49
-1.25
  0
ENDTAB
  0
TABLE
  2
LAYER
 70
    21
  0
LAYER
  2
0
 70
     0
 62
     7
  6
CONTINUOUS
  0
LAYER
  2
1
 70
     0
 62
     1
  6
CONTINUOUS
  0
LAYER
  2
2
 70
     0
 62
     1
  6
CONTINUOUS
  0
LAYER
  2
3
 70
     0
 62
     1
  6
CONTINUOUS
  0
LAYER
  2
4
 70
     0
 62
     1
  6
CONTINUOUS
  0
LAYER
  2
5
 70
     0
 62
     1
  6
CONTINUOUS
  0
LAYER
  2
6
 70
     0
 62
     1
  6
CONTINUOUS
  0
LAYER
  2
7
 70
     0
 62
     1
  6
CONTINUOUS
  0
LAYER
  2
8
 70
     0
 62
     1
  6
CONTINUOUS
  0
LAYER
  2
9
 70
     0
 62
     1
  6
CONTINUOUS
  0
LAYER
  2
10
 70
     0
 62
     1
  6
CONTINUOUS
  0
LAYER
  2
11
 70
     0
 62
     1
  6
CONTINUOUS
  0
LAYER
  2
12
 70
     0
 62
     1
  6
CONTINUOUS
  0
LAYER
  2
13
 70
     0
 62
     1
  6
CONTINUOUS
  0
LAYER
  2
14
 70
     0
 62
     1
  6
CONTINUOUS
  0
LAYER
  2
15
 70
     0
 62
     1
  6
CONTINUOUS
  0
LAYER
  2
16
 70
     0
 62
     1
  6
CONTINUOUS
  0
LAYER
  2
23
 70
     0
 62
     1
  6
CONTINUOUS
  0
LAYER
  2
24
 70
     0
 62
     1
  6
CONTINUOUS
  0
LAYER
  2
40
 70
     0
 62
     1
  6
CONTINUOUS
  0
LAYER
  2
50
 70
     0
 62
     1
  6
CONTINUOUS
  0
ENDTAB
  0
TABLE
  2
STYLE
 70
     3
  0
STYLE
  2
STANDARD
 70
     0
 40
0.0
 41
1.0
 50
0.0
 71
     0
 42
0.0
  3
txt
  4

  0
STYLE
  2

 70
     0
 40
1000.0
 41
1.0
 50
0.0
 71
     0
 42
1000.0
  3
txt
  4
extfont
  0
STYLE
  2

 70
     0
 40
1000.0
 41
1.0
 50
0.0
 71
     0
 42
1000.0
  3
txt
  4
extfont
  0
ENDTAB
  0
TABLE
  2
VIEW
 70
     0
  0
ENDTAB
  0
TABLE
  2
UCS
 70
     0
  0
ENDTAB
  0
TABLE
  2
APPID
 70
     1
  0
APPID
  2
ACAD
 70
     0
  0
ENDTAB
  0
TABLE
  2
DIMSTYLE
 70
     1
  0
DIMSTYLE
  2
STANDARD
 70
     0
  3

  4

  5

  6

  7

 40
1.0
 41
0.18
 42
0.0625
 43
0.38
 44
0.18
 45
0.0
 46
0.0
 47
0.0
 48
0.0
 71
     0
 72
     0
 73
     1
 74
     1
 75
     0
 76
     0
 77
     0
 78
     0
140
0.18
141
0.09
142
0.0
143
25.4
144
1.0
145
0.0
146
1.0
147
0.09
170
     0
171
     2
172
     0
173
     0
174
     0
175
     0
176
     0
177
     0
178
     0
  0
ENDTAB
  0
ENDSEC
  0
SECTION
  2
BLOCKS
  0
ENDSEC
  0
SECTION
  2
ENTITIES
  0
TEXT
  8
5
  6
CONTINUOUS
 62
     3
  5
102
 10
48642.478591
 20
8147.46916
 30
0.0
 40
90.0
  1
テスリックス
 41
0.837
  7

 72
     5
 11
49182.478591
 21
8147.46916
 31
0.0
  0
TEXT
  8
5
  6
CONTINUOUS
 62
     3
  5
103
 10
48642.478591
 20
8057.46916
 30
0.0
 40
90.0
  1
取付側展開図
 41
0.837
  7

 72
     5
 11
49182.478591
 21
8057.46916
 31
0.0
  0
TEXT
  8
5
  6
CONTINUOUS
 62
     3
  5
104
 10
48813.195577
 20
10936.294639
 30
0.0
 40
90.0
  1
平面図
 41
0.837
  7

 72
     5
 11
49083.195577
 21
10936.294639
 31
0.0
  0
LINE
  8
6
  6
CONTINUOUS
 62
     6
  5
105
 10
49377.541178
 20
8682.429401
 30
0.0
 11
49428.821177
 21
8682.429401
 31
0.0
  0
LINE
  8
6
  6
CONTINUOUS
 62
     6
  5
106
 10
49001.261186
 20
8682.429401
 30
0.0
 11
49061.921185
 21
8682.429401
 31
0.0
  0
LINE
  8
6
  6
CONTINUOUS
 62
     6
  5
107
 10
49401.961177
 20
8422.069407
 30
0.0
 11
49394.641178
 21
8479.949406
 31
0.0
  0
LINE
  8
6
  6
CONTINUOUS
 62
     6
  5
108
 10
49275.06118
 20
8497.449405
 30
0.0
 11
49374.801178
 21
8497.449405
 31
0.0
  0
LINE
  8
6
  6
CONTINUOUS
 62
     6
  5
109
 10
49446.021176
 20
8631.769402
 30
0.0
 11
49476.101176
 21
8662.869402
 31
0.0
  0
LINE
  8
6
  6
CONTINUOUS
 62
     6
  5
10A
 10
49435.781177
 20
8627.209403
 30
0.0
 11
49375.821178
 21
8624.989403
 31
0.0
  0
LINE
  8
6
  6
CONTINUOUS
 62
     6
  5
10B
 10
49548.821174
 20
8667.429402
 30
0.0
 11
49486.881175
 21
8667.429402
 31
0.0
  0
LINE
  8
6
  6
CONTINUOUS
 62
     6
  5
10C
 10
49360.821178
 20
8337.469409
 30
0.0
 11
49383.821178
 21
8337.469409
 31
0.0
  0
LINE
  8
6
  6
CONTINUOUS
 62
     6
  5
10D
 10
49340.821179
 20
8357.469409
 30
0.0
 11
49340.821179
 21
8463.989406
 31
0.0
  0
LINE
  8
6
  6
CONTINUOUS
 62
     6
  5
10E
 10
49320.821179
 20
8484.449406
 30
0.0
 11
49272.10118
 21
8484.449406
 31
0.0
  0
LINE
  8
6
  6
CONTINUOUS
 62
     6
  5
10F
 10
49433.821177
 20
8688.429401
 30
0.0
 11
49455.821176
 21
8688.429401
 31
0.0
  0
LINE
  8
6
  6
CONTINUOUS
 62
     6
  5
110
 10
48906.841188
 20
8682.429401
 30
0.0
 11
48981.721187
 21
8682.429401
 31
0.0
  0
LINE
  8
6
  6
CONTINUOUS
 62
     6
  5
111
 10
49433.821177
 20
8688.429401
 30
0.0
 11
49433.821177
 21
8687.429401
 31
0.0
  0
LINE
  8
6
  6
CONTINUOUS
 62
     6
  5
112
 10
49538.821174
 20
8688.429401
 30
0.0
 11
49465.821176
 21
8688.429401
 31
0.0
  0
LINE
  8
6
  6
CONTINUOUS
 62
     6
  5
113
 10
49548.821174
 20
8622.449403
 30
0.0
 11
49548.821174
 21
8667.429402
 31
0.0
  0
LINE
  8
6
  6
CONTINUOUS
 62
     6
  5
114
 10
49548.821174
 20
8692.429401
 30
0.0
 11
49538.821174
 21
8692.429401
 31
0.0
  0
LINE
  8
6
  6
CONTINUOUS
 62
     6
  5
115
 10
49455.821176
 20
8691.429401
 30
0.0
 11
49455.821176
 21
8688.429401
 31
0.0
  0
LINE
  8
6
  6
CONTINUOUS
 62
     6
  5
116
 10
49465.821176
 20
8691.429401
 30
0.0
 11
49465.821176
 21
8688.429401
 31
0.0
  0
LINE
  8
6
  6
CONTINUOUS
 62
     6
  5
117
 10
49465.821176
 20
8688.429401
 30
0.0
 11
49455.821176
 21
8688.429401
 31
0.0
  0
LINE
  8
6
  6
CONTINUOUS
 62
     6
  5
118
 10
49464.821176
 20
8692.429401
 30
0.0
 11
49456.821176
 21
8692.429401
 31
0.0
  0
LINE
  8
6
  6
CONTINUOUS
 62
     6
  5
119
 10
49460.241176
 20
8530.229405
 30
0.0
 11
49443.401176
 21
8434.689407
 31
0.0
  0
LINE
  8
6
  6
CONTINUOUS
 62
     6
  5
11A
 10
49433.901177
 20
8438.409407
 30
0.0
 11
49436.501177
 21
8435.909407
 31
0.0
  0
LINE
  8
6
  6
CONTINUOUS
 62
     6
  5
11B
 10
49443.401176
 20
8434.689407
 30
0.0
 11
49436.501177
 21
8435.909407
 31
0.0
  0
LINE
  8
6
  6
CONTINUOUS
 62
     6
  5
11C
 10
49460.241176
 20
8530.229405
 30
0.0
 11
49453.341176
 21
8531.429405
 31
0.0
  0
LINE
  8
6
  6
CONTINUOUS
 62
     6
  5
11D
 10
49450.041176
 20
8529.989405
 30
0.0
 11
49453.341176
 21
8531.429405
 31
0.0
  0
LINE
  8
6
  6
CONTINUOUS
 62
     6
  5
11E
 10
49409.281177
 20
8442.749407
 30
0.0
 11
49405.981177
 21
8441.289407
 31
0.0
  0
LINE
  8
6
  6
CONTINUOUS
 62
     6
  5
11F
 10
49425.421177
 20
8534.329405
 30
0.0
 11
49422.821177
 21
8536.829405
 31
0.0
  0
LINE
  8
6
  6
CONTINUOUS
 62
     6
  5
120
 10
49409.281177
 20
8442.749407
 30
0.0
 11
49433.901177
 21
8438.409407
 31
0.0
  0
LINE
  8
6
  6
CONTINUOUS
 62
     6
  5
121
 10
49425.421177
 20
8534.329405
 30
0.0
 11
49450.041176
 21
8529.989405
 31
0.0
  0
LINE
  8
6
  6
CONTINUOUS
 62
     6
  5
122
 10
49460.761176
 20
8583.909404
 30
0.0
 11
49538.281174
 21
8608.129403
 31
0.0
  0
LINE
  8
6
  6
CONTINUOUS
 62
     6
  5
123
 10
49415.821177
 20
8312.46941
 30
0.0
 11
49401.981177
 21
8421.949407
 31
0.0
  0
LINE
  8
6
  6
CONTINUOUS
 62
     6
  5
124
 10
49401.821177
 20
8442.029407
 30
0.0
 11
49405.981177
 21
8441.289407
 31
0.0
  0
LINE
  8
6
  6
CONTINUOUS
 62
     6
  5
125
 10
49401.821177
 20
8442.029407
 30
0.0
 11
49401.821177
 21
8424.469407
 31
0.0
  0
LINE
  8
6
  6
CONTINUOUS
 62
     6
  5
126
 10
49422.821177
 20
8536.829405
 30
0.0
 11
49423.681177
 21
8541.749405
 31
0.0
  0
LINE
  8
6
  6
CONTINUOUS
 62
     6
  5
127
 10
49415.821177
 20
8312.46941
 30
0.0
 11
49028.841186
 21
8312.46941
 31
0.0
  0
LINE
  8
6
  6
CONTINUOUS
 62
     6
  5
128
 10
49538.821174
 20
8688.429401
 30
0.0
 11
49538.821174
 21
8692.429401
 31
0.0
  0
LINE
  8
6
  6
CONTINUOUS
 62
     6
  5
129
 10
49538.821174
 20
8688.429401
 30
0.0
 11
49548.821174
 21
8688.429401
 31
0.0
  0
LINE
  8
6
  6
CONTINUOUS
 62
     6
  5
12A
 10
49548.821174
 20
8667.429402
 30
0.0
 11
49548.821174
 21
8692.429401
 31
0.0
  0
LINE
  8
6
  6
CONTINUOUS
 62
     6
  5
12B
 10
49383.821178
 20
8337.469409
 30
0.0
 11
49404.981177
 21
8337.469409
 31
0.0
  0
LINE
  8
6
  6
CONTINUOUS
 62
     6
  5
12C
 10
49161.641183
 20
8783.089399
 30
0.0
 11
49110.201184
 21
8773.889399
 31
0.0
  0
LINE
  8
6
  6
CONTINUOUS
 62
     6
  5
12D
 10
49161.621183
 20
8784.049399
 30
0.0
 11
49177.581182
 21
8786.889399
 31
0.0
  0
LINE
  8
6
  6
CONTINUOUS
 62
     6
  5
12E
 10
49161.621183
 20
8784.049399
 30
0.0
 11
49161.641183
 21
8783.089399
 31
0.0
  0
LINE
  8
6
  6
CONTINUOUS
 62
     6
  5
12F
 10
49041.141185
 20
8723.6894
 30
0.0
 11
48904.021188
 21
8723.6894
 31
0.0
  0
LINE
  8
6
  6
CONTINUOUS
 62
     6
  5
130
 10
49051.121185
 20
8691.429401
 30
0.0
 11
49005.261186
 21
8691.429401
 31
0.0
  0
LINE
  8
6
  6
CONTINUOUS
 62
     6
  5
131
 10
48891.841189
 20
8699.249401
 30
0.0
 11
48891.841189
 21
8699.989401
 31
0.0
  0
LINE
  8
6
  6
CONTINUOUS
 62
     6
  5
132
 10
48891.841189
 20
8699.989401
 30
0.0
 11
48895.221189
 21
8716.489401
 31
0.0
  0
LINE
  8
6
  6
CONTINUOUS
 62
     6
  5
133
 10
48893.321189
 20
8740.1294
 30
0.0
 11
48891.861189
 21
8732.1294
 31
0.0
  0
LINE
  8
6
  6
CONTINUOUS
 62
     6
  5
134
 10
49000.701186
 20
8730.9294
 30
0.0
 11
48975.281187
 21
8730.9294
 31
0.0
  0
LINE
  8
6
  6
CONTINUOUS
 62
     6
  5
135
 10
49110.201184
 20
8773.889399
 30
0.0
 11
49043.241185
 21
8761.9294
 31
0.0
  0
LINE
  8
6
  6
CONTINUOUS
 62
     6
  5
136
 10
48978.721187
 20
8685.429401
 30
0.0
 11
48978.721187
 21
8691.429401
 31
0.0
  0
LINE
  8
6
  6
CONTINUOUS
 62
     6
  5
137
 10
49004.261186
 20
8688.789401
 30
0.0
 11
49004.261186
 21
8685.429401
 31
0.0
  0
LINE
  8
6
  6
CONTINUOUS
 62
     6
  5
138
 10
49001.261186
 20
8682.429401
 30
0.0
 11
48981.721187
 21
8682.429401
 31
0.0
  0
LINE
  8
6
  6
CONTINUOUS
 62
     6
  5
139
 10
48951.081187
 20
8691.429401
 30
0.0
 11
48978.721187
 21
8691.429401
 31
0.0
  0
LINE
  8
6
  6
CONTINUOUS
 62
     6
  5
13A
 10
48893.641189
 20
8697.249401
 30
0.0
 11
48950.581187
 21
8691.469401
 31
0.0
  0
LINE
  8
6
  6
CONTINUOUS
 62
     6
  5
13B
 10
48975.281187
 20
8730.9294
 30
0.0
 11
48892.841189
 21
8730.9294
 31
0.0
  0
LINE
  8
6
  6
CONTINUOUS
 62
     6
  5
13C
 10
49039.441185
 20
8730.9294
 30
0.0
 11
49000.701186
 21
8730.9294
 31
0.0
  0
LINE
  8
6
  6
CONTINUOUS
 62
     6
  5
13D
 10
48995.701186
 20
8723.9294
 30
0.0
 11
48980.281187
 21
8723.9294
 31
0.0
  0
LINE
  8
6
  6
CONTINUOUS
 62
     6
  5
13E
 10
48975.281187
 20
8730.9294
 30
0.0
 11
48975.281187
 21
8728.9294
 31
0.0
  0
LINE
  8
6
  6
CONTINUOUS
 62
     6
  5
13F
 10
49000.701186
 20
8730.9294
 30
0.0
 11
49000.701186
 21
8728.9294
 31
0.0
  0
LINE
  8
6
  6
CONTINUOUS
 62
     6
  5
140
 10
49363.421178
 20
8576.449404
 30
0.0
 11
49363.421178
 21
8592.429403
 31
0.0
  0
LINE
  8
6
  6
CONTINUOUS
 62
     6
  5
141
 10
49363.421178
 20
8592.429403
 30
0.0
 11
49363.421178
 21
8595.429403
 31
0.0
  0
LINE
  8
6
  6
CONTINUOUS
 62
     6
  5
142
 10
49381.541178
 20
8722.3094
 30
0.0
 11
49381.301178
 21
8722.7094
 31
0.0
  0
LINE
  8
6
  6
CONTINUOUS
 62
     6
  5
143
 10
49389.641178
 20
8699.469401
 30
0.0
 11
49380.721178
 21
8714.909401
 31
0.0
  0
LINE
  8
6
  6
CONTINUOUS
 62
     6
  5
144
 10
49380.721178
 20
8714.909401
 30
0.0
 11
49380.261178
 21
8715.729401
 31
0.0
  0
LINE
  8
6
  6
CONTINUOUS
 62
     6
  5
145
 10
49380.261178
 20
8715.729401
 30
0.0
 11
49381.301178
 21
8722.7094
 31
0.0
  0
LINE
  8
6
  6
CONTINUOUS
 62
     6
  5
146
 10
49381.301178
 20
8722.7094
 30
0.0
 11
49381.701178
 21
8725.3094
 31
0.0
  0
LINE
  8
6
  6
CONTINUOUS
 62
     6
  5
147
 10
49381.701178
 20
8725.3094
 30
0.0
 11
49381.821178
 21
8726.1294
 31
0.0
  0
LINE
  8
6
  6
CONTINUOUS
 62
     6
  5
148
 10
49284.98118
 20
8562.449404
 30
0.0
 11
49274.56118
 21
8562.449404
 31
0.0
  0
LINE
  8
6
  6
CONTINUOUS
 62
     6
  5
149
 10
49294.86118
 20
8562.449404
 30
0.0
 11
49284.98118
 21
8562.449404
 31
0.0
  0
LINE
  8
6
  6
CONTINUOUS
 62
     6
  5
14A
 10
49310.081179
 20
8562.449404
 30
0.0
 11
49310.081179
 21
8550.449404
 31
0.0
  0
LINE
  8
6
  6
CONTINUOUS
 62
     6
  5
14B
 10
49310.081179
 20
8562.449404
 30
0.0
 11
49294.86118
 21
8562.449404
 31
0.0
  0
LINE
  8
6
  6
CONTINUOUS
 62
     6
  5
14C
 10
49351.821178
 20
8562.449404
 30
0.0
 11
49343.001179
 21
8562.449404
 31
0.0
  0
LINE
  8
6
  6
CONTINUOUS
 62
     6
  5
14D
 10
49350.821178
 20
8561.449404
 30
0.0
 11
49350.821178
 21
8550.709404
 31
0.0
  0
LINE
  8
6
  6
CONTINUOUS
 62
     6
  5
14E
 10
49331.081179
 20
8562.449404
 30
0.0
 11
49310.081179
 21
8562.449404
 31
0.0
  0
LINE
  8
6
  6
CONTINUOUS
 62
     6
  5
14F
 10
49332.621179
 20
8562.449404
 30
0.0
 11
49331.081179
 21
8562.449404
 31
0.0
  0
LINE
  8
6
  6
CONTINUOUS
 62
     6
  5
150
 10
49338.241179
 20
8562.449404
 30
0.0
 11
49332.621179
 21
8562.449404
 31
0.0
  0
LINE
  8
6
  6
CONTINUOUS
 62
     6
  5
151
 10
49343.001179
 20
8562.449404
 30
0.0
 11
49338.241179
 21
8562.449404
 31
0.0
  0
LINE
  8
6
  6
CONTINUOUS
 62
     6
  5
152
 10
49354.881178
 20
8562.449404
 30
0.0
 11
49351.821178
 21
8562.449404
 31
0.0
  0
LINE
  8
6
  6
CONTINUOUS
 62
     6
  5
153
 10
49351.421178
 20
8575.449404
 30
0.0
 11
49351.421178
 21
8573.449404
 31
0.0
  0
LINE
  8
6
  6
CONTINUOUS
 62
     6
  5
154
 10
49351.421178
 20
8575.449404
 30
0.0
 11
49351.421178
 21
8573.449404
 31
0.0
  0
LINE
  8
6
  6
CONTINUOUS
 62
     6
  5
155
 10
49342.361179
 20
8575.449404
 30
0.0
 11
49351.421178
 21
8575.449404
 31
0.0
  0
LINE
  8
6
  6
CONTINUOUS
 62
     6
  5
156
 10
49345.201179
 20
8593.429403
 30
0.0
 11
49342.361179
 21
8575.449404
 31
0.0
  0
LINE
  8
6
  6
CONTINUOUS
 62
     6
  5
157
 10
49351.421178
 20
8593.429403
 30
0.0
 11
49351.421178
 21
8575.449404
 31
0.0
  0
LINE
  8
6
  6
CONTINUOUS
 62
     6
  5
158
 10
49351.421178
 20
8593.429403
 30
0.0
 11
49351.421178
 21
8575.449404
 31
0.0
  0
LINE
  8
6
  6
CONTINUOUS
 62
     6
  5
159
 10
49351.421178
 20
8593.429403
 30
0.0
 11
49351.421178
 21
8575.449404
 31
0.0
  0
LINE
  8
6
  6
CONTINUOUS
 62
     6
  5
15A
 10
49351.421178
 20
8593.429403
 30
0.0
 11
49345.201179
 21
8593.429403
 31
0.0
  0
LINE
  8
6
  6
CONTINUOUS
 62
     6
  5
15B
 10
49351.421178
 20
8595.429403
 30
0.0
 11
49351.421178
 21
8593.429403
 31
0.0
  0
LINE
  8
6
  6
CONTINUOUS
 62
     6
  5
15C
 10
49359.701178
 20
8618.509403
 30
0.0
 11
49359.361178
 21
8597.029403
 31
0.0
  0
LINE
  8
6
  6
CONTINUOUS
 62
     6
  5
15D
 10
49363.701178
 20
8622.429403
 30
0.0
 11
49341.081179
 21
8622.429403
 31
0.0
  0
LINE
  8
6
  6
CONTINUOUS
 62
     6
  5
15E
 10
49372.101178
 20
8622.429403
 30
0.0
 11
49363.701178
 21
8622.429403
 31
0.0
  0
LINE
  8
6
  6
CONTINUOUS
 62
     6
  5
15F
 10
49376.361178
 20
8670.389402
 30
0.0
 11
49376.101178
 21
8626.409403
 31
0.0
  0
LINE
  8
6
  6
CONTINUOUS
 62
     6
  5
160
 10
49377.941178
 20
8686.429401
 30
0.0
 11
49380.721178
 21
8714.909401
 31
0.0
  0
LINE
  8
6
  6
CONTINUOUS
 62
     6
  5
161
 10
49389.461178
 20
8708.569401
 30
0.0
 11
49381.541178
 21
8722.3094
 31
0.0
  0
LINE
  8
6
  6
CONTINUOUS
 62
     6
  5
162
 10
49389.141178
 20
8724.6694
 30
0.0
 11
49388.221178
 21
8724.7894
 31
0.0
  0
LINE
  8
6
  6
CONTINUOUS
 62
     6
  5
163
 10
49388.821178
 20
8741.1294
 30
0.0
 11
49383.821178
 21
8741.1294
 31
0.0
  0
LINE
  8
6
  6
CONTINUOUS
 62
     6
  5
164
 10
49388.821178
 20
8741.1294
 30
0.0
 11
49386.961178
 21
8834.589398
 31
0.0
  0
LINE
  8
6
  6
CONTINUOUS
 62
     6
  5
165
 10
49177.581182
 20
8786.889399
 30
0.0
 11
49181.181182
 21
8787.549399
 31
0.0
  0
LINE
  8
6
  6
CONTINUOUS
 62
     6
  5
166
 10
49177.581182
 20
8786.889399
 30
0.0
 11
49177.881182
 21
8785.989399
 31
0.0
  0
LINE
  8
6
  6
CONTINUOUS
 62
     6
  5
167
 10
49158.541183
 20
8783.489399
 30
0.0
 11
49161.621183
 21
8784.049399
 31
0.0
  0
LINE
  8
6
  6
CONTINUOUS
 62
     6
  5
168
 10
49051.121185
 20
8691.429401
 30
0.0
 11
49041.141185
 21
8723.6894
 31
0.0
  0
LINE
  8
6
  6
CONTINUOUS
 62
     6
  5
169
 10
49389.201178
 20
8721.6494
 30
0.0
 11
49387.841178
 21
8721.8094
 31
0.0
  0
LINE
  8
6
  6
CONTINUOUS
 62
     6
  5
16A
 10
49317.201179
 20
8815.409398
 30
0.0
 11
49316.281179
 21
8810.709398
 31
0.0
  0
LINE
  8
6
  6
CONTINUOUS
 62
     6
  5
16B
 10
49351.421178
 20
8595.429403
 30
0.0
 11
49351.421178
 21
8593.429403
 31
0.0
  0
LINE
  8
6
  6
CONTINUOUS
 62
     6
  5
16C
 10
49351.421178
 20
8595.429403
 30
0.0
 11
49351.421178
 21
8593.429403
 31
0.0
  0
LINE
  8
6
  6
CONTINUOUS
 62
     6
  5
16D
 10
49351.421178
 20
8595.429403
 30
0.0
 11
49351.421178
 21
8593.429403
 31
0.0
  0
LINE
  8
6
  6
CONTINUOUS
 62
     6
  5
16E
 10
49363.421178
 20
8573.449404
 30
0.0
 11
49363.421178
 21
8576.449404
 31
0.0
  0
LINE
  8
6
  6
CONTINUOUS
 62
     6
  5
16F
 10
49358.961178
 20
8571.809404
 30
0.0
 11
49358.881178
 21
8566.389404
 31
0.0
  0
LINE
  8
6
  6
CONTINUOUS
 62
     6
  5
170
 10
49380.581178
 20
8686.429401
 30
0.0
 11
49377.941178
 21
8686.429401
 31
0.0
  0
LINE
  8
6
  6
CONTINUOUS
 62
     6
  5
171
 10
49387.221178
 20
8695.829401
 30
0.0
 11
49389.661178
 21
8698.289401
 31
0.0
  0
LINE
  8
6
  6
CONTINUOUS
 62
     6
  5
172
 10
49380.581178
 20
8683.929401
 30
0.0
 11
49386.581178
 21
8683.929401
 31
0.0
  0
LINE
  8
6
  6
CONTINUOUS
 62
     6
  5
173
 10
49380.581178
 20
8686.429401
 30
0.0
 11
49380.581178
 21
8683.929401
 31
0.0
  0
LINE
  8
6
  6
CONTINUOUS
 62
     6
  5
174
 10
49388.581178
 20
8685.929401
 30
0.0
 11
49388.581178
 21
8693.929401
 31
0.0
  0
LINE
  8
6
  6
CONTINUOUS
 62
     6
  5
175
 10
49389.461178
 20
8708.569401
 30
0.0
 11
49389.201178
 21
8721.6494
 31
0.0
  0
LINE
  8
6
  6
CONTINUOUS
 62
     6
  5
176
 10
49342.241179
 20
8566.409404
 30
0.0
 11
49342.361179
 21
8575.449404
 31
0.0
  0
LINE
  8
6
  6
CONTINUOUS
 62
     6
  5
177
 10
49366.401178
 20
8741.1294
 30
0.0
 11
49364.801178
 21
8655.149402
 31
0.0
  0
LINE
  8
6
  6
CONTINUOUS
 62
     6
  5
178
 10
49337.081179
 20
8618.489403
 30
0.0
 11
49336.621179
 21
8566.409404
 31
0.0
  0
LINE
  8
6
  6
CONTINUOUS
 62
     6
  5
179
 10
49051.421185
 20
8690.489401
 30
0.0
 11
49051.121185
 21
8691.429401
 31
0.0
  0
LINE
  8
6
  6
CONTINUOUS
 62
     6
  5
17A
 10
49038.841185
 20
8738.7094
 30
0.0
 11
49038.841185
 21
8741.1294
 31
0.0
  0
LINE
  8
6
  6
CONTINUOUS
 62
     6
  5
17B
 10
49371.701178
 20
8658.689402
 30
0.0
 11
49380.261178
 21
8715.729401
 31
0.0
  0
LINE
  8
6
  6
CONTINUOUS
 62
     6
  5
17C
 10
49368.741178
 20
8656.129402
 30
0.0
 11
49365.801178
 21
8656.129402
 31
0.0
  0
LINE
  8
6
  6
CONTINUOUS
 62
     6
  5
17D
 10
49349.561179
 20
8549.449404
 30
0.0
 11
49345.261179
 21
8549.449404
 31
0.0
  0
LINE
  8
6
  6
CONTINUOUS
 62
     6
  5
17E
 10
49373.301178
 20
8741.1294
 30
0.0
 11
49366.401178
 21
8741.1294
 31
0.0
  0
LINE
  8
6
  6
CONTINUOUS
 62
     6
  5
17F
 10
49378.541178
 20
8821.589398
 30
0.0
 11
49254.841181
 21
8799.489399
 31
0.0
  0
LINE
  8
6
  6
CONTINUOUS
 62
     6
  5
180
 10
49254.841181
 20
8785.929399
 30
0.0
 11
49254.841181
 21
8799.489399
 31
0.0
  0
LINE
  8
6
  6
CONTINUOUS
 62
     6
  5
181
 10
49345.821179
 20
8785.929399
 30
0.0
 11
49345.821179
 21
8804.289399
 31
0.0
  0
LINE
  8
6
  6
CONTINUOUS
 62
     6
  5
182
 10
49377.221178
 20
8842.249398
 30
0.0
 11
49333.981179
 21
8832.569398
 31
0.0
  0
LINE
  8
6
  6
CONTINUOUS
 62
     6
  5
183
 10
49345.321179
 20
8785.429399
 30
0.0
 11
49255.341181
 21
8785.429399
 31
0.0
  0
LINE
  8
6
  6
CONTINUOUS
 62
     6
  5
184
 10
49366.401178
 20
8749.8694
 30
0.0
 11
49366.401178
 21
8741.1294
 31
0.0
  0
LINE
  8
6
  6
CONTINUOUS
 62
     6
  5
185
 10
49378.821178
 20
8734.1294
 30
0.0
 11
49378.821178
 21
8726.1294
 31
0.0
  0
LINE
  8
6
  6
CONTINUOUS
 62
     6
  5
186
 10
49374.121178
 20
8740.7294
 30
0.0
 11
49378.821178
 21
8734.1294
 31
0.0
  0
LINE
  8
6
  6
CONTINUOUS
 62
     6
  5
187
 10
49382.821178
 20
8750.1294
 30
0.0
 11
49367.401178
 21
8750.1294
 31
0.0
  0
LINE
  8
6
  6
CONTINUOUS
 62
     6
  5
188
 10
49383.821178
 20
8726.1294
 30
0.0
 11
49378.821178
 21
8726.1294
 31
0.0
  0
LINE
  8
6
  6
CONTINUOUS
 62
     6
  5
189
 10
49383.821178
 20
8749.1294
 30
0.0
 11
49383.821178
 21
8726.1294
 31
0.0
  0
LINE
  8
6
  6
CONTINUOUS
 62
     6
  5
18A
 10
49038.841185
 20
8741.1294
 30
0.0
 11
49039.121185
 21
8757.0894
 31
0.0
  0
LINE
  8
6
  6
CONTINUOUS
 62
     6
  5
18B
 10
49310.081179
 20
8550.449404
 30
0.0
 11
49331.081179
 21
8550.449404
 31
0.0
  0
LINE
  8
6
  6
CONTINUOUS
 62
     6
  5
18C
 10
49331.081179
 20
8562.449404
 30
0.0
 11
49331.081179
 21
8550.449404
 31
0.0
  0
LINE
  8
6
  6
CONTINUOUS
 62
     6
  5
18D
 10
49389.141178
 20
8724.6694
 30
0.0
 11
49388.821178
 21
8741.1294
 31
0.0
  0
LINE
  8
6
  6
CONTINUOUS
 62
     6
  5
18E
 10
49389.661178
 20
8698.289401
 30
0.0
 11
49389.641178
 21
8699.469401
 31
0.0
  0
LINE
  8
6
  6
CONTINUOUS
 62
     6
  5
18F
 10
49344.001179
 20
8550.709404
 30
0.0
 11
49344.001179
 21
8561.449404
 31
0.0
  0
LINE
  8
6
  6
CONTINUOUS
 62
     6
  5
190
 10
49285.82118
 20
8561.469404
 30
0.0
 11
49285.82118
 21
8550.709404
 31
0.0
  0
LINE
  8
6
  6
CONTINUOUS
 62
     6
  5
191
 10
49289.16118
 20
8554.709404
 30
0.0
 11
49294.02118
 21
8562.009404
 31
0.0
  0
LINE
  8
6
  6
CONTINUOUS
 62
     6
  5
192
 10
49288.32118
 20
8551.949404
 30
0.0
 11
49288.32118
 21
8550.709404
 31
0.0
  0
LINE
  8
6
  6
CONTINUOUS
 62
     6
  5
193
 10
49316.281179
 20
8810.709398
 30
0.0
 11
49177.881182
 21
8785.989399
 31
0.0
  0
LINE
  8
6
  6
CONTINUOUS
 62
     6
  5
194
 10
49376.361178
 20
8670.389402
 30
0.0
 11
49377.941178
 21
8686.429401
 31
0.0
  0
LINE
  8
6
  6
CONTINUOUS
 62
     6
  5
195
 10
49632.821172
 20
9133.429391
 30
0.0
 11
49409.861177
 21
9133.429391
 31
0.0
  0
LINE
  8
6
  6
CONTINUOUS
 62
     6
  5
196
 10
49427.601177
 20
8692.429401
 30
0.0
 11
49622.961172
 21
8692.429401
 31
0.0
  0
LINE
  8
6
  6
CONTINUOUS
 62
     6
  5
197
 10
49632.821172
 20
8717.429401
 30
0.0
 11
49632.821172
 21
9133.429391
 31
0.0
  0
LINE
  8
6
  6
CONTINUOUS
 62
     6
  5
198
 10
49417.481177
 20
8717.369401
 30
0.0
 11
49417.141177
 21
8742.5094
 31
0.0
  0
LINE
  8
6
  6
CONTINUOUS
 62
     6
  5
199
 10
49415.061177
 20
8748.4694
 30
0.0
 11
49409.861177
 21
9133.429391
 31
0.0
  0
LINE
  8
6
  6
CONTINUOUS
 62
     6
  5
19A
 10
49409.861177
 20
9133.429391
 30
0.0
 11
49413.821177
 21
9137.429391
 31
0.0
  0
LINE
  8
6
  6
CONTINUOUS
 62
     6
  5
19B
 10
49632.821172
 20
9133.429391
 30
0.0
 11
49628.821172
 21
9137.429391
 31
0.0
  0
LINE
  8
6
  6
CONTINUOUS
 62
     6
  5
19C
 10
49409.821177
 20
9140.429391
 30
0.0
 11
49409.821177
 21
9170.78939
 31
0.0
  0
LINE
  8
6
  6
CONTINUOUS
 62
     6
  5
19D
 10
49620.601172
 20
9178.50939
 30
0.0
 11
49421.201177
 21
9178.50939
 31
0.0
  0
LINE
  8
6
  6
CONTINUOUS
 62
     6
  5
19E
 10
49629.821172
 20
9137.429391
 30
0.0
 11
49412.821177
 21
9137.429391
 31
0.0
  0
LINE
  8
6
  6
CONTINUOUS
 62
     6
  5
19F
 10
49632.821172
 20
9140.429391
 30
0.0
 11
49632.821172
 21
9170.78939
 31
0.0
  0
LINE
  8
6
  6
CONTINUOUS
 62
     6
  5
1A0
 10
49628.821172
 20
9137.429391
 30
0.0
 11
49413.821177
 21
9137.429391
 31
0.0
  0
LINE
  8
6
  6
CONTINUOUS
 62
     6
  5
1A1
 10
49376.101178
 20
8626.429403
 30
0.0
 11
49376.101178
 21
8626.409403
 31
0.0
  0
ARC
  8
6
  6
CONTINUOUS
 62
     6
  5
1A2
 10
49374.801178
 20
8477.449406
 30
0.0
 40
20.0
 50
7.21
 51
90.0
  0
ARC
  8
6
  6
CONTINUOUS
 62
     6
  5
1A3
 10
48733.861192
 20
8768.429399
 30
0.0
 40
591.259987
 50
333.16
 51
339.0
  0
ARC
  8
6
  6
CONTINUOUS
 62
     6
  5
1A4
 10
49435.241177
 20
8642.209402
 30
0.0
 40
14.98
 50
272.13
 51
315.94
  0
ARC
  8
6
  6
CONTINUOUS
 62
     6
  5
1A5
 10
49486.881175
 20
8652.429402
 30
0.0
 40
15.0
 50
90.0
 51
135.94
  0
ARC
  8
6
  6
CONTINUOUS
 62
     6
  5
1A6
 10
49360.821178
 20
8357.469409
 30
0.0
 40
20.0
 50
180.0
 51
270.0
  0
ARC
  8
6
  6
CONTINUOUS
 62
     6
  5
1A7
 10
49320.821179
 20
8464.449406
 30
0.0
 40
20.0
 50
0.0
 51
90.0
  0
ARC
  8
6
  6
CONTINUOUS
 62
     6
  5
1A8
 10
49272.10118
 20
8496.449406
 30
0.0
 40
11.98
 50
153.15
 51
270.0
  0
ARC
  8
6
  6
CONTINUOUS
 62
     6
  5
1A9
 10
49037.461185
 20
8693.429401
 30
0.0
 40
139.999997
 50
188.28
 51
216.81
  0
ARC
  8
6
  6
CONTINUOUS
 62
     6
  5
1AA
 10
48906.841188
 20
8674.429402
 30
0.0
 40
8.0
 50
90.0
 51
188.28
  0
ARC
  8
6
  6
CONTINUOUS
 62
     6
  5
1AB
 10
49428.821177
 20
8687.429401
 30
0.0
 40
5.0
 50
270.0
 51
0.0
  0
ARC
  8
6
  6
CONTINUOUS
 62
     6
  5
1AC
 10
49456.821176
 20
8691.429401
 30
0.0
 40
1.0
 50
90.0
 51
180.0
  0
ARC
  8
6
  6
CONTINUOUS
 62
     6
  5
1AD
 10
49464.821176
 20
8691.429401
 30
0.0
 40
1.0
 50
0.0
 51
90.0
  0
ARC
  8
6
  6
CONTINUOUS
 62
     6
  5
1AE
 10
48966.841187
 20
8482.449406
 30
0.0
 40
69.979998
 50
354.95
 51
60.92
  0
LINE
  8
6
  6
CONTINUOUS
 62
     6
  5
1AF
 10
49028.841186
 20
8312.46941
 30
0.0
 11
49036.561186
 21
8476.289406
 31
0.0
  0
ARC
  8
6
  6
CONTINUOUS
 62
     6
  5
1B0
 10
49117.521184
 20
8753.3494
 30
0.0
 40
239.999995
 50
216.81
 51
240.92
  0
ARC
  8
6
  6
CONTINUOUS
 62
     6
  5
1B1
 10
49533.821174
 20
8622.449403
 30
0.0
 40
14.98
 50
287.36
 51
0.0
  0
ARC
  8
6
  6
CONTINUOUS
 62
     6
  5
1B2
 10
49421.821177
 20
8424.469407
 30
0.0
 40
20.0
 50
180.0
 51
187.21
  0
ARC
  8
6
  6
CONTINUOUS
 62
     6
  5
1B3
 10
49476.861176
 20
8532.369405
 30
0.0
 40
53.999999
 50
107.36
 51
170.0
  0
ARC
  8
6
  6
CONTINUOUS
 62
     6
  5
1B4
 10
49008.261186
 20
8688.789401
 30
0.0
 40
4.0
 50
138.51
 51
180.0
  0
ARC
  8
6
  6
CONTINUOUS
 62
     6
  5
1B5
 10
48951.081187
 20
8696.429401
 30
0.0
 40
5.0
 50
264.2
 51
270.0
  0
ARC
  8
6
  6
CONTINUOUS
 62
     6
  5
1B6
 10
48893.841189
 20
8699.249401
 30
0.0
 40
2.0
 50
180.0
 51
264.2
  0
ARC
  8
6
  6
CONTINUOUS
 62
     6
  5
1B7
 10
48897.261189
 20
8739.4094
 30
0.0
 40
4.0
 50
98.45
 51
169.62
  0
ARC
  8
6
  6
CONTINUOUS
 62
     6
  5
1B8
 10
48995.701186
 20
8728.9294
 30
0.0
 40
5.0
 50
270.0
 51
0.0
  0
ARC
  8
6
  6
CONTINUOUS
 62
     6
  5
1B9
 10
48980.281187
 20
8728.9294
 30
0.0
 40
5.0
 50
180.0
 51
270.0
  0
ARC
  8
6
  6
CONTINUOUS
 62
     6
  5
1BA
 10
48904.021188
 20
8714.689401
 30
0.0
 40
9.0
 50
90.0
 51
168.45
  0
ARC
  8
6
  6
CONTINUOUS
 62
     6
  5
1BB
 10
49343.001179
 20
8561.449404
 30
0.0
 40
1.0
 50
0.0
 51
90.0
  0
ARC
  8
6
  6
CONTINUOUS
 62
     6
  5
1BC
 10
49351.821178
 20
8561.449404
 30
0.0
 40
1.0
 50
90.0
 51
180.0
  0
ARC
  8
6
  6
CONTINUOUS
 62
     6
  5
1BD
 10
49357.421178
 20
8582.869404
 30
0.0
 40
11.16
 50
277.96
 51
302.53
  0
ARC
  8
6
  6
CONTINUOUS
 62
     6
  5
1BE
 10
49363.701178
 20
8618.429403
 30
0.0
 40
4.0
 50
90.0
 51
179.11
  0
ARC
  8
6
  6
CONTINUOUS
 62
     6
  5
1BF
 10
49357.421178
 20
8586.049404
 30
0.0
 40
11.16
 50
80.0
 51
122.53
  0
ARC
  8
6
  6
CONTINUOUS
 62
     6
  5
1C0
 10
49088.841184
 20
8738.6894
 30
0.0
 40
49.999999
 50
188.93
 51
197.47
  0
ARC
  8
6
  6
CONTINUOUS
 62
     6
  5
1C1
 10
49379.701178
 20
8658.069402
 30
0.0
 40
64.239999
 50
82.72
 51
88.36
  0
ARC
  8
6
  6
CONTINUOUS
 62
     6
  5
1C2
 10
49379.701178
 20
8658.069402
 30
0.0
 40
67.259998
 50
82.72
 51
88.3
  0
ARC
  8
6
  6
CONTINUOUS
 62
     6
  5
1C3
 10
49357.421178
 20
8586.049404
 30
0.0
 40
11.16
 50
57.48
 51
80.0
  0
ARC
  8
6
  6
CONTINUOUS
 62
     6
  5
1C4
 10
49357.421178
 20
8582.869404
 30
0.0
 40
11.16
 50
237.48
 51
277.96
  0
ARC
  8
6
  6
CONTINUOUS
 62
     6
  5
1C5
 10
49386.581178
 20
8693.929401
 30
0.0
 40
2.0
 50
0.0
 51
71.78
  0
ARC
  8
6
  6
CONTINUOUS
 62
     6
  5
1C6
 10
49386.581178
 20
8685.929401
 30
0.0
 40
2.0
 50
270.0
 51
0.0
  0
ARC
  8
6
  6
CONTINUOUS
 62
     6
  5
1C7
 10
49338.241179
 20
8566.449404
 30
0.0
 40
4.0
 50
270.0
 51
359.23
  0
ARC
  8
6
  6
CONTINUOUS
 62
     6
  5
1C8
 10
49345.261179
 20
8550.709404
 30
0.0
 40
1.24
 50
180.0
 51
270.0
  0
ARC
  8
6
  6
CONTINUOUS
 62
     6
  5
1C9
 10
49368.741178
 20
8659.129402
 30
0.0
 40
3.0
 50
270.0
 51
351.47
  0
ARC
  8
6
  6
CONTINUOUS
 62
     6
  5
1CA
 10
49365.801178
 20
8655.129402
 30
0.0
 40
1.0
 50
90.0
 51
178.94
  0
ARC
  8
6
  6
CONTINUOUS
 62
     6
  5
1CB
 10
49372.101178
 20
8626.429403
 30
0.0
 40
4.0
 50
270.0
 51
359.56
  0
ARC
  8
6
  6
CONTINUOUS
 62
     6
  5
1CC
 10
49088.841184
 20
8738.7094
 30
0.0
 40
49.999999
 50
180.0
 51
188.93
  0
LINE
  8
6
  6
CONTINUOUS
 62
     6
  5
1CD
 10
49265.58118
 20
8564.589404
 30
0.0
 11
49053.021185
 21
8688.349401
 31
0.0
  0
ARC
  8
6
  6
CONTINUOUS
 62
     6
  5
1CE
 10
49332.621179
 20
8566.449404
 30
0.0
 40
4.0
 50
270.0
 51
359.23
  0
ARC
  8
6
  6
CONTINUOUS
 62
     6
  5
1CF
 10
49341.081179
 20
8618.429403
 30
0.0
 40
4.0
 50
90.0
 51
179.23
  0
ARC
  8
6
  6
CONTINUOUS
 62
     6
  5
1D0
 10
49176.901182
 20
8746.1494
 30
0.0
 40
53.999999
 50
90.92
 51
109.35
  0
ARC
  8
6
  6
CONTINUOUS
 62
     6
  5
1D1
 10
49277.10118
 20
8801.909399
 30
0.0
 40
119.999997
 50
183.51
 51
188.83
  0
ARC
  8
6
  6
CONTINUOUS
 62
     6
  5
1D2
 10
49176.061182
 20
8797.629399
 30
0.0
 40
2.5
 50
16.76
 51
90.92
  0
ARC
  8
6
  6
CONTINUOUS
 62
     6
  5
1D3
 10
49176.061182
 20
8797.629399
 30
0.0
 40
2.5
 50
16.76
 51
90.92
  0
ARC
  8
6
  6
CONTINUOUS
 62
     6
  5
1D4
 10
49063.561185
 20
8763.7494
 30
0.0
 40
119.999997
 50
11.44
 51
16.76
  0
ARC
  8
6
  6
CONTINUOUS
 62
     6
  5
1D5
 10
49310.981179
 20
9031.629394
 30
0.0
 40
227.439995
 50
279.46
 51
282.59
  0
ARC
  8
6
  6
CONTINUOUS
 62
     6
  5
1D6
 10
49348.821179
 20
8804.289399
 30
0.0
 40
3.0
 50
99.46
 51
180.0
  0
ARC
  8
6
  6
CONTINUOUS
 62
     6
  5
1D7
 10
49379.421178
 20
8816.669398
 30
0.0
 40
5.0
 50
17.69
 51
100.14
  0
ARC
  8
6
  6
CONTINUOUS
 62
     6
  5
1D8
 10
49255.341181
 20
8785.929399
 30
0.0
 40
0.5
 50
180.0
 51
270.0
  0
ARC
  8
6
  6
CONTINUOUS
 62
     6
  5
1D9
 10
49345.321179
 20
8785.929399
 30
0.0
 40
0.5
 50
270.0
 51
0.0
  0
ARC
  8
6
  6
CONTINUOUS
 62
     6
  5
1DA
 10
49383.181178
 20
8817.149398
 30
0.0
 40
1.0
 50
290.35
 51
334.14
  0
ARC
  8
6
  6
CONTINUOUS
 62
     6
  5
1DB
 10
49382.281178
 20
8817.569398
 30
0.0
 40
2.0
 50
334.14
 51
17.79
  0
ARC
  8
6
  6
CONTINUOUS
 62
     6
  5
1DC
 10
49329.241179
 20
8962.589395
 30
0.0
 40
156.119997
 50
281.57
 51
288.93
  0
ARC
  8
6
  6
CONTINUOUS
 62
     6
  5
1DD
 10
49329.241179
 20
8962.589395
 30
0.0
 40
156.119997
 50
288.8
 51
290.35
  0
ARC
  8
6
  6
CONTINUOUS
 62
     6
  5
1DE
 10
49373.301178
 20
8740.1294
 30
0.0
 40
1.0
 50
35.54
 51
90.0
  0
ARC
  8
6
  6
CONTINUOUS
 62
     6
  5
1DF
 10
49367.401178
 20
8751.1294
 30
0.0
 40
1.0
 50
180.0
 51
270.0
  0
ARC
  8
6
  6
CONTINUOUS
 62
     6
  5
1E0
 10
49382.821178
 20
8749.1294
 30
0.0
 40
1.0
 50
0.0
 51
90.0
  0
ARC
  8
6
  6
CONTINUOUS
 62
     6
  5
1E1
 10
49294.86118
 20
8561.449404
 30
0.0
 40
1.0
 50
90.0
 51
146.31
  0
ARC
  8
6
  6
CONTINUOUS
 62
     6
  5
1E2
 10
49287.06118
 20
8550.709404
 30
0.0
 40
1.24
 50
180.0
 51
0.0
  0
ARC
  8
6
  6
CONTINUOUS
 62
     6
  5
1E3
 10
49284.82118
 20
8561.469404
 30
0.0
 40
1.0
 50
0.0
 51
81.02
  0
ARC
  8
6
  6
CONTINUOUS
 62
     6
  5
1E4
 10
49293.32118
 20
8551.949404
 30
0.0
 40
5.0
 50
146.31
 51
180.0
  0
LINE
  8
6
  6
CONTINUOUS
 62
     6
  5
1E5
 10
49417.481177
 20
9179.68939
 30
0.0
 11
49521.321175
 21
9187.42939
 31
0.0
  0
ARC
  8
6
  6
CONTINUOUS
 62
     6
  5
1E6
 10
49567.821174
 20
8717.429401
 30
0.0
 40
64.999999
 50
341.93
 51
0.01
  0
ARC
  8
6
  6
CONTINUOUS
 62
     6
  5
1E7
 10
49622.961172
 20
8699.429401
 30
0.0
 40
7.0
 50
270.0
 51
341.93
  0
ARC
  8
6
  6
CONTINUOUS
 62
     6
  5
1E8
 10
49482.481176
 20
8718.249401
 30
0.0
 40
64.979999
 50
180.78
 51
198.93
  0
ARC
  8
6
  6
CONTINUOUS
 62
     6
  5
1E9
 10
49427.601177
 20
8699.429401
 30
0.0
 40
6.98
 50
198.92
 51
270.0
  0
ARC
  8
6
  6
CONTINUOUS
 62
     6
  5
1EA
 10
49412.141177
 20
8742.4494
 30
0.0
 40
5.0
 50
0.78
 51
37.65
  0
ARC
  8
6
  6
CONTINUOUS
 62
     6
  5
1EB
 10
49420.061177
 20
8748.5494
 30
0.0
 40
4.98
 50
180.78
 51
217.65
  0
LINE
  8
6
  6
CONTINUOUS
 62
     6
  5
1EC
 10
49521.321175
 20
9187.42939
 30
0.0
 11
49625.161172
 21
9179.68939
 31
0.0
  0
ARC
  8
6
  6
CONTINUOUS
 62
     6
  5
1ED
 10
49418.821177
 20
9170.78939
 30
0.0
 40
9.0
 50
98.54
 51
180.01
  0
ARC
  8
6
  6
CONTINUOUS
 62
     6
  5
1EE
 10
49412.821177
 20
9140.429391
 30
0.0
 40
3.0
 50
180.0
 51
270.0
  0
ARC
  8
6
  6
CONTINUOUS
 62
     6
  5
1EF
 10
49629.821172
 20
9140.429391
 30
0.0
 40
3.0
 50
270.0
 51
0.0
  0
ARC
  8
6
  6
CONTINUOUS
 62
     6
  5
1F0
 10
49623.821172
 20
9170.78939
 30
0.0
 40
9.0
 50
0.0
 51
81.47
  0
ARC
  8
6
  6
CONTINUOUS
 62
     6
  5
1F1
 10
48892.841189
 20
8731.9294
 30
0.0
 40
1.0
 50
169.62
 51
270.0
  0
ARC
  8
6
  6
CONTINUOUS
 62
     6
  5
1F2
 10
49001.261186
 20
8685.429401
 30
0.0
 40
3.0
 50
270.0
 51
0.0
  0
ARC
  8
6
  6
CONTINUOUS
 62
     6
  5
1F3
 10
48981.721187
 20
8685.429401
 30
0.0
 40
3.0
 50
180.0
 51
270.0
  0
ARC
  8
6
  6
CONTINUOUS
 62
     6
  5
1F4
 10
49338.781179
 20
8811.089398
 30
0.0
 40
22.0
 50
102.62
 51
168.7
  0
ARC
  8
6
  6
CONTINUOUS
 62
     6
  5
1F5
 10
49274.56118
 20
8582.449404
 30
0.0
 40
20.0
 50
243.32
 51
270.0
  0
ARC
  8
6
  6
CONTINUOUS
 62
     6
  5
1F6
 10
49349.561179
 20
8550.709404
 30
0.0
 40
1.24
 50
270.0
 51
0.0
  0
ARC
  8
6
  6
CONTINUOUS
 62
     6
  5
1F7
 10
49354.881178
 20
8566.449404
 30
0.0
 40
4.0
 50
270.0
 51
359.11
  0
ARC
  8
6
  6
CONTINUOUS
 62
     6
  5
1F8
 10
49378.981178
 20
8834.429398
 30
0.0
 40
8.0
 50
1.14
 51
102.62
  0
ARC
  8
6
  6
CONTINUOUS
 62
     6
  5
1F9
 10
49159.841183
 20
8794.729399
 30
0.0
 40
2.5
 50
109.35
 51
183.51
  0
ARC
  8
6
  6
CONTINUOUS
 62
     6
  5
1FA
 10
49044.121185
 20
8757.0094
 30
0.0
 40
5.0
 50
100.14
 51
179.01
  0
ARC
  8
6
  6
CONTINUOUS
 62
     6
  5
1FB
 10
49055.241185
 20
8691.669401
 30
0.0
 40
4.0
 50
197.2
 51
236.27
  0
LINE
  8
6
  6
CONTINUOUS
 62
     6
  5
1FC
 10
48896.661189
 20
8743.3694
 30
0.0
 11
48930.354926
 21
8748.185045
 31
0.0
  0
LINE
  8
6
  6
CONTINUOUS
 62
     6
  5
1FD
 10
48932.821172
 20
8748.537531
 30
0.0
 11
49110.201184
 21
8773.889399
 31
0.0
  0
LINE
  8
6
  6
CONTINUOUS
 62
     6
  5
1FE
 10
48637.340839
 20
8804.04091
 30
0.0
 11
48643.841239
 21
8804.04091
 31
0.0
  0
LINE
  8
6
  6
CONTINUOUS
 62
     6
  5
1FF
 10
48637.340839
 20
8895.24071
 30
0.0
 11
48638.340839
 21
8895.24071
 31
0.0
  0
LINE
  8
6
  6
CONTINUOUS
 62
     6
  5
200
 10
48766.341439
 20
8803.14111
 30
0.0
 11
48769.105139
 21
8803.14111
 31
0.0
  0
LINE
  8
6
  6
CONTINUOUS
 62
     6
  5
201
 10
48766.341439
 20
8896.14051
 30
0.0
 11
48766.341439
 21
8803.14111
 31
0.0
  0
LINE
  8
6
  6
CONTINUOUS
 62
     6
  5
202
 10
48766.341439
 20
8896.14051
 30
0.0
 11
48769.306339
 21
8896.14051
 31
0.0
  0
LINE
  8
6
  6
CONTINUOUS
 62
     6
  5
203
 10
48637.340839
 20
8803.14111
 30
0.0
 11
48634.578039
 21
8803.14111
 31
0.0
  0
LINE
  8
6
  6
CONTINUOUS
 62
     6
  5
204
 10
48637.340839
 20
8896.14051
 30
0.0
 11
48637.340839
 21
8803.14111
 31
0.0
  0
LINE
  8
6
  6
CONTINUOUS
 62
     6
  5
205
 10
48637.340839
 20
8896.14051
 30
0.0
 11
48634.376839
 21
8896.14051
 31
0.0
  0
LINE
  8
6
  6
CONTINUOUS
 62
     6
  5
206
 10
48637.340839
 20
8834.14101
 30
0.0
 11
48643.841239
 21
8834.14101
 31
0.0
  0
LINE
  8
6
  6
CONTINUOUS
 62
     6
  5
207
 10
48637.340839
 20
8850.01651
 30
0.0
 11
48643.841239
 21
8849.90631
 31
0.0
  0
LINE
  8
6
  6
CONTINUOUS
 62
     6
  5
208
 10
48766.341439
 20
8834.14101
 30
0.0
 11
48759.841139
 21
8834.14101
 31
0.0
  0
LINE
  8
6
  6
CONTINUOUS
 62
     6
  5
209
 10
48766.341439
 20
8850.01651
 30
0.0
 11
48759.841139
 21
8849.90631
 31
0.0
  0
LINE
  8
6
  6
CONTINUOUS
 62
     6
  5
20A
 10
48765.341439
 20
8897.46941
 30
0.0
 11
48765.341439
 21
8884.70851
 31
0.0
  0
LINE
  8
6
  6
CONTINUOUS
 62
     6
  5
20B
 10
48638.340839
 20
8897.46941
 30
0.0
 11
48638.340839
 21
8884.70851
 31
0.0
  0
LINE
  8
6
  6
CONTINUOUS
 62
     6
  5
20C
 10
48765.341439
 20
8894.74071
 30
0.0
 11
48765.341439
 21
8887.74081
 31
0.0
  0
LINE
  8
6
  6
CONTINUOUS
 62
     6
  5
20D
 10
48638.340839
 20
8894.74071
 30
0.0
 11
48638.340839
 21
8887.74081
 31
0.0
  0
LINE
  8
6
  6
CONTINUOUS
 62
     6
  5
20E
 10
48642.340839
 20
8880.70851
 30
0.0
 11
48761.341539
 21
8880.70851
 31
0.0
  0
LINE
  8
6
  6
CONTINUOUS
 62
     6
  5
20F
 10
48643.841239
 20
8880.70851
 30
0.0
 11
48643.841239
 21
8781.90611
 31
0.0
  0
LINE
  8
6
  6
CONTINUOUS
 62
     6
  5
210
 10
48759.841139
 20
8880.70851
 30
0.0
 11
48759.841139
 21
8781.90611
 31
0.0
  0
LINE
  8
6
  6
CONTINUOUS
 62
     6
  5
211
 10
48643.841239
 20
8781.90611
 30
0.0
 11
48759.841139
 21
8781.90611
 31
0.0
  0
LINE
  8
6
  6
CONTINUOUS
 62
     6
  5
212
 10
48765.341439
 20
8895.24071
 30
0.0
 11
48766.341439
 21
8895.24071
 31
0.0
  0
LINE
  8
6
  6
CONTINUOUS
 62
     6
  5
213
 10
48759.841139
 20
8804.04091
 30
0.0
 11
48766.341439
 21
8804.04091
 31
0.0
  0
ARC
  8
6
  6
CONTINUOUS
 62
     6
  5
214
 10
47984.838339
 20
8852.14071
 30
0.0
 40
799.99998
 50
357.51699
 51
2.121567
  0
ARC
  8
6
  6
CONTINUOUS
 62
     6
  5
215
 10
48769.105139
 20
8818.14091
 30
0.0
 40
15.0
 50
270.0
 51
357.55299
  0
ARC
  8
6
  6
CONTINUOUS
 62
     6
  5
216
 10
48769.306339
 20
8881.14071
 30
0.0
 40
15.0
 50
2.35347
 51
90.0
  0
ARC
  8
6
  6
CONTINUOUS
 62
     6
  5
217
 10
48634.578039
 20
8818.14091
 30
0.0
 40
15.0
 50
182.44699
 51
270.0
  0
ARC
  8
6
  6
CONTINUOUS
 62
     6
  5
218
 10
48634.376839
 20
8881.14071
 30
0.0
 40
15.0
 50
90.0
 51
177.64599
  0
ARC
  8
6
  6
CONTINUOUS
 62
     6
  5
219
 10
48761.341539
 20
8884.70851
 30
0.0
 40
3.999999
 50
270.0
 51
360.0
  0
ARC
  8
6
  6
CONTINUOUS
 62
     6
  5
21A
 10
48642.340839
 20
8884.70851
 30
0.0
 40
3.999999
 50
180.0
 51
270.0
  0
LINE
  8
6
  6
CONTINUOUS
 62
     6
  5
21B
 10
48638.340839
 20
8862.46941
 30
0.0
 11
48765.341439
 21
8862.46941
 31
0.0
  0
ARC
  8
6
  6
CONTINUOUS
 62
     6
  5
21C
 10
49418.840939
 20
8852.14071
 30
0.0
 40
799.99998
 50
177.87799
 51
182.48298
  0
LINE
  8
5
  6
CONTINUOUS
 62
     2
  5
21D
 10
49632.821172
 20
9778.983409
 30
0.0
 11
49632.821172
 21
9578.983409
 31
0.0
  0
LINE
  8
2
  6
CENTER
 62
     3
  5
21E
 10
48957.821072
 20
9112.46947
 30
0.0
 11
48507.821172
 21
9112.46947
 31
0.0
  0
LINE
  8
2
  6
CENTER
 62
     3
  5
21F
 10
48957.821072
 20
9562.46937
 30
0.0
 11
48493.821172
 21
9562.46937
 31
0.0
  0
LINE
  8
2
  6
CENTER
 62
     3
  5
220
 10
48957.821072
 20
9262.46939
 30
0.0
 11
48493.821172
 21
9262.46939
 31
0.0
  0
LINE
  8
2
  6
CENTER
 62
     3
  5
221
 10
48657.821022
 20
9576.46937
 30
0.0
 11
48657.821022
 21
8948.46941
 31
0.0
  0
LINE
  8
2
  6
CENTER
 62
     3
  5
222
 10
48807.821222
 20
9576.46937
 30
0.0
 11
48807.821222
 21
8948.46941
 31
0.0
  0
LINE
  8
2
  6
CENTER
 62
     3
  5
223
 10
48957.821072
 20
9576.46937
 30
0.0
 11
48957.821072
 21
8948.46941
 31
0.0
  0
LINE
  8
2
  6
CENTER
 62
     3
  5
224
 10
48507.821172
 20
9576.46937
 30
0.0
 11
48507.821172
 21
8948.46941
 31
0.0
  0
LINE
  8
2
  6
CENTER
 62
     3
  5
225
 10
48957.821072
 20
8962.46941
 30
0.0
 11
48493.821172
 21
8962.46941
 31
0.0
  0
LINE
  8
5
  6
CONTINUOUS
 62
     3
  5
226
 10
48507.821172
 20
9806.46937
 30
0.0
 11
48507.821172
 21
9606.46937
 31
0.0
  0
LINE
  8
5
  6
CONTINUOUS
 62
     3
  5
227
 10
49632.821172
 20
9806.46937
 30
0.0
 11
49632.821172
 21
9606.46937
 31
0.0
  0
LINE
  8
5
  6
CONTINUOUS
 62
     3
  5
228
 10
48957.821072
 20
9706.46937
 30
0.0
 11
48957.821072
 21
9606.46937
 31
0.0
  0
CIRCLE
  8
5
  6
CONTINUOUS
 62
     3
  5
229
 10
48507.821172
 20
9806.46937
 30
0.0
 40
7.5
  0
CIRCLE
  8
5
  6
CONTINUOUS
 62
     3
  5
22A
 10
49632.821172
 20
9806.46937
 30
0.0
 40
7.5
  0
CIRCLE
  8
5
  6
CONTINUOUS
 62
     3
  5
22B
 10
48507.821172
 20
9706.46937
 30
0.0
 40
7.5
  0
CIRCLE
  8
5
  6
CONTINUOUS
 62
     3
  5
22C
 10
48957.821072
 20
9706.46937
 30
0.0
 40
7.5
  0
CIRCLE
  8
5
  6
CONTINUOUS
 62
     3
  5
22D
 10
49632.821172
 20
9706.46937
 30
0.0
 40
7.5
  0
TEXT
  8
5
  6
CONTINUOUS
 62
     3
  5
22E
 10
48980.321172
 20
9806.46937
 30
0.0
 40
60.0
  1
1,125
 41
0.6
  7

 72
     5
 11
49160.321172
 21
9806.46937
 31
0.0
  0
LINE
  8
5
  6
CONTINUOUS
 62
     3
  5
22F
 10
48507.821172
 20
9806.46937
 30
0.0
 11
49632.821172
 21
9806.46937
 31
0.0
  0
TEXT
  8
5
  6
CONTINUOUS
 62
     3
  5
230
 10
48672.821122
 20
9706.46937
 30
0.0
 40
60.0
  1
450
 41
0.666667
  7

 72
     5
 11
48792.821122
 21
9706.46937
 31
0.0
  0
LINE
  8
5
  6
CONTINUOUS
 62
     3
  5
231
 10
48507.821172
 20
9706.46937
 30
0.0
 11
48957.821072
 21
9706.46937
 31
0.0
  0
TEXT
  8
5
  6
CONTINUOUS
 62
     3
  5
232
 10
49235.321122
 20
9706.46937
 30
0.0
 40
60.0
  1
675
 41
0.666667
  7

 72
     5
 11
49355.321122
 21
9706.46937
 31
0.0
  0
LINE
  8
5
  6
CONTINUOUS
 62
     3
  5
233
 10
48957.821072
 20
9706.46937
 30
0.0
 11
49632.821172
 21
9706.46937
 31
0.0
  0
LINE
  8
5
  6
CONTINUOUS
 62
     3
  5
234
 10
48263.821172
 20
9562.46937
 30
0.0
 11
48463.821172
 21
9562.46937
 31
0.0
  0
LINE
  8
5
  6
CONTINUOUS
 62
     3
  5
235
 10
48263.821172
 20
8312.46941
 30
0.0
 11
48463.821172
 21
8312.46941
 31
0.0
  0
LINE
  8
5
  6
CONTINUOUS
 62
     3
  5
236
 10
48363.821172
 20
8962.46941
 30
0.0
 11
48463.821172
 21
8962.46941
 31
0.0
  0
CIRCLE
  8
5
  6
CONTINUOUS
 62
     3
  5
237
 10
48263.821172
 20
9562.46937
 30
0.0
 40
7.5
  0
CIRCLE
  8
5
  6
CONTINUOUS
 62
     3
  5
238
 10
48263.821172
 20
8312.46941
 30
0.0
 40
7.5
  0
CIRCLE
  8
5
  6
CONTINUOUS
 62
     3
  5
239
 10
48363.821172
 20
8312.46941
 30
0.0
 40
7.5
  0
CIRCLE
  8
5
  6
CONTINUOUS
 62
     3
  5
23A
 10
48363.821172
 20
8962.46941
 30
0.0
 40
7.5
  0
CIRCLE
  8
5
  6
CONTINUOUS
 62
     3
  5
23B
 10
48363.821172
 20
9562.46937
 30
0.0
 40
7.5
  0
TEXT
  8
5
  6
CONTINUOUS
 62
     3
  5
23C
 10
48263.821172
 20
8847.46939
 30
0.0
 40
60.0
  1
1,250
 50
90.0
 41
0.6
  7

 72
     5
 11
48263.821172
 21
9027.46939
 31
0.0
  0
LINE
  8
5
  6
CONTINUOUS
 62
     3
  5
23D
 10
48263.821172
 20
9562.46937
 30
0.0
 11
48263.821172
 21
8312.46941
 31
0.0
  0
TEXT
  8
5
  6
CONTINUOUS
 62
     3
  5
23E
 10
48363.821172
 20
8577.46941
 30
0.0
 40
60.0
  1
650
 50
90.0
 41
0.666667
  7

 72
     5
 11
48363.821172
 21
8697.46941
 31
0.0
  0
LINE
  8
5
  6
CONTINUOUS
 62
     3
  5
23F
 10
48363.821172
 20
8312.46941
 30
0.0
 11
48363.821172
 21
8962.46941
 31
0.0
  0
TEXT
  8
5
  6
CONTINUOUS
 62
     3
  5
240
 10
48363.821172
 20
9202.46939
 30
0.0
 40
60.0
  1
600
 50
90.0
 41
0.666667
  7

 72
     5
 11
48363.821172
 21
9322.46939
 31
0.0
  0
LINE
  8
5
  6
CONTINUOUS
 62
     3
  5
241
 10
48363.821172
 20
8962.46941
 30
0.0
 11
48363.821172
 21
9562.46937
 31
0.0
  0
ARC
  8
2
  6
CONTINUOUS
 62
     4
  5
242
 10
48539.821182
 20
8994.46935
 30
0.0
 40
18.00008
 50
180.0
 51
270.0
  0
ARC
  8
2
  6
CONTINUOUS
 62
     4
  5
243
 10
48539.821182
 20
8994.46935
 30
0.0
 40
46.00008
 50
180.0
 51
270.0
  0
ARC
  8
2
  6
CONTINUOUS
 62
     4
  5
244
 10
48626.321022
 20
8994.46935
 30
0.0
 40
18.00008
 50
270.0
 51
0.0
  0
ARC
  8
2
  6
CONTINUOUS
 62
     4
  5
245
 10
48690.321182
 20
8994.46935
 30
0.0
 40
18.00008
 50
180.0
 51
270.0
  0
LINE
  8
2
  6
CONTINUOUS
 62
     4
  5
246
 10
48926.821222
 20
8948.46941
 30
0.0
 11
48539.821182
 21
8948.46941
 31
0.0
  0
LINE
  8
2
  6
CONTINUOUS
 62
     4
  5
247
 10
48539.821182
 20
8976.46941
 30
0.0
 11
48626.321022
 21
8976.46941
 31
0.0
  0
LINE
  8
2
  6
CONTINUOUS
 62
     4
  5
248
 10
48644.321172
 20
8994.46935
 30
0.0
 11
48644.321172
 21
9080.46939
 31
0.0
  0
LINE
  8
2
  6
CONTINUOUS
 62
     4
  5
249
 10
48521.821172
 20
8994.46935
 30
0.0
 11
48521.821172
 21
9080.46939
 31
0.0
  0
LINE
  8
2
  6
CONTINUOUS
 62
     4
  5
24A
 10
48539.821182
 20
9098.46933
 30
0.0
 11
48626.321022
 21
9098.46933
 31
0.0
  0
ARC
  8
2
  6
CONTINUOUS
 62
     4
  5
24B
 10
48626.321022
 20
9080.46939
 30
0.0
 40
18.00008
 50
0.0
 51
90.0
  0
ARC
  8
2
  6
CONTINUOUS
 62
     4
  5
24C
 10
48926.821222
 20
8994.46935
 30
0.0
 40
46.00008
 50
270.0
 51
0.0
  0
ARC
  8
2
  6
CONTINUOUS
 62
     4
  5
24D
 10
48926.821222
 20
8994.46935
 30
0.0
 40
18.00008
 50
270.0
 51
0.0
  0
LINE
  8
2
  6
CONTINUOUS
 62
     4
  5
24E
 10
48972.821022
 20
8994.46935
 30
0.0
 11
48972.821022
 21
9126.46933
 31
0.0
  0
LINE
  8
2
  6
CONTINUOUS
 62
     4
  5
24F
 10
48944.821022
 20
9080.46939
 30
0.0
 11
48944.821022
 21
8994.46935
 31
0.0
  0
LINE
  8
2
  6
CONTINUOUS
 62
     4
  5
250
 10
48822.321022
 20
9080.46939
 30
0.0
 11
48822.321022
 21
8994.46935
 31
0.0
  0
ARC
  8
2
  6
CONTINUOUS
 62
     4
  5
251
 10
48840.321172
 20
8994.46935
 30
0.0
 40
18.00008
 50
180.0
 51
270.0
  0
LINE
  8
2
  6
CONTINUOUS
 62
     4
  5
252
 10
48840.321172
 20
8976.46941
 30
0.0
 11
48926.821222
 21
8976.46941
 31
0.0
  0
LINE
  8
2
  6
CONTINUOUS
 62
     4
  5
253
 10
48776.321222
 20
8976.46941
 30
0.0
 11
48690.321182
 21
8976.46941
 31
0.0
  0
ARC
  8
2
  6
CONTINUOUS
 62
     4
  5
254
 10
48776.321222
 20
8994.46935
 30
0.0
 40
18.00008
 50
270.0
 51
0.0
  0
LINE
  8
2
  6
CONTINUOUS
 62
     4
  5
255
 10
48794.321022
 20
9080.46939
 30
0.0
 11
48794.321022
 21
8994.46935
 31
0.0
  0
LINE
  8
2
  6
CONTINUOUS
 62
     4
  5
256
 10
48672.321172
 20
8994.46935
 30
0.0
 11
48672.321172
 21
9080.46939
 31
0.0
  0
LINE
  8
2
  6
CONTINUOUS
 62
     4
  5
257
 10
48776.321222
 20
9098.46933
 30
0.0
 11
48690.321182
 21
9098.46933
 31
0.0
  0
ARC
  8
2
  6
CONTINUOUS
 62
     4
  5
258
 10
48840.321172
 20
9080.46939
 30
0.0
 40
18.00008
 50
90.0
 51
180.0
  0
LINE
  8
2
  6
CONTINUOUS
 62
     4
  5
259
 10
48926.821222
 20
9098.46933
 30
0.0
 11
48840.321172
 21
9098.46933
 31
0.0
  0
LINE
  8
2
  6
CONTINUOUS
 62
     4
  5
25A
 10
48926.821222
 20
9126.46933
 30
0.0
 11
48840.321172
 21
9126.46933
 31
0.0
  0
ARC
  8
2
  6
CONTINUOUS
 62
     4
  5
25B
 10
48840.321172
 20
9144.46941
 30
0.0
 40
18.00008
 50
180.0
 51
270.0
  0
LINE
  8
2
  6
CONTINUOUS
 62
     4
  5
25C
 10
48690.321182
 20
9126.46933
 30
0.0
 11
48776.321222
 21
9126.46933
 31
0.0
  0
ARC
  8
2
  6
CONTINUOUS
 62
     4
  5
25D
 10
48776.321222
 20
9144.46941
 30
0.0
 40
18.00008
 50
270.0
 51
0.0
  0
LINE
  8
2
  6
CONTINUOUS
 62
     4
  5
25E
 10
48539.821182
 20
9126.46933
 30
0.0
 11
48626.321022
 21
9126.46933
 31
0.0
  0
ARC
  8
2
  6
CONTINUOUS
 62
     4
  5
25F
 10
48626.321022
 20
9144.46941
 30
0.0
 40
18.00008
 50
270.0
 51
0.0
  0
LINE
  8
2
  6
CONTINUOUS
 62
     4
  5
260
 10
48493.821172
 20
9530.46943
 30
0.0
 11
48493.821172
 21
8994.46935
 31
0.0
  0
ARC
  8
2
  6
CONTINUOUS
 62
     4
  5
261
 10
48776.321222
 20
9080.46939
 30
0.0
 40
18.00008
 50
0.0
 51
90.0
  0
LINE
  8
2
  6
CONTINUOUS
 62
     4
  5
262
 10
48521.821172
 20
9380.46937
 30
0.0
 11
48521.821172
 21
9294.46933
 31
0.0
  0
LINE
  8
2
  6
CONTINUOUS
 62
     4
  5
263
 10
48539.821182
 20
9398.46945
 30
0.0
 11
48626.321022
 21
9398.46945
 31
0.0
  0
ARC
  8
2
  6
CONTINUOUS
 62
     4
  5
264
 10
48626.321022
 20
9380.46937
 30
0.0
 40
18.00008
 50
0.0
 51
90.0
  0
LINE
  8
2
  6
CONTINUOUS
 62
     4
  5
265
 10
48644.321172
 20
9294.46933
 30
0.0
 11
48644.321172
 21
9380.46937
 31
0.0
  0
LINE
  8
2
  6
CONTINUOUS
 62
     4
  5
266
 10
48521.821172
 20
9294.46933
 30
0.0
 11
48521.821172
 21
9380.46937
 31
0.0
  0
LINE
  8
2
  6
CONTINUOUS
 62
     4
  5
267
 10
48539.821182
 20
9398.46945
 30
0.0
 11
48626.321022
 21
9398.46945
 31
0.0
  0
ARC
  8
2
  6
CONTINUOUS
 62
     4
  5
268
 10
48690.321182
 20
9380.46937
 30
0.0
 40
18.00008
 50
90.0
 51
180.0
  0
LINE
  8
2
  6
CONTINUOUS
 62
     4
  5
269
 10
48672.321172
 20
9294.46933
 30
0.0
 11
48672.321172
 21
9380.46937
 31
0.0
  0
LINE
  8
2
  6
CONTINUOUS
 62
     4
  5
26A
 10
48776.321222
 20
9398.46945
 30
0.0
 11
48690.321182
 21
9398.46945
 31
0.0
  0
LINE
  8
2
  6
CONTINUOUS
 62
     4
  5
26B
 10
48794.321022
 20
9294.46933
 30
0.0
 11
48794.321022
 21
9380.46937
 31
0.0
  0
ARC
  8
2
  6
CONTINUOUS
 62
     4
  5
26C
 10
48776.321222
 20
9380.46937
 30
0.0
 40
18.00008
 50
0.0
 51
90.0
  0
LINE
  8
2
  6
CONTINUOUS
 62
     4
  5
26D
 10
48822.321022
 20
9380.46937
 30
0.0
 11
48822.321022
 21
9294.46933
 31
0.0
  0
ARC
  8
2
  6
CONTINUOUS
 62
     4
  5
26E
 10
48840.321172
 20
9380.46937
 30
0.0
 40
18.00008
 50
90.0
 51
180.0
  0
LINE
  8
2
  6
CONTINUOUS
 62
     4
  5
26F
 10
48944.821022
 20
9294.46933
 30
0.0
 11
48944.821022
 21
9380.46937
 31
0.0
  0
LINE
  8
2
  6
CONTINUOUS
 62
     4
  5
270
 10
48972.821022
 20
9412.46945
 30
0.0
 11
48972.821022
 21
9127.39739
 31
0.0
  0
LINE
  8
2
  6
CONTINUOUS
 62
     4
  5
271
 10
48926.821222
 20
9398.46945
 30
0.0
 11
48840.321172
 21
9398.46945
 31
0.0
  0
LINE
  8
2
  6
CONTINUOUS
 62
     4
  5
272
 10
48776.321222
 20
9398.46945
 30
0.0
 11
48690.321182
 21
9398.46945
 31
0.0
  0
ARC
  8
2
  6
CONTINUOUS
 62
     4
  5
273
 10
48539.821182
 20
9530.46943
 30
0.0
 40
46.00008
 50
90.0
 51
180.0
  0
LINE
  8
2
  6
CONTINUOUS
 62
     4
  5
274
 10
48521.821172
 20
9444.46939
 30
0.0
 11
48521.821172
 21
9530.46943
 31
0.0
  0
LINE
  8
2
  6
CONTINUOUS
 62
     4
  5
275
 10
48644.321172
 20
9444.46939
 30
0.0
 11
48644.321172
 21
9530.46943
 31
0.0
  0
LINE
  8
2
  6
CONTINUOUS
 62
     4
  5
276
 10
48644.321172
 20
9444.46939
 30
0.0
 11
48644.321172
 21
9530.46943
 31
0.0
  0
ARC
  8
2
  6
CONTINUOUS
 62
     4
  5
277
 10
48776.321222
 20
9380.46937
 30
0.0
 40
18.00008
 50
0.0
 51
90.0
  0
ARC
  8
2
  6
CONTINUOUS
 62
     4
  5
278
 10
48840.321172
 20
9380.46937
 30
0.0
 40
18.00008
 50
90.0
 51
180.0
  0
ARC
  8
2
  6
CONTINUOUS
 62
     4
  5
279
 10
48690.321182
 20
9380.46937
 30
0.0
 40
18.00008
 50
90.0
 51
180.0
  0
LINE
  8
2
  6
CONTINUOUS
 62
     4
  5
27A
 10
48822.321022
 20
9530.46943
 30
0.0
 11
48822.321022
 21
9444.46939
 31
0.0
  0
LINE
  8
2
  6
CONTINUOUS
 62
     4
  5
27B
 10
48794.321022
 20
9444.46939
 30
0.0
 11
48794.321022
 21
9530.46943
 31
0.0
  0
LINE
  8
2
  6
CONTINUOUS
 62
     4
  5
27C
 10
48944.821022
 20
9444.46939
 30
0.0
 11
48944.821022
 21
9530.46943
 31
0.0
  0
LINE
  8
2
  6
CONTINUOUS
 62
     4
  5
27D
 10
48972.821022
 20
9530.46943
 30
0.0
 11
48972.821022
 21
9426.46945
 31
0.0
  0
ARC
  8
2
  6
CONTINUOUS
 62
     4
  5
27E
 10
48926.821222
 20
9530.46943
 30
0.0
 40
46.00008
 50
0.0
 51
90.0
  0
LINE
  8
2
  6
CONTINUOUS
 62
     4
  5
27F
 10
48794.321022
 20
9530.46943
 30
0.0
 11
48794.321022
 21
9444.46939
 31
0.0
  0
LINE
  8
2
  6
CONTINUOUS
 62
     4
  5
280
 10
48822.321022
 20
9530.46943
 30
0.0
 11
48822.321022
 21
9444.46939
 31
0.0
  0
LINE
  8
2
  6
CONTINUOUS
 62
     4
  5
281
 10
48944.821022
 20
9530.46943
 30
0.0
 11
48944.821022
 21
9444.46939
 31
0.0
  0
LINE
  8
2
  6
CONTINUOUS
 62
     4
  5
282
 10
48672.321172
 20
9444.46939
 30
0.0
 11
48672.321172
 21
9530.46943
 31
0.0
  0
LINE
  8
2
  6
CONTINUOUS
 62
     4
  5
283
 10
48972.821022
 20
9262.46939
 30
0.0
 11
48972.821022
 21
9426.46945
 31
0.0
  0
ARC
  8
2
  6
CONTINUOUS
 62
     4
  5
284
 10
48626.321022
 20
9530.46943
 30
0.0
 40
18.00008
 50
0.0
 51
90.0
  0
ARC
  8
2
  6
CONTINUOUS
 62
     4
  5
285
 10
48539.821182
 20
9530.46943
 30
0.0
 40
18.00008
 50
90.0
 51
180.0
  0
LINE
  8
2
  6
CONTINUOUS
 62
     4
  5
286
 10
48626.321022
 20
9548.46937
 30
0.0
 11
48539.821182
 21
9548.46937
 31
0.0
  0
ARC
  8
2
  6
CONTINUOUS
 62
     4
  5
287
 10
48626.321022
 20
9530.46943
 30
0.0
 40
18.00008
 50
0.0
 51
90.0
  0
LINE
  8
2
  6
CONTINUOUS
 62
     4
  5
288
 10
48926.821222
 20
9548.46937
 30
0.0
 11
48840.321172
 21
9548.46937
 31
0.0
  0
ARC
  8
2
  6
CONTINUOUS
 62
     4
  5
289
 10
48776.321222
 20
9530.46943
 30
0.0
 40
18.00008
 50
0.0
 51
90.0
  0
ARC
  8
2
  6
CONTINUOUS
 62
     4
  5
28A
 10
48840.321172
 20
9530.46943
 30
0.0
 40
18.00008
 50
90.0
 51
180.0
  0
ARC
  8
2
  6
CONTINUOUS
 62
     4
  5
28B
 10
48926.821222
 20
9530.46943
 30
0.0
 40
18.00008
 50
0.0
 51
90.0
  0
ARC
  8
2
  6
CONTINUOUS
 62
     4
  5
28C
 10
48690.321182
 20
9530.46943
 30
0.0
 40
18.00008
 50
90.0
 51
180.0
  0
LINE
  8
2
  6
CONTINUOUS
 62
     4
  5
28D
 10
48776.321222
 20
9548.46937
 30
0.0
 11
48690.321182
 21
9548.46937
 31
0.0
  0
ARC
  8
2
  6
CONTINUOUS
 62
     4
  5
28E
 10
48626.321022
 20
9230.46945
 30
0.0
 40
18.00008
 50
0.0
 51
90.0
  0
LINE
  8
2
  6
CONTINUOUS
 62
     4
  5
28F
 10
48626.321022
 20
9248.46953
 30
0.0
 11
48539.821182
 21
9248.46953
 31
0.0
  0
ARC
  8
2
  6
CONTINUOUS
 62
     4
  5
290
 10
48626.321022
 20
9230.46945
 30
0.0
 40
18.00008
 50
0.0
 51
90.0
  0
LINE
  8
2
  6
CONTINUOUS
 62
     4
  5
291
 10
48926.821222
 20
9248.46953
 30
0.0
 11
48840.321172
 21
9248.46953
 31
0.0
  0
ARC
  8
2
  6
CONTINUOUS
 62
     4
  5
292
 10
48776.321222
 20
9230.46945
 30
0.0
 40
18.00008
 50
0.0
 51
90.0
  0
ARC
  8
2
  6
CONTINUOUS
 62
     4
  5
293
 10
48840.321172
 20
9230.46945
 30
0.0
 40
18.00008
 50
90.0
 51
180.0
  0
ARC
  8
2
  6
CONTINUOUS
 62
     4
  5
294
 10
48926.821222
 20
9230.46945
 30
0.0
 40
18.00008
 50
0.0
 51
90.0
  0
ARC
  8
2
  6
CONTINUOUS
 62
     4
  5
295
 10
48690.321182
 20
9230.46945
 30
0.0
 40
18.00008
 50
90.0
 51
180.0
  0
LINE
  8
2
  6
CONTINUOUS
 62
     4
  5
296
 10
48776.321222
 20
9248.46953
 30
0.0
 11
48690.321182
 21
9248.46953
 31
0.0
  0
LINE
  8
2
  6
CONTINUOUS
 62
     4
  5
297
 10
48539.821182
 20
9426.46945
 30
0.0
 11
48626.321022
 21
9426.46945
 31
0.0
  0
ARC
  8
2
  6
CONTINUOUS
 62
     4
  5
298
 10
48626.321022
 20
9444.46939
 30
0.0
 40
18.00008
 50
270.0
 51
0.0
  0
LINE
  8
2
  6
CONTINUOUS
 62
     4
  5
299
 10
48690.321182
 20
9426.46945
 30
0.0
 11
48776.321222
 21
9426.46945
 31
0.0
  0
LINE
  8
2
  6
CONTINUOUS
 62
     4
  5
29A
 10
48926.821222
 20
9426.46945
 30
0.0
 11
48840.321172
 21
9426.46945
 31
0.0
  0
ARC
  8
2
  6
CONTINUOUS
 62
     4
  5
29B
 10
48776.321222
 20
9444.46939
 30
0.0
 40
18.00008
 50
270.0
 51
0.0
  0
ARC
  8
2
  6
CONTINUOUS
 62
     4
  5
29C
 10
48690.321182
 20
9444.46939
 30
0.0
 40
18.00008
 50
180.0
 51
270.0
  0
ARC
  8
2
  6
CONTINUOUS
 62
     4
  5
29D
 10
48840.321172
 20
9444.46939
 30
0.0
 40
18.00008
 50
180.0
 51
270.0
  0
ARC
  8
2
  6
CONTINUOUS
 62
     4
  5
29E
 10
48626.321022
 20
9444.46939
 30
0.0
 40
18.00008
 50
270.0
 51
0.0
  0
LINE
  8
2
  6
CONTINUOUS
 62
     4
  5
29F
 10
48539.821182
 20
9426.46945
 30
0.0
 11
48626.321022
 21
9426.46945
 31
0.0
  0
ARC
  8
2
  6
CONTINUOUS
 62
     4
  5
2A0
 10
48690.321182
 20
9444.46939
 30
0.0
 40
18.00008
 50
180.0
 51
270.0
  0
ARC
  8
2
  6
CONTINUOUS
 62
     4
  5
2A1
 10
48776.321222
 20
9444.46939
 30
0.0
 40
18.00008
 50
270.0
 51
0.0
  0
ARC
  8
2
  6
CONTINUOUS
 62
     4
  5
2A2
 10
48840.321172
 20
9444.46939
 30
0.0
 40
18.00008
 50
180.0
 51
270.0
  0
LINE
  8
2
  6
CONTINUOUS
 62
     4
  5
2A3
 10
48840.321172
 20
9426.46945
 30
0.0
 11
48926.821222
 21
9426.46945
 31
0.0
  0
LINE
  8
2
  6
CONTINUOUS
 62
     4
  5
2A4
 10
48776.321222
 20
9426.46945
 30
0.0
 11
48690.321182
 21
9426.46945
 31
0.0
  0
ARC
  8
2
  6
CONTINUOUS
 62
     4
  5
2A5
 10
48539.821182
 20
9294.46947
 30
0.0
 40
18.00008
 50
180.0
 51
270.0
  0
ARC
  8
2
  6
CONTINUOUS
 62
     4
  5
2A6
 10
48539.821182
 20
9294.46947
 30
0.0
 40
18.00008
 50
180.0
 51
270.0
  0
ARC
  8
2
  6
CONTINUOUS
 62
     4
  5
2A7
 10
48926.821222
 20
9294.46947
 30
0.0
 40
18.00008
 50
270.0
 51
0.0
  0
ARC
  8
2
  6
CONTINUOUS
 62
     4
  5
2A8
 10
48926.821222
 20
9294.46947
 30
0.0
 40
18.00008
 50
270.0
 51
0.0
  0
LINE
  8
2
  6
CONTINUOUS
 62
     4
  5
2A9
 10
48539.821182
 20
9276.46939
 30
0.0
 11
48626.321022
 21
9276.46939
 31
0.0
  0
ARC
  8
2
  6
CONTINUOUS
 62
     4
  5
2AA
 10
48626.321022
 20
9294.46947
 30
0.0
 40
18.00008
 50
270.0
 51
0.0
  0
LINE
  8
2
  6
CONTINUOUS
 62
     4
  5
2AB
 10
48690.321182
 20
9276.46939
 30
0.0
 11
48776.321222
 21
9276.46939
 31
0.0
  0
LINE
  8
2
  6
CONTINUOUS
 62
     4
  5
2AC
 10
48926.821222
 20
9276.46939
 30
0.0
 11
48840.321172
 21
9276.46939
 31
0.0
  0
ARC
  8
2
  6
CONTINUOUS
 62
     4
  5
2AD
 10
48776.321222
 20
9294.46947
 30
0.0
 40
18.00008
 50
270.0
 51
0.0
  0
ARC
  8
2
  6
CONTINUOUS
 62
     4
  5
2AE
 10
48690.321182
 20
9294.46947
 30
0.0
 40
18.00008
 50
180.0
 51
270.0
  0
ARC
  8
2
  6
CONTINUOUS
 62
     4
  5
2AF
 10
48840.321172
 20
9294.46947
 30
0.0
 40
18.00008
 50
180.0
 51
270.0
  0
ARC
  8
2
  6
CONTINUOUS
 62
     4
  5
2B0
 10
48626.321022
 20
9294.46947
 30
0.0
 40
18.00008
 50
270.0
 51
0.0
  0
LINE
  8
2
  6
CONTINUOUS
 62
     4
  5
2B1
 10
48539.821182
 20
9276.46939
 30
0.0
 11
48626.321022
 21
9276.46939
 31
0.0
  0
ARC
  8
2
  6
CONTINUOUS
 62
     4
  5
2B2
 10
48690.321182
 20
9294.46947
 30
0.0
 40
18.00008
 50
180.0
 51
270.0
  0
ARC
  8
2
  6
CONTINUOUS
 62
     4
  5
2B3
 10
48776.321222
 20
9294.46947
 30
0.0
 40
18.00008
 50
270.0
 51
0.0
  0
ARC
  8
2
  6
CONTINUOUS
 62
     4
  5
2B4
 10
48840.321172
 20
9294.46947
 30
0.0
 40
18.00008
 50
180.0
 51
270.0
  0
LINE
  8
2
  6
CONTINUOUS
 62
     4
  5
2B5
 10
48840.321172
 20
9276.46939
 30
0.0
 11
48926.821222
 21
9276.46939
 31
0.0
  0
LINE
  8
2
  6
CONTINUOUS
 62
     4
  5
2B6
 10
48776.321222
 20
9276.46939
 30
0.0
 11
48690.321182
 21
9276.46939
 31
0.0
  0
LINE
  8
2
  6
CONTINUOUS
 62
     4
  5
2B7
 10
48644.321172
 20
9144.46941
 30
0.0
 11
48644.321172
 21
9230.46945
 31
0.0
  0
LINE
  8
2
  6
CONTINUOUS
 62
     4
  5
2B8
 10
48794.321022
 20
9144.46941
 30
0.0
 11
48794.321022
 21
9232.15785
 31
0.0
  0
LINE
  8
2
  6
CONTINUOUS
 62
     4
  5
2B9
 10
48822.321232
 20
9230.46945
 30
0.0
 11
48822.321232
 21
9144.46941
 31
0.0
  0
LINE
  8
2
  6
CONTINUOUS
 62
     4
  5
2BA
 10
48944.821232
 20
9230.46945
 30
0.0
 11
48944.821232
 21
9144.46941
 31
0.0
  0
LINE
  8
2
  6
CONTINUOUS
 62
     4
  5
2BB
 10
48672.321172
 20
9230.46945
 30
0.0
 11
48672.321172
 21
9144.46941
 31
0.0
  0
LINE
  8
2
  6
CONTINUOUS
 62
     4
  5
2BC
 10
48672.321172
 20
9444.46939
 30
0.0
 11
48672.321172
 21
9530.46943
 31
0.0
  0
LINE
  8
2
  6
CONTINUOUS
 62
     4
  5
2BD
 10
48539.821182
 20
9576.46937
 30
0.0
 11
48926.821222
 21
9576.46937
 31
0.0
  0
LINE
  8
2
  6
CONTINUOUS
 62
     4
  5
2BE
 10
48840.321172
 20
9398.46945
 30
0.0
 11
48908.054222
 21
9398.46945
 31
0.0
  0
LINE
  8
2
  6
CONTINUOUS
 62
     4
  5
2BF
 10
48910.163952
 20
9098.46933
 30
0.0
 11
48926.821222
 21
9098.46933
 31
0.0
  0
ARC
  8
2
  6
CONTINUOUS
 62
     4
  5
2C0
 10
48926.821222
 20
9080.46925
 30
0.0
 40
18.00008
 50
0.0
 51
90.0
  0
ARC
  8
2
  6
CONTINUOUS
 62
     4
  5
2C1
 10
48950.821072
 20
9112.46933
 30
0.0
 40
45.00006
 50
300.576743
 51
60.545548
  0
ARC
  8
2
  6
CONTINUOUS
 62
     4
  5
2C2
 10
48950.821072
 20
9112.46933
 30
0.0
 40
45.00006
 50
198.126177
 51
262.33778
  0
CIRCLE
  8
2
  6
CONTINUOUS
 62
     4
  5
2C3
 10
48985.837452
 20
9112.51623
 30
0.0
 40
4.50002
  0
ARC
  8
2
  6
CONTINUOUS
 62
     4
  5
2C4
 10
48950.821072
 20
9112.46933
 30
0.0
 40
43.00002
 50
300.576818
 51
60.545482
  0
LINE
  8
2
  6
CENTER
 62
     4
  5
2C5
 10
48927.429872
 20
9071.95431
 30
0.0
 11
48942.738242
 21
9098.46933
 31
0.0
  0
LINE
  8
2
  6
CONTINUOUS
 62
     4
  5
2C6
 10
48940.250932
 20
9078.16107
 30
0.0
 11
48936.582722
 21
9071.80759
 31
0.0
  0
LINE
  8
2
  6
CONTINUOUS
 62
     4
  5
2C7
 10
48926.393662
 20
9086.15969
 30
0.0
 11
48922.732032
 21
9079.81755
 31
0.0
  0
LINE
  8
2
  6
CONTINUOUS
 62
     4
  5
2C8
 10
48937.218252
 20
9079.90841
 30
0.0
 11
48929.424032
 21
9084.40843
 31
0.0
  0
LINE
  8
2
  6
CONTINUOUS
 62
     4
  5
2C9
 10
48933.321072
 20
9082.15835
 30
0.0
 11
48935.571222
 21
9086.05553
 31
0.0
  0
ARC
  8
2
  6
CONTINUOUS
 62
     4
  5
2CA
 10
48934.318922
 20
9083.88721
 30
0.0
 40
8.00002
 50
329.258177
 51
149.621121
  0
CIRCLE
  8
2
  6
CONTINUOUS
 62
     4
  5
2CB
 10
48933.317152
 20
9082.14435
 30
0.0
 40
4.50002
  0
CIRCLE
  8
2
  6
CONTINUOUS
 62
     4
  5
2CC
 10
48933.321072
 20
9082.15835
 30
0.0
 40
8.00002
  0
LINE
  8
2
  6
CONTINUOUS
 62
     4
  5
2CD
 10
48985.818202
 20
9120.46935
 30
0.0
 11
48993.154412
 21
9120.46935
 31
0.0
  0
LINE
  8
2
  6
CONTINUOUS
 62
     4
  5
2CE
 10
48985.819742
 20
9104.46931
 30
0.0
 11
48993.142792
 21
9104.46931
 31
0.0
  0
LINE
  8
2
  6
CONTINUOUS
 62
     4
  5
2CF
 10
48985.821072
 20
9116.96935
 30
0.0
 11
48985.821072
 21
9107.96931
 31
0.0
  0
LINE
  8
2
  6
CONTINUOUS
 62
     4
  5
2D0
 10
48985.821072
 20
9112.46933
 30
0.0
 11
48981.321192
 21
9112.46933
 31
0.0
  0
ARC
  8
2
  6
CONTINUOUS
 62
     4
  5
2D1
 10
48983.825092
 20
9112.46891
 30
0.0
 40
8.00002
 50
89.258175
 51
269.621119
  0
CIRCLE
  8
2
  6
CONTINUOUS
 62
     4
  5
2D2
 10
48985.821072
 20
9112.46933
 30
0.0
 40
8.00002
  0
LINE
  8
2
  6
CENTER
 62
     4
  5
2D3
 10
48950.821072
 20
9112.46933
 30
0.0
 11
48942.738242
 21
9098.46933
 31
0.0
  0
ARC
  8
2
  6
CONTINUOUS
 62
     4
  5
2D4
 10
48926.821222
 20
9080.46925
 30
0.0
 40
18.00008
 50
0.0
 51
90.0
  0
LINE
  8
2
  6
CENTER
 62
     4
  5
2D5
 10
48950.821072
 20
9112.46933
 30
0.0
 11
48933.321072
 21
9142.78031
 31
0.0
  0
LINE
  8
2
  6
CONTINUOUS
 62
     4
  5
2D6
 10
48926.394432
 20
9138.77771
 30
0.0
 11
48922.726292
 21
9145.13105
 31
0.0
  0
LINE
  8
2
  6
CONTINUOUS
 62
     4
  5
2D7
 10
48940.250092
 20
9146.77913
 30
0.0
 11
48936.588532
 21
9153.12113
 31
0.0
  0
LINE
  8
2
  6
CONTINUOUS
 62
     4
  5
2D8
 10
48929.424032
 20
9140.53037
 30
0.0
 11
48937.218252
 21
9145.03025
 31
0.0
  0
LINE
  8
2
  6
CONTINUOUS
 62
     4
  5
2D9
 10
48933.321072
 20
9142.78031
 30
0.0
 11
48935.571222
 21
9138.88313
 31
0.0
  0
ARC
  8
2
  6
CONTINUOUS
 62
     4
  5
2DA
 10
48934.319482
 20
9141.05187
 30
0.0
 40
8.00002
 50
209.258177
 51
29.621121
  0
CIRCLE
  8
2
  6
CONTINUOUS
 62
     4
  5
2DB
 10
48933.310852
 20
9142.79081
 30
0.0
 40
4.50002
  0
CIRCLE
  8
2
  6
CONTINUOUS
 62
     4
  5
2DC
 10
48933.321072
 20
9142.78031
 30
0.0
 40
8.00002
  0
ARC
  8
2
  6
CONTINUOUS
 62
     4
  5
2DD
 10
48926.821222
 20
9144.46941
 30
0.0
 40
18.00008
 50
270.0
 51
0.0
  0
ARC
  8
2
  6
CONTINUOUS
 62
     4
  5
2DE
 10
48926.821222
 20
9144.46941
 30
0.0
 40
18.00008
 50
270.0
 51
0.0
  0
ARC
  8
2
  6
CONTINUOUS
 62
     4
  5
2DF
 10
48950.821072
 20
9112.46933
 30
0.0
 40
43.00002
 50
198.126177
 51
262.513199
  0
ARC
  8
2
  6
CONTINUOUS
 62
     4
  5
2E0
 10
48950.821072
 20
9112.46933
 30
0.0
 40
45.00006
 50
97.662219
 51
161.873821
  0
ARC
  8
2
  6
CONTINUOUS
 62
     4
  5
2E1
 10
48950.821072
 20
9112.46933
 30
0.0
 40
45.00006
 50
299.267564
 51
60.416487
  0
ARC
  8
2
  6
CONTINUOUS
 62
     4
  5
2E2
 10
48950.821072
 20
9112.46933
 30
0.0
 40
43.00002
 50
199.000793
 51
261.979096
  0
ARC
  8
2
  6
CONTINUOUS
 62
     4
  5
2E3
 10
48950.821072
 20
9112.46933
 30
0.0
 40
43.00002
 50
98.020901
 51
160.999206
  0
ARC
  8
2
  6
CONTINUOUS
 62
     4
  5
2E4
 10
48950.821072
 20
9112.46933
 30
0.0
 40
43.00002
 50
98.020901
 51
160.999206
  0
ARC
  8
2
  6
CONTINUOUS
 62
     4
  5
2E5
 10
48950.821072
 20
9112.46933
 30
0.0
 40
43.00002
 50
300.77234
 51
59.22766
  0
ARC
  8
2
  6
CONTINUOUS
 62
     4
  5
2E6
 10
48950.821072
 20
9112.46933
 30
0.0
 40
43.00002
 50
199.206873
 51
261.979096
  0
CIRCLE
  8
2
  6
HIDDEN
 62
     4
  5
2E7
 10
48950.821072
 20
9112.46933
 30
0.0
 40
14.0
  0
CIRCLE
  8
2
  6
HIDDEN
 62
     4
  5
2E8
 10
48950.821072
 20
9112.46933
 30
0.0
 40
7.50008
  0
CIRCLE
  8
2
  6
HIDDEN
 62
     4
  5
2E9
 10
48950.821072
 20
9112.46933
 30
0.0
 40
3.00006
  0
LINE
  8
2
  6
CONTINUOUS
 62
     4
  5
2EA
 10
48910.163952
 20
9398.46945
 30
0.0
 11
48926.821222
 21
9398.46945
 31
0.0
  0
ARC
  8
2
  6
CONTINUOUS
 62
     4
  5
2EB
 10
48926.821222
 20
9380.46937
 30
0.0
 40
18.00008
 50
0.0
 51
90.0
  0
ARC
  8
2
  6
CONTINUOUS
 62
     4
  5
2EC
 10
48950.821072
 20
9412.46945
 30
0.0
 40
45.00006
 50
300.576743
 51
60.545548
  0
ARC
  8
2
  6
CONTINUOUS
 62
     4
  5
2ED
 10
48950.821072
 20
9412.46945
 30
0.0
 40
45.00006
 50
198.126177
 51
262.33778
  0
CIRCLE
  8
2
  6
CONTINUOUS
 62
     4
  5
2EE
 10
48985.837452
 20
9412.51621
 30
0.0
 40
4.50002
  0
ARC
  8
2
  6
CONTINUOUS
 62
     4
  5
2EF
 10
48950.821072
 20
9412.46945
 30
0.0
 40
43.00002
 50
300.576818
 51
60.545482
  0
LINE
  8
2
  6
CENTER
 62
     4
  5
2F0
 10
48927.429872
 20
9371.95443
 30
0.0
 11
48942.738242
 21
9398.46945
 31
0.0
  0
LINE
  8
2
  6
CONTINUOUS
 62
     4
  5
2F1
 10
48940.250932
 20
9378.16119
 30
0.0
 11
48936.582722
 21
9371.80771
 31
0.0
  0
LINE
  8
2
  6
CONTINUOUS
 62
     4
  5
2F2
 10
48926.393662
 20
9386.15981
 30
0.0
 11
48922.732032
 21
9379.81767
 31
0.0
  0
LINE
  8
2
  6
CONTINUOUS
 62
     4
  5
2F3
 10
48937.218252
 20
9379.90853
 30
0.0
 11
48929.424032
 21
9384.40855
 31
0.0
  0
LINE
  8
2
  6
CONTINUOUS
 62
     4
  5
2F4
 10
48933.321072
 20
9382.15847
 30
0.0
 11
48935.571222
 21
9386.05565
 31
0.0
  0
ARC
  8
2
  6
CONTINUOUS
 62
     4
  5
2F5
 10
48934.318922
 20
9383.88733
 30
0.0
 40
8.00002
 50
329.258177
 51
149.621121
  0
CIRCLE
  8
2
  6
CONTINUOUS
 62
     4
  5
2F6
 10
48933.317152
 20
9382.14447
 30
0.0
 40
4.50002
  0
CIRCLE
  8
2
  6
CONTINUOUS
 62
     4
  5
2F7
 10
48933.321072
 20
9382.15847
 30
0.0
 40
8.00002
  0
LINE
  8
2
  6
CONTINUOUS
 62
     4
  5
2F8
 10
48985.818202
 20
9420.46933
 30
0.0
 11
48993.154412
 21
9420.46933
 31
0.0
  0
LINE
  8
2
  6
CONTINUOUS
 62
     4
  5
2F9
 10
48985.819742
 20
9404.46943
 30
0.0
 11
48993.142792
 21
9404.46943
 31
0.0
  0
LINE
  8
2
  6
CONTINUOUS
 62
     4
  5
2FA
 10
48985.821072
 20
9416.96933
 30
0.0
 11
48985.821072
 21
9407.96943
 31
0.0
  0
LINE
  8
2
  6
CONTINUOUS
 62
     4
  5
2FB
 10
48985.821072
 20
9412.46945
 30
0.0
 11
48981.321192
 21
9412.46945
 31
0.0
  0
ARC
  8
2
  6
CONTINUOUS
 62
     4
  5
2FC
 10
48983.825092
 20
9412.46903
 30
0.0
 40
8.00002
 50
89.258175
 51
269.621119
  0
CIRCLE
  8
2
  6
CONTINUOUS
 62
     4
  5
2FD
 10
48985.821072
 20
9412.46945
 30
0.0
 40
8.00002
  0
LINE
  8
2
  6
CENTER
 62
     4
  5
2FE
 10
48950.821072
 20
9412.46945
 30
0.0
 11
48942.738242
 21
9398.46945
 31
0.0
  0
ARC
  8
2
  6
CONTINUOUS
 62
     4
  5
2FF
 10
48926.821222
 20
9380.46937
 30
0.0
 40
18.00008
 50
0.0
 51
90.0
  0
LINE
  8
2
  6
CENTER
 62
     4
  5
300
 10
48950.821072
 20
9412.46945
 30
0.0
 11
48933.321072
 21
9442.78029
 31
0.0
  0
LINE
  8
2
  6
CONTINUOUS
 62
     4
  5
301
 10
48926.394432
 20
9438.77769
 30
0.0
 11
48922.726292
 21
9445.13103
 31
0.0
  0
LINE
  8
2
  6
CONTINUOUS
 62
     4
  5
302
 10
48940.250092
 20
9446.77911
 30
0.0
 11
48936.588532
 21
9453.12111
 31
0.0
  0
LINE
  8
2
  6
CONTINUOUS
 62
     4
  5
303
 10
48929.424032
 20
9440.53035
 30
0.0
 11
48937.218252
 21
9445.03023
 31
0.0
  0
LINE
  8
2
  6
CONTINUOUS
 62
     4
  5
304
 10
48933.321072
 20
9442.78029
 30
0.0
 11
48935.571222
 21
9438.88311
 31
0.0
  0
ARC
  8
2
  6
CONTINUOUS
 62
     4
  5
305
 10
48934.319482
 20
9441.05185
 30
0.0
 40
8.00002
 50
209.258177
 51
29.621121
  0
CIRCLE
  8
2
  6
CONTINUOUS
 62
     4
  5
306
 10
48933.310852
 20
9442.79079
 30
0.0
 40
4.50002
  0
CIRCLE
  8
2
  6
CONTINUOUS
 62
     4
  5
307
 10
48933.321072
 20
9442.78029
 30
0.0
 40
8.00002
  0
ARC
  8
2
  6
CONTINUOUS
 62
     4
  5
308
 10
48926.821222
 20
9444.46939
 30
0.0
 40
18.00008
 50
270.0
 51
0.0
  0
ARC
  8
2
  6
CONTINUOUS
 62
     4
  5
309
 10
48926.821222
 20
9444.46939
 30
0.0
 40
18.00008
 50
270.0
 51
0.0
  0
ARC
  8
2
  6
CONTINUOUS
 62
     4
  5
30A
 10
48950.821072
 20
9412.46945
 30
0.0
 40
43.00002
 50
198.126177
 51
262.513199
  0
ARC
  8
2
  6
CONTINUOUS
 62
     4
  5
30B
 10
48950.821072
 20
9412.46945
 30
0.0
 40
45.00006
 50
97.662219
 51
161.873821
  0
ARC
  8
2
  6
CONTINUOUS
 62
     4
  5
30C
 10
48950.821072
 20
9412.46945
 30
0.0
 40
45.00006
 50
299.267564
 51
60.416487
  0
ARC
  8
2
  6
CONTINUOUS
 62
     4
  5
30D
 10
48950.821072
 20
9412.46945
 30
0.0
 40
43.00002
 50
199.000793
 51
261.979096
  0
ARC
  8
2
  6
CONTINUOUS
 62
     4
  5
30E
 10
48950.821072
 20
9412.46945
 30
0.0
 40
43.00002
 50
98.020901
 51
160.999206
  0
ARC
  8
2
  6
CONTINUOUS
 62
     4
  5
30F
 10
48950.821072
 20
9412.46945
 30
0.0
 40
43.00002
 50
98.020901
 51
160.999206
  0
ARC
  8
2
  6
CONTINUOUS
 62
     4
  5
310
 10
48950.821072
 20
9412.46945
 30
0.0
 40
43.00002
 50
300.77234
 51
59.22766
  0
ARC
  8
2
  6
CONTINUOUS
 62
     4
  5
311
 10
48950.821072
 20
9412.46945
 30
0.0
 40
43.00002
 50
199.206873
 51
261.979096
  0
CIRCLE
  8
2
  6
HIDDEN
 62
     4
  5
312
 10
48950.821072
 20
9412.46945
 30
0.0
 40
14.0
  0
CIRCLE
  8
2
  6
HIDDEN
 62
     4
  5
313
 10
48950.821072
 20
9412.46945
 30
0.0
 40
7.50008
  0
CIRCLE
  8
2
  6
HIDDEN
 62
     4
  5
314
 10
48950.821072
 20
9412.46945
 30
0.0
 40
3.00006
  0
ARC
  8
2
  6
CONTINUOUS
 62
     4
  5
315
 10
48539.821182
 20
9230.46945
 30
0.0
 40
18.00008
 50
90.0
 51
180.0
  0
LINE
  8
2
  6
CONTINUOUS
 62
     4
  5
316
 10
48521.821172
 20
9230.46945
 30
0.0
 11
48521.821172
 21
9144.46941
 31
0.0
  0
LINE
  8
2
  6
CONTINUOUS
 62
     4
  5
317
 10
48555.478292
 20
9398.46931
 30
0.0
 11
48538.821022
 21
9398.46931
 31
0.0
  0
ARC
  8
2
  6
CONTINUOUS
 62
     4
  5
318
 10
48514.821172
 20
9412.46931
 30
0.0
 40
45.00006
 50
119.45445
 51
239.423254
  0
ARC
  8
2
  6
CONTINUOUS
 62
     4
  5
319
 10
48514.821172
 20
9412.46931
 30
0.0
 40
45.00006
 50
277.66222
 51
341.873819
  0
CIRCLE
  8
2
  6
CONTINUOUS
 62
     4
  5
31A
 10
48479.804792
 20
9412.51635
 30
0.0
 40
4.50002
  0
ARC
  8
2
  6
CONTINUOUS
 62
     4
  5
31B
 10
48514.821172
 20
9412.46931
 30
0.0
 40
43.00002
 50
119.454518
 51
239.423182
  0
LINE
  8
2
  6
CENTER
 62
     4
  5
31C
 10
48538.212372
 20
9371.95429
 30
0.0
 11
48522.904142
 21
9398.46931
 31
0.0
  0
LINE
  8
2
  6
CONTINUOUS
 62
     4
  5
31D
 10
48525.391312
 20
9378.16105
 30
0.0
 11
48529.059662
 21
9371.80757
 31
0.0
  0
LINE
  8
2
  6
CONTINUOUS
 62
     4
  5
31E
 10
48539.248652
 20
9386.15967
 30
0.0
 11
48542.910212
 21
9379.81753
 31
0.0
  0
LINE
  8
2
  6
CONTINUOUS
 62
     4
  5
31F
 10
48528.423992
 20
9379.90839
 30
0.0
 11
48536.218212
 21
9384.40841
 31
0.0
  0
LINE
  8
2
  6
CONTINUOUS
 62
     4
  5
320
 10
48532.321172
 20
9382.15833
 30
0.0
 11
48530.071022
 21
9386.05551
 31
0.0
  0
ARC
  8
2
  6
CONTINUOUS
 62
     4
  5
321
 10
48531.323322
 20
9383.88719
 30
0.0
 40
8.00002
 50
30.378878
 51
210.741821
  0
CIRCLE
  8
2
  6
CONTINUOUS
 62
     4
  5
322
 10
48532.325092
 20
9382.14433
 30
0.0
 40
4.50002
  0
CIRCLE
  8
2
  6
CONTINUOUS
 62
     4
  5
323
 10
48532.321172
 20
9382.15833
 30
0.0
 40
8.00002
  0
LINE
  8
2
  6
CONTINUOUS
 62
     4
  5
324
 10
48479.824112
 20
9420.46947
 30
0.0
 11
48472.487832
 21
9420.46947
 31
0.0
  0
LINE
  8
2
  6
CONTINUOUS
 62
     4
  5
325
 10
48479.822642
 20
9404.46929
 30
0.0
 11
48472.499452
 21
9404.46929
 31
0.0
  0
LINE
  8
2
  6
CONTINUOUS
 62
     4
  5
326
 10
48479.821172
 20
9416.96947
 30
0.0
 11
48479.821172
 21
9407.96929
 31
0.0
  0
LINE
  8
2
  6
CONTINUOUS
 62
     4
  5
327
 10
48479.821172
 20
9412.46931
 30
0.0
 11
48484.321052
 21
9412.46931
 31
0.0
  0
ARC
  8
2
  6
CONTINUOUS
 62
     4
  5
328
 10
48481.817152
 20
9412.46889
 30
0.0
 40
8.00002
 50
270.378879
 51
90.741823
  0
CIRCLE
  8
2
  6
CONTINUOUS
 62
     4
  5
329
 10
48479.821172
 20
9412.46931
 30
0.0
 40
8.00002
  0
LINE
  8
2
  6
CENTER
 62
     4
  5
32A
 10
48514.821172
 20
9412.46931
 30
0.0
 11
48522.904142
 21
9398.46931
 31
0.0
  0
LINE
  8
2
  6
CENTER
 62
     4
  5
32B
 10
48514.821172
 20
9412.46931
 30
0.0
 11
48532.321172
 21
9442.78043
 31
0.0
  0
LINE
  8
2
  6
CONTINUOUS
 62
     4
  5
32C
 10
48539.247812
 20
9438.77783
 30
0.0
 11
48542.915952
 21
9445.13117
 31
0.0
  0
LINE
  8
2
  6
CONTINUOUS
 62
     4
  5
32D
 10
48525.392222
 20
9446.77925
 30
0.0
 11
48529.053712
 21
9453.12125
 31
0.0
  0
LINE
  8
2
  6
CONTINUOUS
 62
     4
  5
32E
 10
48536.218212
 20
9440.53049
 30
0.0
 11
48528.423992
 21
9445.03037
 31
0.0
  0
LINE
  8
2
  6
CONTINUOUS
 62
     4
  5
32F
 10
48532.321172
 20
9442.78043
 30
0.0
 11
48530.071022
 21
9438.88325
 31
0.0
  0
ARC
  8
2
  6
CONTINUOUS
 62
     4
  5
330
 10
48531.322762
 20
9441.05199
 30
0.0
 40
8.00002
 50
150.378878
 51
330.741823
  0
CIRCLE
  8
2
  6
CONTINUOUS
 62
     4
  5
331
 10
48532.331392
 20
9442.79093
 30
0.0
 40
4.50002
  0
CIRCLE
  8
2
  6
CONTINUOUS
 62
     4
  5
332
 10
48532.321172
 20
9442.78043
 30
0.0
 40
8.00002
  0
ARC
  8
2
  6
CONTINUOUS
 62
     4
  5
333
 10
48514.821172
 20
9412.46931
 30
0.0
 40
43.00002
 50
277.486795
 51
341.873819
  0
ARC
  8
2
  6
CONTINUOUS
 62
     4
  5
334
 10
48514.821172
 20
9412.46931
 30
0.0
 40
45.00006
 50
18.126179
 51
82.33778
  0
ARC
  8
2
  6
CONTINUOUS
 62
     4
  5
335
 10
48514.821172
 20
9412.46931
 30
0.0
 40
45.00006
 50
119.583512
 51
240.732434
  0
ARC
  8
2
  6
CONTINUOUS
 62
     4
  5
336
 10
48514.821172
 20
9412.46931
 30
0.0
 40
43.00002
 50
278.020902
 51
340.999207
  0
ARC
  8
2
  6
CONTINUOUS
 62
     4
  5
337
 10
48514.821172
 20
9412.46931
 30
0.0
 40
43.00002
 50
19.000792
 51
81.979098
  0
ARC
  8
2
  6
CONTINUOUS
 62
     4
  5
338
 10
48514.821172
 20
9412.46931
 30
0.0
 40
43.00002
 50
19.000792
 51
81.979098
  0
ARC
  8
2
  6
CONTINUOUS
 62
     4
  5
339
 10
48514.821172
 20
9412.46931
 30
0.0
 40
43.00002
 50
120.77234
 51
239.22766
  0
ARC
  8
2
  6
CONTINUOUS
 62
     4
  5
33A
 10
48514.821172
 20
9412.46931
 30
0.0
 40
43.00002
 50
278.020902
 51
340.793126
  0
CIRCLE
  8
2
  6
HIDDEN
 62
     4
  5
33B
 10
48514.821172
 20
9412.46931
 30
0.0
 40
14.0
  0
CIRCLE
  8
2
  6
HIDDEN
 62
     4
  5
33C
 10
48514.821172
 20
9412.46931
 30
0.0
 40
7.50008
  0
CIRCLE
  8
2
  6
HIDDEN
 62
     4
  5
33D
 10
48514.821172
 20
9412.46931
 30
0.0
 40
3.00006
  0
LINE
  8
2
  6
CONTINUOUS
 62
     4
  5
33E
 10
48555.478292
 20
9098.46933
 30
0.0
 11
48538.821022
 21
9098.46933
 31
0.0
  0
ARC
  8
2
  6
CONTINUOUS
 62
     4
  5
33F
 10
48514.821172
 20
9112.46933
 30
0.0
 40
45.00006
 50
119.45445
 51
239.423254
  0
ARC
  8
2
  6
CONTINUOUS
 62
     4
  5
340
 10
48514.821172
 20
9112.46933
 30
0.0
 40
45.00006
 50
277.66222
 51
341.873819
  0
CIRCLE
  8
2
  6
CONTINUOUS
 62
     4
  5
341
 10
48479.804792
 20
9112.51637
 30
0.0
 40
4.50002
  0
ARC
  8
2
  6
CONTINUOUS
 62
     4
  5
342
 10
48514.821172
 20
9112.46933
 30
0.0
 40
43.00002
 50
119.454518
 51
239.423182
  0
LINE
  8
2
  6
CENTER
 62
     4
  5
343
 10
48538.212372
 20
9071.95431
 30
0.0
 11
48522.904142
 21
9098.46933
 31
0.0
  0
LINE
  8
2
  6
CONTINUOUS
 62
     4
  5
344
 10
48525.391312
 20
9078.16107
 30
0.0
 11
48529.059662
 21
9071.80759
 31
0.0
  0
LINE
  8
2
  6
CONTINUOUS
 62
     4
  5
345
 10
48539.248652
 20
9086.15969
 30
0.0
 11
48542.910212
 21
9079.81755
 31
0.0
  0
LINE
  8
2
  6
CONTINUOUS
 62
     4
  5
346
 10
48528.423992
 20
9079.90841
 30
0.0
 11
48536.218212
 21
9084.40843
 31
0.0
  0
LINE
  8
2
  6
CONTINUOUS
 62
     4
  5
347
 10
48532.321172
 20
9082.15835
 30
0.0
 11
48530.071022
 21
9086.05553
 31
0.0
  0
ARC
  8
2
  6
CONTINUOUS
 62
     4
  5
348
 10
48531.323322
 20
9083.88721
 30
0.0
 40
8.00002
 50
30.378878
 51
210.741821
  0
CIRCLE
  8
2
  6
CONTINUOUS
 62
     4
  5
349
 10
48532.325092
 20
9082.14435
 30
0.0
 40
4.50002
  0
CIRCLE
  8
2
  6
CONTINUOUS
 62
     4
  5
34A
 10
48532.321172
 20
9082.15835
 30
0.0
 40
8.00002
  0
LINE
  8
2
  6
CONTINUOUS
 62
     4
  5
34B
 10
48479.824112
 20
9120.46949
 30
0.0
 11
48472.487832
 21
9120.46949
 31
0.0
  0
LINE
  8
2
  6
CONTINUOUS
 62
     4
  5
34C
 10
48479.822642
 20
9104.46931
 30
0.0
 11
48472.499452
 21
9104.46931
 31
0.0
  0
LINE
  8
2
  6
CONTINUOUS
 62
     4
  5
34D
 10
48479.821172
 20
9116.96949
 30
0.0
 11
48479.821172
 21
9107.96931
 31
0.0
  0
LINE
  8
2
  6
CONTINUOUS
 62
     4
  5
34E
 10
48479.821172
 20
9112.46933
 30
0.0
 11
48484.321052
 21
9112.46933
 31
0.0
  0
ARC
  8
2
  6
CONTINUOUS
 62
     4
  5
34F
 10
48481.817152
 20
9112.46891
 30
0.0
 40
8.00002
 50
270.378879
 51
90.741823
  0
CIRCLE
  8
2
  6
CONTINUOUS
 62
     4
  5
350
 10
48479.821172
 20
9112.46933
 30
0.0
 40
8.00002
  0
LINE
  8
2
  6
CENTER
 62
     4
  5
351
 10
48514.821172
 20
9112.46933
 30
0.0
 11
48522.904142
 21
9098.46933
 31
0.0
  0
LINE
  8
2
  6
CENTER
 62
     4
  5
352
 10
48514.821172
 20
9112.46933
 30
0.0
 11
48532.321172
 21
9142.78045
 31
0.0
  0
LINE
  8
2
  6
CONTINUOUS
 62
     4
  5
353
 10
48539.247812
 20
9138.77785
 30
0.0
 11
48542.915952
 21
9145.13119
 31
0.0
  0
LINE
  8
2
  6
CONTINUOUS
 62
     4
  5
354
 10
48525.392222
 20
9146.77927
 30
0.0
 11
48529.053712
 21
9153.12127
 31
0.0
  0
LINE
  8
2
  6
CONTINUOUS
 62
     4
  5
355
 10
48536.218212
 20
9140.53051
 30
0.0
 11
48528.423992
 21
9145.03039
 31
0.0
  0
LINE
  8
2
  6
CONTINUOUS
 62
     4
  5
356
 10
48532.321172
 20
9142.78045
 30
0.0
 11
48530.071022
 21
9138.88327
 31
0.0
  0
ARC
  8
2
  6
CONTINUOUS
 62
     4
  5
357
 10
48531.322762
 20
9141.05201
 30
0.0
 40
8.00002
 50
150.378878
 51
330.741823
  0
CIRCLE
  8
2
  6
CONTINUOUS
 62
     4
  5
358
 10
48532.331392
 20
9142.79095
 30
0.0
 40
4.50002
  0
CIRCLE
  8
2
  6
CONTINUOUS
 62
     4
  5
359
 10
48532.321172
 20
9142.78045
 30
0.0
 40
8.00002
  0
ARC
  8
2
  6
CONTINUOUS
 62
     4
  5
35A
 10
48514.821172
 20
9112.46933
 30
0.0
 40
43.00002
 50
277.486795
 51
341.873819
  0
ARC
  8
2
  6
CONTINUOUS
 62
     4
  5
35B
 10
48514.821172
 20
9112.46933
 30
0.0
 40
45.00006
 50
18.126179
 51
82.33778
  0
ARC
  8
2
  6
CONTINUOUS
 62
     4
  5
35C
 10
48514.821172
 20
9112.46933
 30
0.0
 40
45.00006
 50
119.583512
 51
240.732434
  0
ARC
  8
2
  6
CONTINUOUS
 62
     4
  5
35D
 10
48514.821172
 20
9112.46933
 30
0.0
 40
43.00002
 50
278.020902
 51
340.999207
  0
ARC
  8
2
  6
CONTINUOUS
 62
     4
  5
35E
 10
48514.821172
 20
9112.46933
 30
0.0
 40
43.00002
 50
19.000792
 51
81.979098
  0
ARC
  8
2
  6
CONTINUOUS
 62
     4
  5
35F
 10
48514.821172
 20
9112.46933
 30
0.0
 40
43.00002
 50
19.000792
 51
81.979098
  0
ARC
  8
2
  6
CONTINUOUS
 62
     4
  5
360
 10
48514.821172
 20
9112.46933
 30
0.0
 40
43.00002
 50
120.77234
 51
239.22766
  0
ARC
  8
2
  6
CONTINUOUS
 62
     4
  5
361
 10
48514.821172
 20
9112.46933
 30
0.0
 40
43.00002
 50
278.020902
 51
340.793126
  0
CIRCLE
  8
2
  6
HIDDEN
 62
     4
  5
362
 10
48514.821172
 20
9112.46933
 30
0.0
 40
14.0
  0
CIRCLE
  8
2
  6
HIDDEN
 62
     4
  5
363
 10
48514.821172
 20
9112.46933
 30
0.0
 40
7.50008
  0
CIRCLE
  8
2
  6
HIDDEN
 62
     4
  5
364
 10
48514.821172
 20
9112.46933
 30
0.0
 40
3.00006
  0
ARC
  8
2
  6
CONTINUOUS
 62
     4
  5
365
 10
48690.321182
 20
9080.46939
 30
0.0
 40
18.00008
 50
90.0
 51
180.0
  0
ARC
  8
2
  6
CONTINUOUS
 62
     4
  5
366
 10
48690.321182
 20
9144.46941
 30
0.0
 40
18.00008
 50
180.0
 51
270.0
  0
ARC
  8
2
  6
CONTINUOUS
 62
     4
  5
367
 10
48539.821182
 20
9080.46925
 30
0.0
 40
18.00008
 50
90.0
 51
180.0
  0
ARC
  8
2
  6
CONTINUOUS
 62
     4
  5
368
 10
48539.821182
 20
9144.46941
 30
0.0
 40
18.00008
 50
180.0
 51
270.0
  0
ARC
  8
2
  6
CONTINUOUS
 62
     4
  5
369
 10
48539.821182
 20
9380.46937
 30
0.0
 40
18.00008
 50
90.0
 51
180.0
  0
ARC
  8
2
  6
CONTINUOUS
 62
     4
  5
36A
 10
48539.821182
 20
9444.46953
 30
0.0
 40
18.00008
 50
180.0
 51
270.0
  0
LINE
  8
2
  6
CENTER
 62
     3
  5
36B
 10
48957.821072
 20
9412.46945
 30
0.0
 11
48507.821172
 21
9412.46945
 31
0.0
  0
LINE
  8
6
  6
CONTINUOUS
 62
     6
  5
36C
 10
48638.340839
 20
8897.46941
 30
0.0
 11
48765.341439
 21
8897.46941
 31
0.0
  0
LINE
  8
5
  6
CONTINUOUS
 62
     3
  5
36D
 10
49036.231679
 20
9248.46945
 30
0.0
 11
49446.231679
 21
9248.46945
 31
0.0
  0
LINE
  8
5
  6
CONTINUOUS
 62
     3
  5
36E
 10
48949.629139
 20
9398.46945
 30
0.0
 11
49036.231679
 21
9248.46945
 31
0.0
  0
TEXT
  8
5
  6
CONTINUOUS
 62
     3
  5
36F
 10
49060.411894
 20
9248.46945
 30
0.0
 40
60.0
  1
テスリックス
 41
0.837
  7

 72
     5
 11
49420.411894
 21
9248.46945
 31
0.0
  0
LINE
  8
24
  6
CONTINUOUS
 62
     4
  5
370
 10
49632.821172
 20
10612.46941
 30
0.0
 11
49632.821172
 21
8312.46941
 31
0.0
  0
LINE
  8
24
  6
CONTINUOUS
 62
     4
  5
371
 10
49632.821172
 20
10612.46941
 30
0.0
 11
48122.821442
 21
10612.46941
 31
0.0
  0
LINE
  8
24
  6
CONTINUOUS
 62
     4
  5
372
 10
48122.821442
 20
8312.46941
 30
0.0
 11
48122.821442
 21
10612.46941
 31
0.0
  0
LINE
  8
24
  6
CONTINUOUS
 62
     4
  5
373
 10
49632.821172
 20
8312.46941
 30
0.0
 11
48122.821442
 21
8312.46941
 31
0.0
  0
LINE
  8
24
  6
CONTINUOUS
 62
     4
  5
374
 10
47073.763372
 20
13021.981017
 30
0.0
 11
48590.763101
 21
13021.981017
 31
0.0
  0
LINE
  8
24
  6
CONTINUOUS
 62
     4
  5
375
 10
50190.762815
 20
13021.981017
 30
0.0
 11
48680.763085
 21
13021.981017
 31
0.0
  0
LINE
  8
24
  6
CONTINUOUS
 62
     4
  5
376
 10
47073.763372
 20
11911.981215
 30
0.0
 11
47522.763292
 21
11911.981215
 31
0.0
  0
LINE
  8
23
  6
CONTINUOUS
 62
     6
  5
377
 10
48580.763103
 20
11911.981215
 30
0.0
 11
48690.763083
 21
11911.981215
 31
0.0
  0
LINE
  8
23
  6
CONTINUOUS
 62
     6
  5
378
 10
48690.763083
 20
11911.981215
 30
0.0
 11
48690.763083
 21
11935.981211
 31
0.0
  0
LINE
  8
23
  6
CONTINUOUS
 62
     6
  5
379
 10
48580.763103
 20
11935.981211
 30
0.0
 11
48580.763103
 21
11911.981215
 31
0.0
  0
LINE
  8
23
  6
CONTINUOUS
 62
     6
  5
37A
 10
48620.763096
 20
11950.981208
 30
0.0
 11
48650.76309
 21
11950.981208
 31
0.0
  0
LINE
  8
23
  6
CONTINUOUS
 62
     6
  5
37B
 10
48650.76309
 20
11950.981208
 30
0.0
 11
48650.76309
 21
11935.981211
 31
0.0
  0
LINE
  8
23
  6
CONTINUOUS
 62
     6
  5
37C
 10
48620.763096
 20
11950.981208
 30
0.0
 11
48620.763096
 21
11935.981211
 31
0.0
  0
LINE
  8
23
  6
CONTINUOUS
 62
     6
  5
37D
 10
48690.763083
 20
11935.981211
 30
0.0
 11
48650.76309
 21
11935.981211
 31
0.0
  0
LINE
  8
23
  6
CONTINUOUS
 62
     6
  5
37E
 10
48580.763103
 20
11935.981211
 30
0.0
 11
48620.763096
 21
11935.981211
 31
0.0
  0
LINE
  8
23
  6
CONTINUOUS
 62
     6
  5
37F
 10
48620.763096
 20
12520.981107
 30
0.0
 11
48650.76309
 21
12520.981107
 31
0.0
  0
LINE
  8
23
  6
CONTINUOUS
 62
     6
  5
380
 10
48650.76309
 20
12520.981107
 30
0.0
 11
48650.76309
 21
12535.981104
 31
0.0
  0
LINE
  8
23
  6
CONTINUOUS
 62
     6
  5
381
 10
48620.763096
 20
12520.981107
 30
0.0
 11
48620.763096
 21
12535.981104
 31
0.0
  0
LINE
  8
23
  6
CONTINUOUS
 62
     6
  5
382
 10
48580.763103
 20
12535.981104
 30
0.0
 11
48620.763096
 21
12535.981104
 31
0.0
  0
LINE
  8
23
  6
CONTINUOUS
 62
     6
  5
383
 10
48690.763083
 20
12535.981104
 30
0.0
 11
48650.76309
 21
12535.981104
 31
0.0
  0
LINE
  8
23
  6
CONTINUOUS
 62
     6
  5
384
 10
48690.763083
 20
12535.981104
 30
0.0
 11
48690.763083
 21
12559.9811
 31
0.0
  0
LINE
  8
23
  6
CONTINUOUS
 62
     6
  5
385
 10
48580.763103
 20
12559.9811
 30
0.0
 11
48580.763103
 21
12535.981104
 31
0.0
  0
LINE
  8
23
  6
CONTINUOUS
 62
     6
  5
386
 10
47522.763292
 20
11921.981214
 30
0.0
 11
47522.763292
 21
11811.981233
 31
0.0
  0
LINE
  8
23
  6
CONTINUOUS
 62
     6
  5
387
 10
47546.763288
 20
11921.981214
 30
0.0
 11
47522.763292
 21
11921.981214
 31
0.0
  0
LINE
  8
23
  6
CONTINUOUS
 62
     6
  5
388
 10
47522.763292
 20
11811.981233
 30
0.0
 11
47546.763288
 21
11811.981233
 31
0.0
  0
LINE
  8
23
  6
CONTINUOUS
 62
     6
  5
389
 10
47561.763285
 20
11851.981226
 30
0.0
 11
47561.763285
 21
11881.981221
 31
0.0
  0
LINE
  8
23
  6
CONTINUOUS
 62
     6
  5
38A
 10
47561.763285
 20
11881.981221
 30
0.0
 11
47546.763288
 21
11881.981221
 31
0.0
  0
LINE
  8
23
  6
CONTINUOUS
 62
     6
  5
38B
 10
47561.763285
 20
11851.981226
 30
0.0
 11
47546.763288
 21
11851.981226
 31
0.0
  0
LINE
  8
23
  6
CONTINUOUS
 62
     6
  5
38C
 10
47546.763288
 20
11811.981233
 30
0.0
 11
47546.763288
 21
11851.981226
 31
0.0
  0
LINE
  8
23
  6
CONTINUOUS
 62
     6
  5
38D
 10
47546.763288
 20
11921.981214
 30
0.0
 11
47546.763288
 21
11881.981221
 31
0.0
  0
LINE
  8
23
  6
CONTINUOUS
 62
     6
  5
38E
 10
48277.763157
 20
11811.981233
 30
0.0
 11
48277.763157
 21
11921.981214
 31
0.0
  0
LINE
  8
23
  6
CONTINUOUS
 62
     6
  5
38F
 10
48277.763157
 20
11921.981214
 30
0.0
 11
48253.763161
 21
11921.981214
 31
0.0
  0
LINE
  8
23
  6
CONTINUOUS
 62
     6
  5
390
 10
48253.763161
 20
11811.981233
 30
0.0
 11
48277.763157
 21
11811.981233
 31
0.0
  0
LINE
  8
23
  6
CONTINUOUS
 62
     6
  5
391
 10
48238.763164
 20
11851.981226
 30
0.0
 11
48238.763164
 21
11881.981221
 31
0.0
  0
LINE
  8
23
  6
CONTINUOUS
 62
     6
  5
392
 10
48238.763164
 20
11881.981221
 30
0.0
 11
48253.763161
 21
11881.981221
 31
0.0
  0
LINE
  8
23
  6
CONTINUOUS
 62
     6
  5
393
 10
48238.763164
 20
11851.981226
 30
0.0
 11
48253.763161
 21
11851.981226
 31
0.0
  0
LINE
  8
23
  6
CONTINUOUS
 62
     6
  5
394
 10
48253.763161
 20
11921.981214
 30
0.0
 11
48253.763161
 21
11881.981221
 31
0.0
  0
LINE
  8
23
  6
CONTINUOUS
 62
     6
  5
395
 10
48253.763161
 20
11811.981233
 30
0.0
 11
48253.763161
 21
11851.981226
 31
0.0
  0
LINE
  8
2
  6
CONTINUOUS
 62
     4
  5
396
 10
50398.762778
 20
11821.981232
 30
0.0
 11
50398.762778
 21
13111.981001
 31
0.0
  0
LINE
  8
24
  6
CONTINUOUS
 62
     4
  5
397
 10
46983.763388
 20
13111.981001
 30
0.0
 11
50398.762778
 21
13111.981001
 31
0.0
  0
ARC
  8
3
  6
CONTINUOUS
 62
     1
  5
398
 10
47554.263286
 20
11844.145877
 30
0.0
 40
700.0
 50
270.0
 51
360.0
  0
LINE
  8
3
  6
CONTINUOUS
 62
     1
  5
399
 10
47554.263286
 20
11851.981226
 30
0.0
 11
47554.263286
 21
11144.145877
 31
0.0
  0
ARC
  8
5
  6
CONTINUOUS
 62
     1
  5
39A
 10
48650.76309
 20
11935.981211
 30
0.0
 40
599.999893
 50
360.0
 51
90.0
  0
LINE
  8
3
  6
CONTINUOUS
 62
     1
  5
39B
 10
48650.76309
 20
11935.981211
 30
0.0
 11
49250.762983
 21
11935.981211
 31
0.0
  0
LINE
  8
24
  6
CONTINUOUS
 62
     4
  5
39C
 10
46983.763388
 20
11821.981232
 30
0.0
 11
47522.763292
 21
11821.981232
 31
0.0
  0
LINE
  8
23
  6
CONTINUOUS
 62
     6
  5
39D
 10
48690.763083
 20
12559.9811
 30
0.0
 11
48580.763103
 21
12559.9811
 31
0.0
  0
LINE
  8
24
  6
CONTINUOUS
 62
     4
  5
39E
 10
50190.762815
 20
11911.981215
 30
0.0
 11
48277.763157
 21
11911.981215
 31
0.0
  0
LINE
  8
5
  6
CONTINUOUS
 62
     4
  5
39F
 10
47522.763292
 20
11821.981232
 30
0.0
 11
47522.763292
 21
11911.981215
 31
0.0
  0
LINE
  8
5
  6
CONTINUOUS
 62
     4
  5
3A0
 10
48277.763157
 20
11821.981232
 30
0.0
 11
48277.763157
 21
11911.981215
 31
0.0
  0
LINE
  8
5
  6
CONTINUOUS
 62
     4
  5
3A1
 10
48680.763085
 20
12559.9811
 30
0.0
 11
48590.763101
 21
12559.9811
 31
0.0
  0
LINE
  8
24
  6
CONTINUOUS
 62
     4
  5
3A2
 10
50190.762815
 20
13021.981017
 30
0.0
 11
50190.762815
 21
11898.981218
 31
0.0
  0
LINE
  8
24
  6
CONTINUOUS
 62
     4
  5
3A3
 10
48680.763085
 20
12559.9811
 30
0.0
 11
48680.763085
 21
13021.981017
 31
0.0
  0
LINE
  8
24
  6
CONTINUOUS
 62
     4
  5
3A4
 10
48590.763101
 20
12559.9811
 30
0.0
 11
48590.763101
 21
13021.981017
 31
0.0
  0
LINE
  8
24
  6
CONTINUOUS
 62
     4
  5
3A5
 10
50398.762778
 20
11821.981232
 30
0.0
 11
48277.763157
 21
11821.981232
 31
0.0
  0
ARC
  8
5
  6
CONTINUOUS
 62
     6
  5
3A6
 10
49779.946487
 20
12667.481672
 30
0.0
 40
0.5
 50
180.0
 51
270.0
  0
ARC
  8
5
  6
CONTINUOUS
 62
     6
  5
3A7
 10
49730.475487
 20
12219.759272
 30
0.0
 40
7.999999
 50
198.11744
 51
262.5
  0
LINE
  8
5
  6
CONTINUOUS
 62
     6
  5
3A8
 10
49722.871487
 20
12217.271172
 30
0.0
 11
49715.888487
 21
12238.618072
 31
0.0
  0
ARC
  8
5
  6
CONTINUOUS
 62
     6
  5
3A9
 10
49708.283487
 20
12236.129972
 30
0.0
 40
7.999999
 50
18.117446
 51
80.78688
  0
LINE
  8
5
  6
CONTINUOUS
 62
     6
  5
3AA
 10
49897.446487
 20
12226.481872
 30
0.0
 11
49894.947487
 21
12226.481872
 31
0.0
  0
LINE
  8
5
  6
CONTINUOUS
 62
     6
  5
3AB
 10
49910.446487
 20
12226.481872
 30
0.0
 11
49897.446487
 21
12226.481872
 31
0.0
  0
LINE
  8
5
  6
CONTINUOUS
 62
     6
  5
3AC
 10
49893.946487
 20
12227.481772
 30
0.0
 11
49893.946487
 21
12228.505372
 31
0.0
  0
LINE
  8
5
  6
CONTINUOUS
 62
     6
  5
3AD
 10
49893.468487
 20
12229.004972
 30
0.0
 11
49913.946487
 21
12228.155472
 31
0.0
  0
ARC
  8
5
  6
CONTINUOUS
 62
     6
  5
3AE
 10
49893.446487
 20
12228.505372
 30
0.0
 40
0.5
 50
0.0
 51
87.500839
  0
ARC
  8
5
  6
CONTINUOUS
 62
     6
  5
3AF
 10
49894.947487
 20
12227.481772
 30
0.0
 40
1.0
 50
180.0
 51
270.0
  0
LINE
  8
5
  6
CONTINUOUS
 62
     6
  5
3B0
 10
49953.515815
 20
12684.981872
 30
0.0
 11
49953.515815
 21
12685.481372
 31
0.0
  0
LINE
  8
5
  6
CONTINUOUS
 62
     6
  5
3B1
 10
49802.924815
 20
12586.238972
 30
0.0
 11
49776.730815
 21
12626.586472
 31
0.0
  0
LINE
  8
5
  6
CONTINUOUS
 62
     6
  5
3B2
 10
49952.762815
 20
12675.731772
 30
0.0
 11
49952.762815
 21
12663.481772
 31
0.0
  0
LINE
  8
5
  6
CONTINUOUS
 62
     6
  5
3B3
 10
49952.762815
 20
12663.481772
 30
0.0
 11
49952.762815
 21
12633.481372
 31
0.0
  0
LINE
  8
5
  6
CONTINUOUS
 62
     6
  5
3B4
 10
49803.291815
 20
12576.311672
 30
0.0
 11
49769.250815
 21
12630.209372
 31
0.0
  0
LINE
  8
5
  6
CONTINUOUS
 62
     6
  5
3B5
 10
49761.082815
 20
12632.443772
 30
0.0
 11
49762.394815
 21
12630.414972
 31
0.0
  0
LINE
  8
5
  6
CONTINUOUS
 62
     6
  5
3B6
 10
49952.762815
 20
12683.981872
 30
0.0
 11
49953.515815
 21
12684.981872
 31
0.0
  0
LINE
  8
5
  6
CONTINUOUS
 62
     6
  5
3B7
 10
49762.762815
 20
12706.124972
 30
0.0
 11
49928.763815
 21
12706.124972
 31
0.0
  0
LINE
  8
5
  6
CONTINUOUS
 62
     6
  5
3B8
 10
49931.015815
 20
12707.981472
 30
0.0
 11
49754.128815
 21
12707.981472
 31
0.0
  0
LINE
  8
5
  6
CONTINUOUS
 62
     6
  5
3B9
 10
49754.128815
 20
12652.981472
 30
0.0
 11
49771.762815
 21
12652.981472
 31
0.0
  0
LINE
  8
5
  6
CONTINUOUS
 62
     6
  5
3BA
 10
49775.762815
 20
12648.981572
 30
0.0
 11
49775.762815
 21
12629.854972
 31
0.0
  0
LINE
  8
5
  6
CONTINUOUS
 62
     6
  5
3BB
 10
49952.762815
 20
12683.981872
 30
0.0
 11
49952.762815
 21
12675.731772
 31
0.0
  0
LINE
  8
5
  6
CONTINUOUS
 62
     6
  5
3BC
 10
49762.762815
 20
12667.481672
 30
0.0
 11
49762.762815
 21
12706.124972
 31
0.0
  0
LINE
  8
5
  6
CONTINUOUS
 62
     6
  5
3BD
 10
49951.126815
 20
12667.981272
 30
0.0
 11
49951.126815
 21
12683.399172
 31
0.0
  0
LINE
  8
5
  6
CONTINUOUS
 62
     6
  5
3BE
 10
49950.125815
 20
12666.981272
 30
0.0
 11
49763.262815
 21
12666.981272
 31
0.0
  0
LINE
  8
5
  6
CONTINUOUS
 62
     6
  5
3BF
 10
49767.852815
 20
12630.903172
 30
0.0
 11
49762.394815
 21
12630.414972
 31
0.0
  0
ARC
  8
5
  6
CONTINUOUS
 62
     6
  5
3C0
 10
49853.759815
 20
11639.116872
 30
0.0
 40
995.49999
 50
95.265899
 51
104.01936
  0
ARC
  8
5
  6
CONTINUOUS
 62
     6
  5
3C1
 10
49852.988815
 20
11638.836872
 30
0.0
 40
999.99992
 50
95.488555
 51
104.37327
  0
ARC
  8
5
  6
CONTINUOUS
 62
     6
  5
3C2
 10
50040.763815
 20
12680.481472
 30
0.0
 40
299.99999
 50
177.10401
 51
182.89596
  0
ARC
  8
5
  6
CONTINUOUS
 62
     6
  5
3C3
 10
49928.624815
 20
12683.623172
 30
0.0
 40
22.502573
 50
359.43035
 51
89.649627
  0
ARC
  8
5
  6
CONTINUOUS
 62
     6
  5
3C4
 10
49767.981815
 20
12629.408872
 30
0.0
 40
1.5
 50
32.275634
 51
94.950561
  0
ARC
  8
5
  6
CONTINUOUS
 62
     6
  5
3C5
 10
49754.128815
 20
12694.981672
 30
0.0
 40
12.999998
 50
90.0
 51
177.10401
  0
ARC
  8
5
  6
CONTINUOUS
 62
     6
  5
3C6
 10
49754.128815
 20
12665.981272
 30
0.0
 40
12.999998
 50
182.89596
 51
270.0
  0
ARC
  8
5
  6
CONTINUOUS
 62
     6
  5
3C7
 10
49931.015815
 20
12685.481372
 30
0.0
 40
22.499997
 50
0.0
 51
41.160552
  0
ARC
  8
5
  6
CONTINUOUS
 62
     6
  5
3C8
 10
49757.724815
 20
12630.270572
 30
0.0
 40
3.999999
 50
32.91896
 51
95.488555
  0
ARC
  8
5
  6
CONTINUOUS
 62
     6
  5
3C9
 10
49763.262815
 20
12667.481672
 30
0.0
 40
0.5
 50
180.0
 51
270.0
  0
ARC
  8
5
  6
CONTINUOUS
 62
     6
  5
3CA
 10
49771.762815
 20
12648.981572
 30
0.0
 40
3.999999
 50
0.0
 51
90.0
  0
ARC
  8
5
  6
CONTINUOUS
 62
     6
  5
3CB
 10
49931.015815
 20
12685.481372
 30
0.0
 40
22.499997
 50
41.160552
 51
90.0
  0
ARC
  8
5
  6
CONTINUOUS
 62
     6
  5
3CC
 10
49950.125815
 20
12667.981272
 30
0.0
 40
1.0
 50
270.0
 51
0.0
  0
LINE
  8
5
  6
CONTINUOUS
 62
     6
  5
3CD
 10
49952.762815
 20
12633.481372
 30
0.0
 11
49952.762815
 21
12258.981772
 31
0.0
  0
LINE
  8
5
  6
CONTINUOUS
 62
     6
  5
3CE
 10
49856.762815
 20
12573.981872
 30
0.0
 11
49807.519815
 21
12573.981872
 31
0.0
  0
ARC
  8
5
  6
CONTINUOUS
 62
     6
  5
3CF
 10
49777.762815
 20
12569.903272
 30
0.0
 40
30.0
 50
7.813034
 51
32.992477
  0
ARC
  8
5
  6
CONTINUOUS
 62
     6
  5
3D0
 10
49856.762815
 20
12572.981972
 30
0.0
 40
1.0
 50
0.0
 51
90.0
  0
ARC
  8
5
  6
CONTINUOUS
 62
     6
  5
3D1
 10
49685.276815
 20
12313.900372
 30
0.0
 40
299.99999
 50
104.01936
 51
137.5811
  0
ARC
  8
5
  6
CONTINUOUS
 62
     6
  5
3D2
 10
49679.222815
 20
12316.925672
 30
0.0
 40
299.99999
 50
104.37327
 51
136.96829
  0
ARC
  8
5
  6
CONTINUOUS
 62
     6
  5
3D3
 10
49807.519815
 20
12578.981872
 30
0.0
 40
5.0
 50
212.27563
 51
269.60652
  0
LINE
  8
5
  6
CONTINUOUS
 62
     6
  5
3D4
 10
49880.762815
 20
12226.481872
 30
0.0
 11
49878.263815
 21
12226.481872
 31
0.0
  0
LINE
  8
5
  6
CONTINUOUS
 62
     6
  5
3D5
 10
49893.762815
 20
12226.481872
 30
0.0
 11
49880.762815
 21
12226.481872
 31
0.0
  0
LINE
  8
5
  6
CONTINUOUS
 62
     6
  5
3D6
 10
49749.857815
 20
12220.180972
 30
0.0
 11
49754.400815
 21
12227.199272
 31
0.0
  0
LINE
  8
5
  6
CONTINUOUS
 62
     6
  5
3D7
 10
49712.747815
 20
12211.827672
 30
0.0
 11
49736.946815
 21
12208.641372
 31
0.0
  0
LINE
  8
5
  6
CONTINUOUS
 62
     6
  5
3D8
 10
49744.706815
 20
12212.225672
 30
0.0
 11
49749.857815
 21
12220.180972
 31
0.0
  0
LINE
  8
5
  6
CONTINUOUS
 62
     6
  5
3D9
 10
49771.818815
 20
12216.978072
 30
0.0
 11
49749.857815
 21
12220.180972
 31
0.0
  0
LINE
  8
5
  6
CONTINUOUS
 62
     6
  5
3DA
 10
49774.160815
 20
12224.335772
 30
0.0
 11
49754.400815
 21
12227.199272
 31
0.0
  0
LINE
  8
5
  6
CONTINUOUS
 62
     6
  5
3DB
 10
49893.762815
 20
12226.481872
 30
0.0
 11
49893.762815
 21
12217.981572
 31
0.0
  0
LINE
  8
5
  6
CONTINUOUS
 62
     6
  5
3DC
 10
49880.762815
 20
12226.481872
 30
0.0
 11
49880.762815
 21
12215.557272
 31
0.0
  0
LINE
  8
5
  6
CONTINUOUS
 62
     6
  5
3DD
 10
49877.262815
 20
12227.481772
 30
0.0
 11
49877.262815
 21
12228.505372
 31
0.0
  0
LINE
  8
5
  6
CONTINUOUS
 62
     6
  5
3DE
 10
49896.263815
 20
12226.481872
 30
0.0
 11
49893.762815
 21
12226.481872
 31
0.0
  0
LINE
  8
5
  6
CONTINUOUS
 62
     6
  5
3DF
 10
49897.262815
 20
12227.481772
 30
0.0
 11
49897.262815
 21
12228.155472
 31
0.0
  0
LINE
  8
5
  6
CONTINUOUS
 62
     6
  5
3E0
 10
49774.160815
 20
12224.335772
 30
0.0
 11
49790.422815
 21
12222.042672
 31
0.0
  0
LINE
  8
5
  6
CONTINUOUS
 62
     6
  5
3E1
 10
49790.819815
 20
12214.226572
 30
0.0
 11
49771.818815
 21
12216.978072
 31
0.0
  0
LINE
  8
5
  6
CONTINUOUS
 62
     6
  5
3E2
 10
49876.784815
 20
12229.004972
 30
0.0
 11
49897.262815
 21
12228.155472
 31
0.0
  0
LINE
  8
5
  6
CONTINUOUS
 62
     6
  5
3E3
 10
49897.262815
 20
12228.155472
 30
0.0
 11
49929.529815
 21
12226.993672
 31
0.0
  0
ARC
  8
5
  6
CONTINUOUS
 62
     6
  5
3E4
 10
49874.454815
 20
12215.557272
 30
0.0
 40
6.308872
 50
302.94621
 51
0.0
  0
ARC
  8
5
  6
CONTINUOUS
 62
     6
  5
3E5
 10
50086.086815
 20
17024.439372
 30
0.0
 40
4799.9999
 50
266.36039
 51
267.50083
  0
ARC
  8
5
  6
CONTINUOUS
 62
     6
  5
3E6
 10
49881.799815
 20
12204.221472
 30
0.0
 40
7.198903
 50
122.94621
 51
172.64929
  0
ARC
  8
5
  6
CONTINUOUS
 62
     6
  5
3E7
 10
49880.725815
 20
12203.615172
 30
0.0
 40
6.13165
 50
176.57188
 51
246.54925
  0
ARC
  8
5
  6
CONTINUOUS
 62
     6
  5
3E8
 10
49880.725815
 20
12203.615172
 30
0.0
 40
6.13165
 50
246.54925
 51
301.16062
  0
ARC
  8
5
  6
CONTINUOUS
 62
     6
  5
3E9
 10
49872.700815
 20
12216.286872
 30
0.0
 40
21.129668
 50
302.00144
 51
4.600952
  0
ARC
  8
5
  6
CONTINUOUS
 62
     6
  5
3EA
 10
49881.799815
 20
12204.221472
 30
0.0
 40
7.198903
 50
172.64929
 51
181.91317
  0
ARC
  8
5
  6
CONTINUOUS
 62
     6
  5
3EB
 10
49781.400815
 20
12149.221472
 30
0.0
 40
73.377499
 50
62.491363
 51
82.937911
  0
ARC
  8
5
  6
CONTINUOUS
 62
     6
  5
3EC
 10
49781.400815
 20
12149.221472
 30
0.0
 40
65.683445
 50
60.993988
 51
81.755752
  0
ARC
  8
5
  6
CONTINUOUS
 62
     6
  5
3ED
 10
49860.340815
 20
12309.294972
 30
0.0
 40
105.13228
 50
244.62867
 51
277.82847
  0
ARC
  8
5
  6
CONTINUOUS
 62
     6
  5
3EE
 10
49860.258815
 20
12310.932772
 30
0.0
 40
114.37279
 50
245.73258
 51
279.06886
  0
ARC
  8
5
  6
CONTINUOUS
 62
     6
  5
3EF
 10
49713.791815
 20
12219.759272
 30
0.0
 40
7.999999
 50
198.11744
 51
262.5
  0
ARC
  8
5
  6
CONTINUOUS
 62
     6
  5
3F0
 10
49737.991815
 20
12216.572972
 30
0.0
 40
7.999999
 50
262.5
 51
327.08102
  0
ARC
  8
5
  6
CONTINUOUS
 62
     6
  5
3F1
 10
49876.762815
 20
12228.505372
 30
0.0
 40
0.5
 50
0.0
 51
87.500839
  0
ARC
  8
5
  6
CONTINUOUS
 62
     6
  5
3F2
 10
49896.263815
 20
12227.481772
 30
0.0
 40
1.0
 50
270.0
 51
0.0
  0
ARC
  8
5
  6
CONTINUOUS
 62
     6
  5
3F3
 10
49878.263815
 20
12227.481772
 30
0.0
 40
1.0
 50
180.0
 51
270.0
  0
LINE
  8
5
  6
CONTINUOUS
 62
     6
  5
3F4
 10
49754.400815
 20
12227.199272
 30
0.0
 11
49762.394815
 21
12239.548072
 31
0.0
  0
LINE
  8
5
  6
CONTINUOUS
 62
     6
  5
3F5
 10
49857.763815
 20
12549.981372
 30
0.0
 11
49855.763815
 21
12549.981372
 31
0.0
  0
LINE
  8
5
  6
CONTINUOUS
 62
     6
  5
3F6
 10
49857.763815
 20
12319.981672
 30
0.0
 11
49855.763815
 21
12319.981672
 31
0.0
  0
LINE
  8
5
  6
CONTINUOUS
 62
     6
  5
3F7
 10
49857.763815
 20
12296.981172
 30
0.0
 11
49857.763815
 21
12319.981672
 31
0.0
  0
LINE
  8
5
  6
CONTINUOUS
 62
     6
  5
3F8
 10
49807.519815
 20
12295.981172
 30
0.0
 11
49856.762815
 21
12295.981172
 31
0.0
  0
LINE
  8
5
  6
CONTINUOUS
 62
     6
  5
3F9
 10
49769.250815
 20
12239.753672
 30
0.0
 11
49771.169815
 21
12242.792172
 31
0.0
  0
LINE
  8
5
  6
CONTINUOUS
 62
     6
  5
3FA
 10
49857.763815
 20
12572.981972
 30
0.0
 11
49857.763815
 21
12549.981372
 31
0.0
  0
LINE
  8
5
  6
CONTINUOUS
 62
     6
  5
3FB
 10
49855.763815
 20
12319.981672
 30
0.0
 11
49855.763815
 21
12549.981372
 31
0.0
  0
LINE
  8
5
  6
CONTINUOUS
 62
     6
  5
3FC
 10
49771.169815
 20
12242.792172
 30
0.0
 11
49773.517815
 21
12246.511272
 31
0.0
  0
LINE
  8
5
  6
CONTINUOUS
 62
     6
  5
3FD
 10
49773.517815
 20
12246.511272
 30
0.0
 11
49803.291815
 21
12293.651372
 31
0.0
  0
LINE
  8
5
  6
CONTINUOUS
 62
     6
  5
3FE
 10
49706.187815
 20
12217.271172
 30
0.0
 11
49699.204815
 21
12238.618072
 31
0.0
  0
LINE
  8
5
  6
CONTINUOUS
 62
     6
  5
3FF
 10
49953.749815
 20
12257.542572
 30
0.0
 11
49953.749815
 21
12249.481472
 31
0.0
  0
LINE
  8
5
  6
CONTINUOUS
 62
     6
  5
400
 10
49952.762815
 20
12258.981772
 30
0.0
 11
49953.749815
 21
12257.542572
 31
0.0
  0
LINE
  8
5
  6
CONTINUOUS
 62
     6
  5
401
 10
49802.924815
 20
12283.724172
 30
0.0
 11
49776.730815
 21
12243.375672
 31
0.0
  0
LINE
  8
5
  6
CONTINUOUS
 62
     6
  5
402
 10
49807.519815
 20
12295.981172
 30
0.0
 11
49807.484815
 21
12295.981172
 31
0.0
  0
LINE
  8
5
  6
CONTINUOUS
 62
     6
  5
403
 10
49762.394815
 20
12239.548072
 30
0.0
 11
49767.852815
 21
12239.059972
 31
0.0
  0
ARC
  8
5
  6
CONTINUOUS
 62
     6
  5
404
 10
49777.762815
 20
12300.059772
 30
0.0
 40
30.0
 50
327.0075
 51
352.18695
  0
ARC
  8
5
  6
CONTINUOUS
 62
     6
  5
405
 10
49781.762815
 20
12240.108872
 30
0.0
 40
5.999999
 50
147.0075
 51
266.36039
  0
ARC
  8
5
  6
CONTINUOUS
 62
     6
  5
406
 10
49853.759815
 20
13230.846172
 30
0.0
 40
995.49999
 50
255.98062
 51
264.73408
  0
ARC
  8
5
  6
CONTINUOUS
 62
     6
  5
407
 10
49807.519815
 20
12290.981272
 30
0.0
 40
5.0
 50
90.393463
 51
147.72434
  0
ARC
  8
5
  6
CONTINUOUS
 62
     6
  5
408
 10
49856.762815
 20
12296.981172
 30
0.0
 40
1.0
 50
270.0
 51
0.0
  0
ARC
  8
5
  6
CONTINUOUS
 62
     6
  5
409
 10
49767.981815
 20
12240.554172
 30
0.0
 40
1.5
 50
265.04942
 51
327.72434
  0
ARC
  8
5
  6
CONTINUOUS
 62
     6
  5
40A
 10
49679.222815
 20
12553.037372
 30
0.0
 40
299.99999
 50
223.03169
 51
255.6267
  0
ARC
  8
5
  6
CONTINUOUS
 62
     6
  5
40B
 10
49852.988815
 20
13231.127072
 30
0.0
 40
999.99992
 50
255.6267
 51
260.78688
  0
ARC
  8
5
  6
CONTINUOUS
 62
     6
  5
40C
 10
49685.276815
 20
12556.062672
 30
0.0
 40
299.99999
 50
222.41888
 51
255.98062
  0
ARC
  8
5
  6
CONTINUOUS
 62
     6
  5
40D
 10
49931.249815
 20
12249.481472
 30
0.0
 40
22.499997
 50
270.0
 51
0.0
  0
ARC
  8
5
  6
CONTINUOUS
 62
     6
  5
40E
 10
49807.519815
 20
12290.981272
 30
0.0
 40
5.0
 50
90.0
 51
147.72434
  0
ARC
  8
5
  6
CONTINUOUS
 62
     6
  5
40F
 10
49691.599815
 20
12236.129972
 30
0.0
 40
7.999999
 50
18.117446
 51
80.78688
  0
ARC
  8
5
  6
CONTINUOUS
 62
     6
  5
410
 10
49552.762815
 20
12434.981572
 30
0.0
 40
126.99999
 50
136.96829
 51
223.03169
  0
ARC
  8
5
  6
CONTINUOUS
 62
     6
  5
411
 10
49552.762815
 20
12434.981572
 30
0.0
 40
120.49999
 50
137.5811
 51
222.41888
  0
LINE
  8
5
  6
CONTINUOUS
 62
     6
  5
412
 10
49966.143815
 20
12577.588172
 30
0.0
 11
49952.762815
 21
12580.014172
 31
0.0
  0
LINE
  8
5
  6
CONTINUOUS
 62
     6
  5
413
 10
49952.762815
 20
12289.955872
 30
0.0
 11
49966.143815
 21
12292.381072
 31
0.0
  0
LINE
  8
5
  6
CONTINUOUS
 62
     6
  5
414
 10
50190.762815
 20
12612.480472
 30
0.0
 11
50190.762815
 21
12257.481772
 31
0.0
  0
LINE
  8
5
  6
CONTINUOUS
 62
     6
  5
415
 10
50190.762815
 20
12612.480472
 30
0.0
 11
49991.509483
 21
12612.480472
 31
0.0
  0
ARC
  8
5
  6
CONTINUOUS
 62
     6
  5
416
 10
49991.511483
 20
12587.480872
 30
0.0
 40
24.999999
 50
90.002288
 51
176.06182
  0
ARC
  8
5
  6
CONTINUOUS
 62
     6
  5
417
 10
49991.689823
 20
12282.480472
 30
0.0
 40
24.999963
 50
183.93588
 51
269.99769
  0
LINE
  8
5
  6
CONTINUOUS
 62
     6
  5
418
 10
50190.762815
 20
12257.481772
 30
0.0
 11
49991.687823
 21
12257.481772
 31
0.0
  0
ARC
  8
5
  6
CONTINUOUS
 62
     6
  5
419
 10
52972.745815
 20
12434.980672
 30
0.0
 40
3009.9835
 50
177.063293
 51
182.936862
  0
LINE
  8
8
  6
CONTINUOUS
 62
     6
  5
41A
 10
50190.762815
 20
12612.481122
 30
0.0
 11
49991.509483
 21
12612.481122
 31
0.0
  0
LINE
  8
8
  6
CONTINUOUS
 62
     6
  5
41B
 10
50190.762815
 20
12257.481122
 30
0.0
 11
49991.687823
 21
12257.481122
 31
0.0
  0
LINE
  8
40
  6
CONTINUOUS
 62
     4
  5
41C
 10
49197.940603
 20
13001.981037
 30
0.0
 11
49228.763143
 21
13001.981037
 31
0.0
  0
LINE
  8
40
  6
CONTINUOUS
 62
     4
  5
41D
 10
49235.006583
 20
13003.981007
 30
0.0
 11
49191.725583
 21
13003.981007
 31
0.0
  0
LINE
  8
40
  6
CONTINUOUS
 62
     4
  5
41E
 10
49258.401423
 20
13021.981017
 30
0.0
 11
49258.401423
 21
13011.494107
 31
0.0
  0
LINE
  8
40
  6
CONTINUOUS
 62
     4
  5
41F
 10
49168.401443
 20
13021.981017
 30
0.0
 11
49168.401443
 21
13011.465477
 31
0.0
  0
LINE
  8
40
  6
CONTINUOUS
 62
     4
  5
420
 10
49169.147503
 20
13009.981057
 30
0.0
 11
49257.611963
 21
13009.981057
 31
0.0
  0
ARC
  8
40
  6
CONTINUOUS
 62
     4
  5
421
 10
49256.401523
 20
13011.596797
 30
0.0
 40
2.00004
 50
284.470295
 51
360.0
  0
ARC
  8
40
  6
CONTINUOUS
 62
     4
  5
422
 10
49170.403163
 20
13011.553747
 30
0.0
 40
2.00004
 50
180.0
 51
255.930352
  0
LINE
  8
1
  6
CONTINUOUS
 62
     4
  5
423
 10
49245.712383
 20
13029.167077
 30
0.0
 11
49241.712303
 21
13029.862107
 31
0.0
  0
LINE
  8
1
  6
CONTINUOUS
 62
     4
  5
424
 10
49245.712383
 20
13032.203397
 30
0.0
 11
49241.712303
 21
13032.912637
 31
0.0
  0
LINE
  8
1
  6
CONTINUOUS
 62
     4
  5
425
 10
49245.712383
 20
13035.256517
 30
0.0
 11
49241.712303
 21
13035.965757
 31
0.0
  0
LINE
  8
1
  6
CONTINUOUS
 62
     4
  5
426
 10
49245.712383
 20
13038.309637
 30
0.0
 11
49241.712303
 21
13039.018807
 31
0.0
  0
LINE
  8
1
  6
CONTINUOUS
 62
     4
  5
427
 10
49245.712383
 20
13041.360097
 30
0.0
 11
49241.712303
 21
13042.055057
 31
0.0
  0
LINE
  8
1
  6
CONTINUOUS
 62
     4
  5
428
 10
49245.712383
 20
13044.396207
 30
0.0
 11
49241.712303
 21
13045.105447
 31
0.0
  0
LINE
  8
1
  6
CONTINUOUS
 62
     4
  5
429
 10
49242.107523
 20
13028.271917
 30
0.0
 11
49245.317163
 21
13027.704287
 31
0.0
  0
LINE
  8
1
  6
CONTINUOUS
 62
     4
  5
42A
 10
49242.107523
 20
13031.305367
 30
0.0
 11
49245.317163
 21
13030.737807
 31
0.0
  0
LINE
  8
1
  6
CONTINUOUS
 62
     4
  5
42B
 10
49242.107523
 20
13034.358487
 30
0.0
 11
49245.317163
 21
13033.790927
 31
0.0
  0
LINE
  8
1
  6
CONTINUOUS
 62
     4
  5
42C
 10
49242.107523
 20
13037.411607
 30
0.0
 11
49245.317163
 21
13036.844117
 31
0.0
  0
LINE
  8
1
  6
CONTINUOUS
 62
     4
  5
42D
 10
49242.107523
 20
13040.464797
 30
0.0
 11
49245.317163
 21
13039.897237
 31
0.0
  0
LINE
  8
1
  6
CONTINUOUS
 62
     4
  5
42E
 10
49242.107523
 20
13043.498317
 30
0.0
 11
49245.317163
 21
13042.930757
 31
0.0
  0
LINE
  8
1
  6
CONTINUOUS
 62
     4
  5
42F
 10
49242.107523
 20
13046.551437
 30
0.0
 11
49245.317163
 21
13045.983807
 31
0.0
  0
LINE
  8
1
  6
CONTINUOUS
 62
     4
  5
430
 10
49245.712383
 20
13026.115707
 30
0.0
 11
49241.712303
 21
13026.819907
 31
0.0
  0
LINE
  8
1
  6
CONTINUOUS
 62
     4
  5
431
 10
49243.712343
 20
13015.981037
 30
0.0
 11
49247.962323
 21
13015.981037
 31
0.0
  0
LINE
  8
1
  6
CONTINUOUS
 62
     4
  5
432
 10
49245.712383
 20
13020.069177
 30
0.0
 11
49241.712303
 21
13020.778417
 31
0.0
  0
LINE
  8
1
  6
CONTINUOUS
 62
     4
  5
433
 10
49245.712383
 20
13023.083027
 30
0.0
 11
49241.712303
 21
13023.792267
 31
0.0
  0
LINE
  8
1
  6
CONTINUOUS
 62
     4
  5
434
 10
49242.107523
 20
13019.190747
 30
0.0
 11
49245.317163
 21
13018.623187
 31
0.0
  0
LINE
  8
1
  6
CONTINUOUS
 62
     4
  5
435
 10
49242.107523
 20
13022.204667
 30
0.0
 11
49245.317163
 21
13021.637107
 31
0.0
  0
LINE
  8
1
  6
CONTINUOUS
 62
     4
  5
436
 10
49242.107523
 20
13025.238257
 30
0.0
 11
49245.317163
 21
13024.670697
 31
0.0
  0
LINE
  8
1
  6
CONTINUOUS
 62
     4
  5
437
 10
49246.315363
 20
13015.981037
 30
0.0
 11
49245.112343
 21
13017.183987
 31
0.0
  0
LINE
  8
1
  6
CONTINUOUS
 62
     4
  5
438
 10
49246.315363
 20
13015.981037
 30
0.0
 11
49247.962323
 21
13015.981037
 31
0.0
  0
LINE
  8
1
  6
CONTINUOUS
 62
     4
  5
439
 10
49241.109323
 20
13015.981037
 30
0.0
 11
49242.312343
 21
13017.183987
 31
0.0
  0
LINE
  8
1
  6
CONTINUOUS
 62
     4
  5
43A
 10
49241.109323
 20
13015.981037
 30
0.0
 11
49239.462363
 21
13015.981037
 31
0.0
  0
LINE
  8
1
  6
CONTINUOUS
 62
     4
  5
43B
 10
49242.107523
 20
13017.664187
 30
0.0
 11
49245.317163
 21
13017.096697
 31
0.0
  0
LINE
  8
1
  6
CONTINUOUS
 62
     4
  5
43C
 10
49244.319103
 20
13012.489997
 30
0.0
 11
49243.105583
 21
13012.489997
 31
0.0
  0
LINE
  8
1
  6
CONTINUOUS
 62
     4
  5
43D
 10
49244.319103
 20
13011.981027
 30
0.0
 11
49244.319103
 21
13012.489997
 31
0.0
  0
LINE
  8
1
  6
CONTINUOUS
 62
     4
  5
43E
 10
49243.105583
 20
13011.981027
 30
0.0
 11
49243.105583
 21
13012.489997
 31
0.0
  0
LINE
  8
1
  6
CONTINUOUS
 62
     4
  5
43F
 10
49244.319103
 20
13011.981027
 30
0.0
 11
49243.105583
 21
13011.981027
 31
0.0
  0
LINE
  8
1
  6
CONTINUOUS
 62
     4
  5
440
 10
49245.712383
 20
13047.449327
 30
0.0
 11
49241.712303
 21
13048.158567
 31
0.0
  0
LINE
  8
1
  6
CONTINUOUS
 62
     4
  5
441
 10
49242.321023
 20
13051.103747
 30
0.0
 11
49245.206003
 21
13050.592187
 31
0.0
  0
LINE
  8
1
  6
CONTINUOUS
 62
     4
  5
442
 10
49242.107523
 20
13049.604487
 30
0.0
 11
49245.317163
 21
13049.036927
 31
0.0
  0
LINE
  8
1
  6
CONTINUOUS
 62
     4
  5
443
 10
49242.613903
 20
13052.568007
 30
0.0
 11
49244.891283
 21
13052.165367
 31
0.0
  0
LINE
  8
1
  6
CONTINUOUS
 62
     4
  5
444
 10
49185.090563
 20
13029.167077
 30
0.0
 11
49181.090623
 21
13029.862107
 31
0.0
  0
LINE
  8
1
  6
CONTINUOUS
 62
     4
  5
445
 10
49185.090563
 20
13032.203397
 30
0.0
 11
49181.090623
 21
13032.912637
 31
0.0
  0
LINE
  8
1
  6
CONTINUOUS
 62
     4
  5
446
 10
49185.090563
 20
13035.256517
 30
0.0
 11
49181.090623
 21
13035.965757
 31
0.0
  0
LINE
  8
1
  6
CONTINUOUS
 62
     4
  5
447
 10
49185.090563
 20
13038.309637
 30
0.0
 11
49181.090623
 21
13039.018807
 31
0.0
  0
LINE
  8
1
  6
CONTINUOUS
 62
     4
  5
448
 10
49185.090563
 20
13041.360097
 30
0.0
 11
49181.090623
 21
13042.055057
 31
0.0
  0
LINE
  8
1
  6
CONTINUOUS
 62
     4
  5
449
 10
49185.090563
 20
13044.396207
 30
0.0
 11
49181.090623
 21
13045.105447
 31
0.0
  0
LINE
  8
1
  6
CONTINUOUS
 62
     4
  5
44A
 10
49181.485703
 20
13028.271917
 30
0.0
 11
49184.695483
 21
13027.704287
 31
0.0
  0
LINE
  8
1
  6
CONTINUOUS
 62
     4
  5
44B
 10
49181.485703
 20
13031.305367
 30
0.0
 11
49184.695483
 21
13030.737807
 31
0.0
  0
LINE
  8
1
  6
CONTINUOUS
 62
     4
  5
44C
 10
49181.485703
 20
13034.358487
 30
0.0
 11
49184.695483
 21
13033.790927
 31
0.0
  0
LINE
  8
1
  6
CONTINUOUS
 62
     4
  5
44D
 10
49181.485703
 20
13037.411607
 30
0.0
 11
49184.695483
 21
13036.844117
 31
0.0
  0
LINE
  8
1
  6
CONTINUOUS
 62
     4
  5
44E
 10
49181.485703
 20
13040.464797
 30
0.0
 11
49184.695483
 21
13039.897237
 31
0.0
  0
LINE
  8
1
  6
CONTINUOUS
 62
     4
  5
44F
 10
49181.485703
 20
13043.498317
 30
0.0
 11
49184.695483
 21
13042.930757
 31
0.0
  0
LINE
  8
1
  6
CONTINUOUS
 62
     4
  5
450
 10
49181.485703
 20
13046.551437
 30
0.0
 11
49184.695483
 21
13045.983807
 31
0.0
  0
LINE
  8
1
  6
CONTINUOUS
 62
     4
  5
451
 10
49185.090563
 20
13026.115707
 30
0.0
 11
49181.090623
 21
13026.819907
 31
0.0
  0
LINE
  8
1
  6
CONTINUOUS
 62
     4
  5
452
 10
49183.090523
 20
13015.981037
 30
0.0
 11
49187.340643
 21
13015.981037
 31
0.0
  0
LINE
  8
1
  6
CONTINUOUS
 62
     4
  5
453
 10
49185.090563
 20
13020.069177
 30
0.0
 11
49181.090623
 21
13020.778417
 31
0.0
  0
LINE
  8
1
  6
CONTINUOUS
 62
     4
  5
454
 10
49185.090563
 20
13023.083027
 30
0.0
 11
49181.090623
 21
13023.792267
 31
0.0
  0
LINE
  8
1
  6
CONTINUOUS
 62
     4
  5
455
 10
49181.485703
 20
13019.190747
 30
0.0
 11
49184.695483
 21
13018.623187
 31
0.0
  0
LINE
  8
1
  6
CONTINUOUS
 62
     4
  5
456
 10
49181.485703
 20
13022.204667
 30
0.0
 11
49184.695483
 21
13021.637107
 31
0.0
  0
LINE
  8
1
  6
CONTINUOUS
 62
     4
  5
457
 10
49181.485703
 20
13025.238257
 30
0.0
 11
49184.695483
 21
13024.670697
 31
0.0
  0
LINE
  8
1
  6
CONTINUOUS
 62
     4
  5
458
 10
49185.693543
 20
13015.981037
 30
0.0
 11
49184.490523
 21
13017.183987
 31
0.0
  0
LINE
  8
1
  6
CONTINUOUS
 62
     4
  5
459
 10
49185.693543
 20
13015.981037
 30
0.0
 11
49187.340643
 21
13015.981037
 31
0.0
  0
LINE
  8
1
  6
CONTINUOUS
 62
     4
  5
45A
 10
49180.487643
 20
13015.981037
 30
0.0
 11
49181.690523
 21
13017.183987
 31
0.0
  0
LINE
  8
1
  6
CONTINUOUS
 62
     4
  5
45B
 10
49180.487643
 20
13015.981037
 30
0.0
 11
49178.840543
 21
13015.981037
 31
0.0
  0
LINE
  8
1
  6
CONTINUOUS
 62
     4
  5
45C
 10
49181.485703
 20
13017.664187
 30
0.0
 11
49184.695483
 21
13017.096697
 31
0.0
  0
LINE
  8
1
  6
CONTINUOUS
 62
     4
  5
45D
 10
49183.697283
 20
13012.489997
 30
0.0
 11
49182.483903
 21
13012.489997
 31
0.0
  0
LINE
  8
1
  6
CONTINUOUS
 62
     4
  5
45E
 10
49183.697283
 20
13011.981027
 30
0.0
 11
49183.697283
 21
13012.489997
 31
0.0
  0
LINE
  8
1
  6
CONTINUOUS
 62
     4
  5
45F
 10
49182.483903
 20
13011.981027
 30
0.0
 11
49182.483903
 21
13012.489997
 31
0.0
  0
LINE
  8
1
  6
CONTINUOUS
 62
     4
  5
460
 10
49183.697283
 20
13011.981027
 30
0.0
 11
49182.483903
 21
13011.981027
 31
0.0
  0
LINE
  8
1
  6
CONTINUOUS
 62
     4
  5
461
 10
49185.090563
 20
13047.449327
 30
0.0
 11
49181.090623
 21
13048.158567
 31
0.0
  0
LINE
  8
1
  6
CONTINUOUS
 62
     4
  5
462
 10
49181.699343
 20
13051.103747
 30
0.0
 11
49184.584183
 21
13050.592187
 31
0.0
  0
LINE
  8
1
  6
CONTINUOUS
 62
     4
  5
463
 10
49181.485703
 20
13049.604487
 30
0.0
 11
49184.695483
 21
13049.036927
 31
0.0
  0
LINE
  8
1
  6
CONTINUOUS
 62
     4
  5
464
 10
49181.992083
 20
13052.568007
 30
0.0
 11
49184.269603
 21
13052.165367
 31
0.0
  0
LINE
  8
40
  6
CONTINUOUS
 62
     4
  5
465
 10
49168.426503
 20
13021.981017
 30
0.0
 11
49168.426503
 21
13011.465477
 31
0.0
  0
LINE
  8
40
  6
CONTINUOUS
 62
     4
  5
466
 10
49170.926483
 20
13009.348537
 30
0.0
 11
49170.926483
 21
13016.981057
 31
0.0
  0
LINE
  8
40
  6
CONTINUOUS
 62
     4
  5
467
 10
49231.131523
 20
13002.981057
 30
0.0
 11
49195.600503
 21
13002.981057
 31
0.0
  0
LINE
  8
40
  6
CONTINUOUS
 62
     4
  5
468
 10
49227.401503
 20
13001.981037
 30
0.0
 11
49199.401503
 21
13001.981037
 31
0.0
  0
LINE
  8
40
  6
CONTINUOUS
 62
     4
  5
469
 10
49198.817143
 20
13000.981017
 30
0.0
 11
49227.917543
 21
13000.981017
 31
0.0
  0
LINE
  8
40
  6
CONTINUOUS
 62
     4
  5
46A
 10
49199.255483
 20
12999.980927
 30
0.0
 11
49227.520643
 21
12999.980927
 31
0.0
  0
LINE
  8
12
  6
CONTINUOUS
 62
     4
  5
46B
 10
49190.014503
 20
13016.981057
 30
0.0
 11
49168.401443
 21
13016.981057
 31
0.0
  0
LINE
  8
12
  6
CONTINUOUS
 62
     4
  5
46C
 10
49255.901443
 20
13009.373317
 30
0.0
 11
49255.901443
 21
13016.981057
 31
0.0
  0
LINE
  8
12
  6
CONTINUOUS
 62
     4
  5
46D
 10
49235.052083
 20
13003.992837
 30
0.0
 11
49235.052083
 21
13003.963297
 31
0.0
  0
LINE
  8
12
  6
CONTINUOUS
 62
     4
  5
46E
 10
49236.770023
 20
13004.436077
 30
0.0
 11
49236.770023
 21
13016.981057
 31
0.0
  0
LINE
  8
12
  6
CONTINUOUS
 62
     4
  5
46F
 10
49235.058243
 20
13004.088317
 30
0.0
 11
49236.682943
 21
13017.086337
 31
0.0
  0
LINE
  8
12
  6
CONTINUOUS
 62
     4
  5
470
 10
49191.732303
 20
13003.887417
 30
0.0
 11
49191.732303
 21
13003.857947
 31
0.0
  0
LINE
  8
12
  6
CONTINUOUS
 62
     4
  5
471
 10
49190.014503
 20
13004.330727
 30
0.0
 11
49190.014503
 21
13016.875777
 31
0.0
  0
LINE
  8
12
  6
CONTINUOUS
 62
     4
  5
472
 10
49191.726143
 20
13003.983037
 30
0.0
 11
49190.101443
 21
13016.981057
 31
0.0
  0
LINE
  8
12
  6
CONTINUOUS
 62
     4
  5
473
 10
49236.669783
 20
13016.981057
 30
0.0
 11
49255.901443
 21
13016.981057
 31
0.0
  0
LINE
  8
12
  6
CONTINUOUS
 62
     4
  5
474
 10
49236.669783
 20
13015.981037
 30
0.0
 11
49255.901443
 21
13015.981037
 31
0.0
  0
LINE
  8
12
  6
CONTINUOUS
 62
     4
  5
475
 10
49190.014503
 20
13015.981037
 30
0.0
 11
49168.401443
 21
13015.981037
 31
0.0
  0
LINE
  8
12
  6
CONTINUOUS
 62
     4
  5
476
 10
49239.462363
 20
13015.981037
 30
0.0
 11
49247.962323
 21
13015.981037
 31
0.0
  0
LINE
  8
12
  6
CONTINUOUS
 62
     4
  5
477
 10
49247.962323
 20
13015.981037
 30
0.0
 11
49247.962323
 21
13012.981047
 31
0.0
  0
LINE
  8
12
  6
CONTINUOUS
 62
     4
  5
478
 10
49239.462363
 20
13015.981037
 30
0.0
 11
49239.462363
 21
13012.981047
 31
0.0
  0
LINE
  8
12
  6
CONTINUOUS
 62
     4
  5
479
 10
49239.462363
 20
13012.981047
 30
0.0
 11
49239.462363
 21
13015.981037
 31
0.0
  0
LINE
  8
12
  6
CONTINUOUS
 62
     4
  5
47A
 10
49247.962323
 20
13012.981047
 30
0.0
 11
49247.962323
 21
13015.981037
 31
0.0
  0
LINE
  8
12
  6
CONTINUOUS
 62
     4
  5
47B
 10
49247.962323
 20
13012.981047
 30
0.0
 11
49239.462363
 21
13012.981047
 31
0.0
  0
ARC
  8
12
  6
CONTINUOUS
 62
     4
  5
47C
 10
49243.712343
 20
13021.512297
 30
0.0
 40
9.53134
 50
243.51896
 51
296.48104
  0
LINE
  8
12
  6
CONTINUOUS
 62
     4
  5
47D
 10
49242.312343
 20
13015.981037
 30
0.0
 11
49242.312343
 21
13046.981027
 31
0.0
  0
LINE
  8
12
  6
CONTINUOUS
 62
     4
  5
47E
 10
49245.112343
 20
13015.981037
 30
0.0
 11
49245.112343
 21
13046.981027
 31
0.0
  0
LINE
  8
12
  6
CONTINUOUS
 62
     4
  5
47F
 10
49242.312343
 20
13046.981027
 30
0.0
 11
49245.112343
 21
13046.981027
 31
0.0
  0
LINE
  8
12
  6
CONTINUOUS
 62
     4
  5
480
 10
49243.712343
 20
13053.981027
 30
0.0
 11
49245.112343
 21
13046.981027
 31
0.0
  0
LINE
  8
12
  6
CONTINUOUS
 62
     4
  5
481
 10
49243.712343
 20
13053.981027
 30
0.0
 11
49242.312343
 21
13046.981027
 31
0.0
  0
LINE
  8
12
  6
CENTER
 62
     4
  5
482
 10
49243.712343
 20
13012.981047
 30
0.0
 11
49243.712343
 21
13053.981027
 31
0.0
  0
LINE
  8
12
  6
CENTER
 62
     4
  5
483
 10
49243.712343
 20
13053.981027
 30
0.0
 11
49243.712343
 21
13014.474007
 31
0.0
  0
LINE
  8
12
  6
CONTINUOUS
 62
     4
  5
484
 10
49178.840543
 20
13015.981037
 30
0.0
 11
49187.340643
 21
13015.981037
 31
0.0
  0
LINE
  8
12
  6
CONTINUOUS
 62
     4
  5
485
 10
49187.340643
 20
13015.981037
 30
0.0
 11
49187.340643
 21
13012.981047
 31
0.0
  0
LINE
  8
12
  6
CONTINUOUS
 62
     4
  5
486
 10
49178.840543
 20
13015.981037
 30
0.0
 11
49178.840543
 21
13012.981047
 31
0.0
  0
LINE
  8
12
  6
CONTINUOUS
 62
     4
  5
487
 10
49178.840543
 20
13012.981047
 30
0.0
 11
49178.840543
 21
13015.981037
 31
0.0
  0
LINE
  8
12
  6
CONTINUOUS
 62
     4
  5
488
 10
49187.340643
 20
13012.981047
 30
0.0
 11
49187.340643
 21
13015.981037
 31
0.0
  0
LINE
  8
12
  6
CONTINUOUS
 62
     4
  5
489
 10
49187.340643
 20
13012.981047
 30
0.0
 11
49178.840543
 21
13012.981047
 31
0.0
  0
ARC
  8
12
  6
CONTINUOUS
 62
     4
  5
48A
 10
49183.090523
 20
13021.512297
 30
0.0
 40
9.53134
 50
243.51896
 51
296.48104
  0
LINE
  8
12
  6
CONTINUOUS
 62
     4
  5
48B
 10
49181.690523
 20
13015.981037
 30
0.0
 11
49181.690523
 21
13046.981027
 31
0.0
  0
LINE
  8
12
  6
CONTINUOUS
 62
     4
  5
48C
 10
49184.490523
 20
13015.981037
 30
0.0
 11
49184.490523
 21
13046.981027
 31
0.0
  0
LINE
  8
12
  6
CONTINUOUS
 62
     4
  5
48D
 10
49181.690523
 20
13046.981027
 30
0.0
 11
49184.490523
 21
13046.981027
 31
0.0
  0
LINE
  8
12
  6
CONTINUOUS
 62
     4
  5
48E
 10
49183.090523
 20
13053.981027
 30
0.0
 11
49184.490523
 21
13046.981027
 31
0.0
  0
LINE
  8
12
  6
CONTINUOUS
 62
     4
  5
48F
 10
49183.090523
 20
13053.981027
 30
0.0
 11
49181.690523
 21
13046.981027
 31
0.0
  0
LINE
  8
12
  6
CENTER
 62
     4
  5
490
 10
49183.090523
 20
13012.981047
 30
0.0
 11
49183.090523
 21
13053.981027
 31
0.0
  0
LINE
  8
12
  6
CENTER
 62
     4
  5
491
 10
49183.090523
 20
13053.981027
 30
0.0
 11
49183.090523
 21
13014.474007
 31
0.0
  0
LINE
  8
12
  6
CONTINUOUS
 62
     4
  5
492
 10
49238.003843
 20
13016.228277
 30
0.0
 11
49249.503863
 21
13016.228277
 31
0.0
  0
LINE
  8
12
  6
CONTINUOUS
 62
     4
  5
493
 10
49238.003843
 20
13017.028167
 30
0.0
 11
49249.503863
 21
13017.028167
 31
0.0
  0
LINE
  8
12
  6
CONTINUOUS
 62
     4
  5
494
 10
49238.003843
 20
13016.228277
 30
0.0
 11
49238.003843
 21
13017.028167
 31
0.0
  0
LINE
  8
12
  6
CONTINUOUS
 62
     4
  5
495
 10
49241.003763
 20
13016.228277
 30
0.0
 11
49241.003763
 21
13017.028167
 31
0.0
  0
LINE
  8
12
  6
CONTINUOUS
 62
     4
  5
496
 10
49246.503803
 20
13016.228277
 30
0.0
 11
49246.503803
 21
13017.028167
 31
0.0
  0
LINE
  8
12
  6
CONTINUOUS
 62
     4
  5
497
 10
49249.503863
 20
13016.228277
 30
0.0
 11
49249.503863
 21
13017.028167
 31
0.0
  0
LINE
  8
12
  6
CONTINUOUS
 62
     4
  5
498
 10
49177.385663
 20
13016.228277
 30
0.0
 11
49188.885683
 21
13016.228277
 31
0.0
  0
LINE
  8
12
  6
CONTINUOUS
 62
     4
  5
499
 10
49177.385663
 20
13017.028167
 30
0.0
 11
49188.885683
 21
13017.028167
 31
0.0
  0
LINE
  8
12
  6
CONTINUOUS
 62
     4
  5
49A
 10
49177.385663
 20
13016.228277
 30
0.0
 11
49177.385663
 21
13017.028167
 31
0.0
  0
LINE
  8
12
  6
CONTINUOUS
 62
     4
  5
49B
 10
49180.385723
 20
13016.228277
 30
0.0
 11
49180.385723
 21
13017.028167
 31
0.0
  0
LINE
  8
12
  6
CONTINUOUS
 62
     4
  5
49C
 10
49185.885763
 20
13016.228277
 30
0.0
 11
49185.885763
 21
13017.028167
 31
0.0
  0
LINE
  8
12
  6
CONTINUOUS
 62
     4
  5
49D
 10
49188.885683
 20
13016.228277
 30
0.0
 11
49188.885683
 21
13017.028167
 31
0.0
  0
LINE
  8
8
  6
CONTINUOUS
 62
     4
  5
49E
 10
49196.401023
 20
13002.774417
 30
0.0
 11
49169.905463
 21
13009.611947
 31
0.0
  0
LINE
  8
8
  6
CONTINUOUS
 62
     4
  5
49F
 10
49230.213263
 20
13002.743967
 30
0.0
 11
49256.944303
 21
13009.642327
 31
0.0
  0
ARC
  8
8
  6
CONTINUOUS
 62
     4
  5
4A0
 10
49231.369243
 20
12998.945067
 30
0.0
 40
4.00008
 50
104.470294
 51
180.0
  0
LINE
  8
50
  6
CENTER
 62
     4
  5
4A1
 10
49243.753783
 20
13016.228277
 30
0.0
 11
49243.753783
 21
13018.350257
 31
0.0
  0
LINE
  8
50
  6
CENTER
 62
     4
  5
4A2
 10
49183.135743
 20
13016.228277
 30
0.0
 11
49183.135743
 21
13018.350257
 31
0.0
  0
ARC
  8
8
  6
CONTINUOUS
 62
     4
  5
4A3
 10
49195.407023
 20
12998.894177
 30
0.0
 40
4.00008
 50
360.0
 51
75.529706
  0
LINE
  8
40
  6
CONTINUOUS
 62
     4
  5
4A4
 10
49632.24061
 20
13001.981037
 30
0.0
 11
49663.06315
 21
13001.981037
 31
0.0
  0
LINE
  8
40
  6
CONTINUOUS
 62
     4
  5
4A5
 10
49669.30659
 20
13003.981007
 30
0.0
 11
49626.02559
 21
13003.981007
 31
0.0
  0
LINE
  8
40
  6
CONTINUOUS
 62
     4
  5
4A6
 10
49692.70143
 20
13021.981017
 30
0.0
 11
49692.70143
 21
13011.494107
 31
0.0
  0
LINE
  8
40
  6
CONTINUOUS
 62
     4
  5
4A7
 10
49602.70145
 20
13021.981017
 30
0.0
 11
49602.70145
 21
13011.465477
 31
0.0
  0
LINE
  8
40
  6
CONTINUOUS
 62
     4
  5
4A8
 10
49603.44751
 20
13009.981057
 30
0.0
 11
49691.91197
 21
13009.981057
 31
0.0
  0
ARC
  8
40
  6
CONTINUOUS
 62
     4
  5
4A9
 10
49690.70153
 20
13011.596797
 30
0.0
 40
2.00004
 50
284.470295
 51
360.0
  0
ARC
  8
40
  6
CONTINUOUS
 62
     4
  5
4AA
 10
49604.70317
 20
13011.553747
 30
0.0
 40
2.00004
 50
180.0
 51
255.930352
  0
LINE
  8
1
  6
CONTINUOUS
 62
     4
  5
4AB
 10
49680.01239
 20
13029.167077
 30
0.0
 11
49676.01231
 21
13029.862107
 31
0.0
  0
LINE
  8
1
  6
CONTINUOUS
 62
     4
  5
4AC
 10
49680.01239
 20
13032.203397
 30
0.0
 11
49676.01231
 21
13032.912637
 31
0.0
  0
LINE
  8
1
  6
CONTINUOUS
 62
     4
  5
4AD
 10
49680.01239
 20
13035.256517
 30
0.0
 11
49676.01231
 21
13035.965757
 31
0.0
  0
LINE
  8
1
  6
CONTINUOUS
 62
     4
  5
4AE
 10
49680.01239
 20
13038.309637
 30
0.0
 11
49676.01231
 21
13039.018807
 31
0.0
  0
LINE
  8
1
  6
CONTINUOUS
 62
     4
  5
4AF
 10
49680.01239
 20
13041.360097
 30
0.0
 11
49676.01231
 21
13042.055057
 31
0.0
  0
LINE
  8
1
  6
CONTINUOUS
 62
     4
  5
4B0
 10
49680.01239
 20
13044.396207
 30
0.0
 11
49676.01231
 21
13045.105447
 31
0.0
  0
LINE
  8
1
  6
CONTINUOUS
 62
     4
  5
4B1
 10
49676.40753
 20
13028.271917
 30
0.0
 11
49679.61717
 21
13027.704287
 31
0.0
  0
LINE
  8
1
  6
CONTINUOUS
 62
     4
  5
4B2
 10
49676.40753
 20
13031.305367
 30
0.0
 11
49679.61717
 21
13030.737807
 31
0.0
  0
LINE
  8
1
  6
CONTINUOUS
 62
     4
  5
4B3
 10
49676.40753
 20
13034.358487
 30
0.0
 11
49679.61717
 21
13033.790927
 31
0.0
  0
LINE
  8
1
  6
CONTINUOUS
 62
     4
  5
4B4
 10
49676.40753
 20
13037.411607
 30
0.0
 11
49679.61717
 21
13036.844117
 31
0.0
  0
LINE
  8
1
  6
CONTINUOUS
 62
     4
  5
4B5
 10
49676.40753
 20
13040.464797
 30
0.0
 11
49679.61717
 21
13039.897237
 31
0.0
  0
LINE
  8
1
  6
CONTINUOUS
 62
     4
  5
4B6
 10
49676.40753
 20
13043.498317
 30
0.0
 11
49679.61717
 21
13042.930757
 31
0.0
  0
LINE
  8
1
  6
CONTINUOUS
 62
     4
  5
4B7
 10
49676.40753
 20
13046.551437
 30
0.0
 11
49679.61717
 21
13045.983807
 31
0.0
  0
LINE
  8
1
  6
CONTINUOUS
 62
     4
  5
4B8
 10
49680.01239
 20
13026.115707
 30
0.0
 11
49676.01231
 21
13026.819907
 31
0.0
  0
LINE
  8
1
  6
CONTINUOUS
 62
     4
  5
4B9
 10
49678.01235
 20
13015.981037
 30
0.0
 11
49682.26233
 21
13015.981037
 31
0.0
  0
LINE
  8
1
  6
CONTINUOUS
 62
     4
  5
4BA
 10
49680.01239
 20
13020.069177
 30
0.0
 11
49676.01231
 21
13020.778417
 31
0.0
  0
LINE
  8
1
  6
CONTINUOUS
 62
     4
  5
4BB
 10
49680.01239
 20
13023.083027
 30
0.0
 11
49676.01231
 21
13023.792267
 31
0.0
  0
LINE
  8
1
  6
CONTINUOUS
 62
     4
  5
4BC
 10
49676.40753
 20
13019.190747
 30
0.0
 11
49679.61717
 21
13018.623187
 31
0.0
  0
LINE
  8
1
  6
CONTINUOUS
 62
     4
  5
4BD
 10
49676.40753
 20
13022.204667
 30
0.0
 11
49679.61717
 21
13021.637107
 31
0.0
  0
LINE
  8
1
  6
CONTINUOUS
 62
     4
  5
4BE
 10
49676.40753
 20
13025.238257
 30
0.0
 11
49679.61717
 21
13024.670697
 31
0.0
  0
LINE
  8
1
  6
CONTINUOUS
 62
     4
  5
4BF
 10
49680.61537
 20
13015.981037
 30
0.0
 11
49679.41235
 21
13017.183987
 31
0.0
  0
LINE
  8
1
  6
CONTINUOUS
 62
     4
  5
4C0
 10
49680.61537
 20
13015.981037
 30
0.0
 11
49682.26233
 21
13015.981037
 31
0.0
  0
LINE
  8
1
  6
CONTINUOUS
 62
     4
  5
4C1
 10
49675.40933
 20
13015.981037
 30
0.0
 11
49676.61235
 21
13017.183987
 31
0.0
  0
LINE
  8
1
  6
CONTINUOUS
 62
     4
  5
4C2
 10
49675.40933
 20
13015.981037
 30
0.0
 11
49673.76237
 21
13015.981037
 31
0.0
  0
LINE
  8
1
  6
CONTINUOUS
 62
     4
  5
4C3
 10
49676.40753
 20
13017.664187
 30
0.0
 11
49679.61717
 21
13017.096697
 31
0.0
  0
LINE
  8
1
  6
CONTINUOUS
 62
     4
  5
4C4
 10
49678.61911
 20
13012.489997
 30
0.0
 11
49677.40559
 21
13012.489997
 31
0.0
  0
LINE
  8
1
  6
CONTINUOUS
 62
     4
  5
4C5
 10
49678.61911
 20
13011.981027
 30
0.0
 11
49678.61911
 21
13012.489997
 31
0.0
  0
LINE
  8
1
  6
CONTINUOUS
 62
     4
  5
4C6
 10
49677.40559
 20
13011.981027
 30
0.0
 11
49677.40559
 21
13012.489997
 31
0.0
  0
LINE
  8
1
  6
CONTINUOUS
 62
     4
  5
4C7
 10
49678.61911
 20
13011.981027
 30
0.0
 11
49677.40559
 21
13011.981027
 31
0.0
  0
LINE
  8
1
  6
CONTINUOUS
 62
     4
  5
4C8
 10
49680.01239
 20
13047.449327
 30
0.0
 11
49676.01231
 21
13048.158567
 31
0.0
  0
LINE
  8
1
  6
CONTINUOUS
 62
     4
  5
4C9
 10
49676.62103
 20
13051.103747
 30
0.0
 11
49679.50601
 21
13050.592187
 31
0.0
  0
LINE
  8
1
  6
CONTINUOUS
 62
     4
  5
4CA
 10
49676.40753
 20
13049.604487
 30
0.0
 11
49679.61717
 21
13049.036927
 31
0.0
  0
LINE
  8
1
  6
CONTINUOUS
 62
     4
  5
4CB
 10
49676.91391
 20
13052.568007
 30
0.0
 11
49679.19129
 21
13052.165367
 31
0.0
  0
LINE
  8
1
  6
CONTINUOUS
 62
     4
  5
4CC
 10
49619.39057
 20
13029.167077
 30
0.0
 11
49615.39063
 21
13029.862107
 31
0.0
  0
LINE
  8
1
  6
CONTINUOUS
 62
     4
  5
4CD
 10
49619.39057
 20
13032.203397
 30
0.0
 11
49615.39063
 21
13032.912637
 31
0.0
  0
LINE
  8
1
  6
CONTINUOUS
 62
     4
  5
4CE
 10
49619.39057
 20
13035.256517
 30
0.0
 11
49615.39063
 21
13035.965757
 31
0.0
  0
LINE
  8
1
  6
CONTINUOUS
 62
     4
  5
4CF
 10
49619.39057
 20
13038.309637
 30
0.0
 11
49615.39063
 21
13039.018807
 31
0.0
  0
LINE
  8
1
  6
CONTINUOUS
 62
     4
  5
4D0
 10
49619.39057
 20
13041.360097
 30
0.0
 11
49615.39063
 21
13042.055057
 31
0.0
  0
LINE
  8
1
  6
CONTINUOUS
 62
     4
  5
4D1
 10
49619.39057
 20
13044.396207
 30
0.0
 11
49615.39063
 21
13045.105447
 31
0.0
  0
LINE
  8
1
  6
CONTINUOUS
 62
     4
  5
4D2
 10
49615.78571
 20
13028.271917
 30
0.0
 11
49618.99549
 21
13027.704287
 31
0.0
  0
LINE
  8
1
  6
CONTINUOUS
 62
     4
  5
4D3
 10
49615.78571
 20
13031.305367
 30
0.0
 11
49618.99549
 21
13030.737807
 31
0.0
  0
LINE
  8
1
  6
CONTINUOUS
 62
     4
  5
4D4
 10
49615.78571
 20
13034.358487
 30
0.0
 11
49618.99549
 21
13033.790927
 31
0.0
  0
LINE
  8
1
  6
CONTINUOUS
 62
     4
  5
4D5
 10
49615.78571
 20
13037.411607
 30
0.0
 11
49618.99549
 21
13036.844117
 31
0.0
  0
LINE
  8
1
  6
CONTINUOUS
 62
     4
  5
4D6
 10
49615.78571
 20
13040.464797
 30
0.0
 11
49618.99549
 21
13039.897237
 31
0.0
  0
LINE
  8
1
  6
CONTINUOUS
 62
     4
  5
4D7
 10
49615.78571
 20
13043.498317
 30
0.0
 11
49618.99549
 21
13042.930757
 31
0.0
  0
LINE
  8
1
  6
CONTINUOUS
 62
     4
  5
4D8
 10
49615.78571
 20
13046.551437
 30
0.0
 11
49618.99549
 21
13045.983807
 31
0.0
  0
LINE
  8
1
  6
CONTINUOUS
 62
     4
  5
4D9
 10
49619.39057
 20
13026.115707
 30
0.0
 11
49615.39063
 21
13026.819907
 31
0.0
  0
LINE
  8
1
  6
CONTINUOUS
 62
     4
  5
4DA
 10
49617.39053
 20
13015.981037
 30
0.0
 11
49621.64065
 21
13015.981037
 31
0.0
  0
LINE
  8
1
  6
CONTINUOUS
 62
     4
  5
4DB
 10
49619.39057
 20
13020.069177
 30
0.0
 11
49615.39063
 21
13020.778417
 31
0.0
  0
LINE
  8
1
  6
CONTINUOUS
 62
     4
  5
4DC
 10
49619.39057
 20
13023.083027
 30
0.0
 11
49615.39063
 21
13023.792267
 31
0.0
  0
LINE
  8
1
  6
CONTINUOUS
 62
     4
  5
4DD
 10
49615.78571
 20
13019.190747
 30
0.0
 11
49618.99549
 21
13018.623187
 31
0.0
  0
LINE
  8
1
  6
CONTINUOUS
 62
     4
  5
4DE
 10
49615.78571
 20
13022.204667
 30
0.0
 11
49618.99549
 21
13021.637107
 31
0.0
  0
LINE
  8
1
  6
CONTINUOUS
 62
     4
  5
4DF
 10
49615.78571
 20
13025.238257
 30
0.0
 11
49618.99549
 21
13024.670697
 31
0.0
  0
LINE
  8
1
  6
CONTINUOUS
 62
     4
  5
4E0
 10
49619.99355
 20
13015.981037
 30
0.0
 11
49618.79053
 21
13017.183987
 31
0.0
  0
LINE
  8
1
  6
CONTINUOUS
 62
     4
  5
4E1
 10
49619.99355
 20
13015.981037
 30
0.0
 11
49621.64065
 21
13015.981037
 31
0.0
  0
LINE
  8
1
  6
CONTINUOUS
 62
     4
  5
4E2
 10
49614.78765
 20
13015.981037
 30
0.0
 11
49615.99053
 21
13017.183987
 31
0.0
  0
LINE
  8
1
  6
CONTINUOUS
 62
     4
  5
4E3
 10
49614.78765
 20
13015.981037
 30
0.0
 11
49613.14055
 21
13015.981037
 31
0.0
  0
LINE
  8
1
  6
CONTINUOUS
 62
     4
  5
4E4
 10
49615.78571
 20
13017.664187
 30
0.0
 11
49618.99549
 21
13017.096697
 31
0.0
  0
LINE
  8
1
  6
CONTINUOUS
 62
     4
  5
4E5
 10
49617.99729
 20
13012.489997
 30
0.0
 11
49616.78391
 21
13012.489997
 31
0.0
  0
LINE
  8
1
  6
CONTINUOUS
 62
     4
  5
4E6
 10
49617.99729
 20
13011.981027
 30
0.0
 11
49617.99729
 21
13012.489997
 31
0.0
  0
LINE
  8
1
  6
CONTINUOUS
 62
     4
  5
4E7
 10
49616.78391
 20
13011.981027
 30
0.0
 11
49616.78391
 21
13012.489997
 31
0.0
  0
LINE
  8
1
  6
CONTINUOUS
 62
     4
  5
4E8
 10
49617.99729
 20
13011.981027
 30
0.0
 11
49616.78391
 21
13011.981027
 31
0.0
  0
LINE
  8
1
  6
CONTINUOUS
 62
     4
  5
4E9
 10
49619.39057
 20
13047.449327
 30
0.0
 11
49615.39063
 21
13048.158567
 31
0.0
  0
LINE
  8
1
  6
CONTINUOUS
 62
     4
  5
4EA
 10
49615.99935
 20
13051.103747
 30
0.0
 11
49618.88419
 21
13050.592187
 31
0.0
  0
LINE
  8
1
  6
CONTINUOUS
 62
     4
  5
4EB
 10
49615.78571
 20
13049.604487
 30
0.0
 11
49618.99549
 21
13049.036927
 31
0.0
  0
LINE
  8
1
  6
CONTINUOUS
 62
     4
  5
4EC
 10
49616.29209
 20
13052.568007
 30
0.0
 11
49618.56961
 21
13052.165367
 31
0.0
  0
LINE
  8
40
  6
CONTINUOUS
 62
     4
  5
4ED
 10
49602.72651
 20
13021.981017
 30
0.0
 11
49602.72651
 21
13011.465477
 31
0.0
  0
LINE
  8
40
  6
CONTINUOUS
 62
     4
  5
4EE
 10
49605.22649
 20
13009.348537
 30
0.0
 11
49605.22649
 21
13016.981057
 31
0.0
  0
LINE
  8
40
  6
CONTINUOUS
 62
     4
  5
4EF
 10
49665.43153
 20
13002.981057
 30
0.0
 11
49629.90051
 21
13002.981057
 31
0.0
  0
LINE
  8
40
  6
CONTINUOUS
 62
     4
  5
4F0
 10
49661.70151
 20
13001.981037
 30
0.0
 11
49633.70151
 21
13001.981037
 31
0.0
  0
LINE
  8
40
  6
CONTINUOUS
 62
     4
  5
4F1
 10
49633.11715
 20
13000.981017
 30
0.0
 11
49662.21755
 21
13000.981017
 31
0.0
  0
LINE
  8
40
  6
CONTINUOUS
 62
     4
  5
4F2
 10
49633.55549
 20
12999.980927
 30
0.0
 11
49661.82065
 21
12999.980927
 31
0.0
  0
LINE
  8
12
  6
CONTINUOUS
 62
     4
  5
4F3
 10
49624.31451
 20
13016.981057
 30
0.0
 11
49602.70145
 21
13016.981057
 31
0.0
  0
LINE
  8
12
  6
CONTINUOUS
 62
     4
  5
4F4
 10
49690.20145
 20
13009.373317
 30
0.0
 11
49690.20145
 21
13016.981057
 31
0.0
  0
LINE
  8
12
  6
CONTINUOUS
 62
     4
  5
4F5
 10
49669.35209
 20
13003.992837
 30
0.0
 11
49669.35209
 21
13003.963297
 31
0.0
  0
LINE
  8
12
  6
CONTINUOUS
 62
     4
  5
4F6
 10
49671.07003
 20
13004.436077
 30
0.0
 11
49671.07003
 21
13016.981057
 31
0.0
  0
LINE
  8
12
  6
CONTINUOUS
 62
     4
  5
4F7
 10
49669.35825
 20
13004.088317
 30
0.0
 11
49670.98295
 21
13017.086337
 31
0.0
  0
LINE
  8
12
  6
CONTINUOUS
 62
     4
  5
4F8
 10
49626.03231
 20
13003.887417
 30
0.0
 11
49626.03231
 21
13003.857947
 31
0.0
  0
LINE
  8
12
  6
CONTINUOUS
 62
     4
  5
4F9
 10
49624.31451
 20
13004.330727
 30
0.0
 11
49624.31451
 21
13016.875777
 31
0.0
  0
LINE
  8
12
  6
CONTINUOUS
 62
     4
  5
4FA
 10
49626.02615
 20
13003.983037
 30
0.0
 11
49624.40145
 21
13016.981057
 31
0.0
  0
LINE
  8
12
  6
CONTINUOUS
 62
     4
  5
4FB
 10
49670.96979
 20
13016.981057
 30
0.0
 11
49690.20145
 21
13016.981057
 31
0.0
  0
LINE
  8
12
  6
CONTINUOUS
 62
     4
  5
4FC
 10
49670.96979
 20
13015.981037
 30
0.0
 11
49690.20145
 21
13015.981037
 31
0.0
  0
LINE
  8
12
  6
CONTINUOUS
 62
     4
  5
4FD
 10
49624.31451
 20
13015.981037
 30
0.0
 11
49602.70145
 21
13015.981037
 31
0.0
  0
LINE
  8
12
  6
CONTINUOUS
 62
     4
  5
4FE
 10
49673.76237
 20
13015.981037
 30
0.0
 11
49682.26233
 21
13015.981037
 31
0.0
  0
LINE
  8
12
  6
CONTINUOUS
 62
     4
  5
4FF
 10
49682.26233
 20
13015.981037
 30
0.0
 11
49682.26233
 21
13012.981047
 31
0.0
  0
LINE
  8
12
  6
CONTINUOUS
 62
     4
  5
500
 10
49673.76237
 20
13015.981037
 30
0.0
 11
49673.76237
 21
13012.981047
 31
0.0
  0
LINE
  8
12
  6
CONTINUOUS
 62
     4
  5
501
 10
49673.76237
 20
13012.981047
 30
0.0
 11
49673.76237
 21
13015.981037
 31
0.0
  0
LINE
  8
12
  6
CONTINUOUS
 62
     4
  5
502
 10
49682.26233
 20
13012.981047
 30
0.0
 11
49682.26233
 21
13015.981037
 31
0.0
  0
LINE
  8
12
  6
CONTINUOUS
 62
     4
  5
503
 10
49682.26233
 20
13012.981047
 30
0.0
 11
49673.76237
 21
13012.981047
 31
0.0
  0
ARC
  8
12
  6
CONTINUOUS
 62
     4
  5
504
 10
49678.01235
 20
13021.512297
 30
0.0
 40
9.53134
 50
243.51896
 51
296.48104
  0
LINE
  8
12
  6
CONTINUOUS
 62
     4
  5
505
 10
49676.61235
 20
13015.981037
 30
0.0
 11
49676.61235
 21
13046.981027
 31
0.0
  0
LINE
  8
12
  6
CONTINUOUS
 62
     4
  5
506
 10
49679.41235
 20
13015.981037
 30
0.0
 11
49679.41235
 21
13046.981027
 31
0.0
  0
LINE
  8
12
  6
CONTINUOUS
 62
     4
  5
507
 10
49676.61235
 20
13046.981027
 30
0.0
 11
49679.41235
 21
13046.981027
 31
0.0
  0
LINE
  8
12
  6
CONTINUOUS
 62
     4
  5
508
 10
49678.01235
 20
13053.981027
 30
0.0
 11
49679.41235
 21
13046.981027
 31
0.0
  0
LINE
  8
12
  6
CONTINUOUS
 62
     4
  5
509
 10
49678.01235
 20
13053.981027
 30
0.0
 11
49676.61235
 21
13046.981027
 31
0.0
  0
LINE
  8
12
  6
CENTER
 62
     4
  5
50A
 10
49678.01235
 20
13012.981047
 30
0.0
 11
49678.01235
 21
13053.981027
 31
0.0
  0
LINE
  8
12
  6
CENTER
 62
     4
  5
50B
 10
49678.01235
 20
13053.981027
 30
0.0
 11
49678.01235
 21
13014.474007
 31
0.0
  0
LINE
  8
12
  6
CONTINUOUS
 62
     4
  5
50C
 10
49613.14055
 20
13015.981037
 30
0.0
 11
49621.64065
 21
13015.981037
 31
0.0
  0
LINE
  8
12
  6
CONTINUOUS
 62
     4
  5
50D
 10
49621.64065
 20
13015.981037
 30
0.0
 11
49621.64065
 21
13012.981047
 31
0.0
  0
LINE
  8
12
  6
CONTINUOUS
 62
     4
  5
50E
 10
49613.14055
 20
13015.981037
 30
0.0
 11
49613.14055
 21
13012.981047
 31
0.0
  0
LINE
  8
12
  6
CONTINUOUS
 62
     4
  5
50F
 10
49613.14055
 20
13012.981047
 30
0.0
 11
49613.14055
 21
13015.981037
 31
0.0
  0
LINE
  8
12
  6
CONTINUOUS
 62
     4
  5
510
 10
49621.64065
 20
13012.981047
 30
0.0
 11
49621.64065
 21
13015.981037
 31
0.0
  0
LINE
  8
12
  6
CONTINUOUS
 62
     4
  5
511
 10
49621.64065
 20
13012.981047
 30
0.0
 11
49613.14055
 21
13012.981047
 31
0.0
  0
ARC
  8
12
  6
CONTINUOUS
 62
     4
  5
512
 10
49617.39053
 20
13021.512297
 30
0.0
 40
9.53134
 50
243.51896
 51
296.48104
  0
LINE
  8
12
  6
CONTINUOUS
 62
     4
  5
513
 10
49615.99053
 20
13015.981037
 30
0.0
 11
49615.99053
 21
13046.981027
 31
0.0
  0
LINE
  8
12
  6
CONTINUOUS
 62
     4
  5
514
 10
49618.79053
 20
13015.981037
 30
0.0
 11
49618.79053
 21
13046.981027
 31
0.0
  0
LINE
  8
12
  6
CONTINUOUS
 62
     4
  5
515
 10
49615.99053
 20
13046.981027
 30
0.0
 11
49618.79053
 21
13046.981027
 31
0.0
  0
LINE
  8
12
  6
CONTINUOUS
 62
     4
  5
516
 10
49617.39053
 20
13053.981027
 30
0.0
 11
49618.79053
 21
13046.981027
 31
0.0
  0
LINE
  8
12
  6
CONTINUOUS
 62
     4
  5
517
 10
49617.39053
 20
13053.981027
 30
0.0
 11
49615.99053
 21
13046.981027
 31
0.0
  0
LINE
  8
12
  6
CENTER
 62
     4
  5
518
 10
49617.39053
 20
13012.981047
 30
0.0
 11
49617.39053
 21
13053.981027
 31
0.0
  0
LINE
  8
12
  6
CENTER
 62
     4
  5
519
 10
49617.39053
 20
13053.981027
 30
0.0
 11
49617.39053
 21
13014.474007
 31
0.0
  0
LINE
  8
12
  6
CONTINUOUS
 62
     4
  5
51A
 10
49672.30385
 20
13016.228277
 30
0.0
 11
49683.80387
 21
13016.228277
 31
0.0
  0
LINE
  8
12
  6
CONTINUOUS
 62
     4
  5
51B
 10
49672.30385
 20
13017.028167
 30
0.0
 11
49683.80387
 21
13017.028167
 31
0.0
  0
LINE
  8
12
  6
CONTINUOUS
 62
     4
  5
51C
 10
49672.30385
 20
13016.228277
 30
0.0
 11
49672.30385
 21
13017.028167
 31
0.0
  0
LINE
  8
12
  6
CONTINUOUS
 62
     4
  5
51D
 10
49675.30377
 20
13016.228277
 30
0.0
 11
49675.30377
 21
13017.028167
 31
0.0
  0
LINE
  8
12
  6
CONTINUOUS
 62
     4
  5
51E
 10
49680.80381
 20
13016.228277
 30
0.0
 11
49680.80381
 21
13017.028167
 31
0.0
  0
LINE
  8
12
  6
CONTINUOUS
 62
     4
  5
51F
 10
49683.80387
 20
13016.228277
 30
0.0
 11
49683.80387
 21
13017.028167
 31
0.0
  0
LINE
  8
12
  6
CONTINUOUS
 62
     4
  5
520
 10
49611.68567
 20
13016.228277
 30
0.0
 11
49623.18569
 21
13016.228277
 31
0.0
  0
LINE
  8
12
  6
CONTINUOUS
 62
     4
  5
521
 10
49611.68567
 20
13017.028167
 30
0.0
 11
49623.18569
 21
13017.028167
 31
0.0
  0
LINE
  8
12
  6
CONTINUOUS
 62
     4
  5
522
 10
49611.68567
 20
13016.228277
 30
0.0
 11
49611.68567
 21
13017.028167
 31
0.0
  0
LINE
  8
12
  6
CONTINUOUS
 62
     4
  5
523
 10
49614.68573
 20
13016.228277
 30
0.0
 11
49614.68573
 21
13017.028167
 31
0.0
  0
LINE
  8
12
  6
CONTINUOUS
 62
     4
  5
524
 10
49620.18577
 20
13016.228277
 30
0.0
 11
49620.18577
 21
13017.028167
 31
0.0
  0
LINE
  8
12
  6
CONTINUOUS
 62
     4
  5
525
 10
49623.18569
 20
13016.228277
 30
0.0
 11
49623.18569
 21
13017.028167
 31
0.0
  0
LINE
  8
8
  6
CONTINUOUS
 62
     4
  5
526
 10
49630.70103
 20
13002.774417
 30
0.0
 11
49604.20547
 21
13009.611947
 31
0.0
  0
LINE
  8
8
  6
CONTINUOUS
 62
     4
  5
527
 10
49664.51327
 20
13002.743967
 30
0.0
 11
49691.24431
 21
13009.642327
 31
0.0
  0
ARC
  8
8
  6
CONTINUOUS
 62
     4
  5
528
 10
49665.66925
 20
12998.945067
 30
0.0
 40
4.00008
 50
104.470294
 51
180.0
  0
LINE
  8
50
  6
CENTER
 62
     4
  5
529
 10
49678.05379
 20
13016.228277
 30
0.0
 11
49678.05379
 21
13018.350257
 31
0.0
  0
LINE
  8
50
  6
CENTER
 62
     4
  5
52A
 10
49617.43575
 20
13016.228277
 30
0.0
 11
49617.43575
 21
13018.350257
 31
0.0
  0
ARC
  8
8
  6
CONTINUOUS
 62
     4
  5
52B
 10
49629.70703
 20
12998.894177
 30
0.0
 40
4.00008
 50
360.0
 51
75.529706
  0
LINE
  8
7
  6
CONTINUOUS
 62
     3
  5
52C
 10
49662.10143
 20
13007.030906
 30
0.0
 11
49662.10143
 21
12976.980697
 31
0.0
  0
LINE
  8
40
  6
DOT
 62
     3
  5
52D
 10
49640.60149
 20
12970.980717
 30
0.0
 11
49655.60151
 21
12970.980717
 31
0.0
  0
LINE
  8
40
  6
DOT
 62
     3
  5
52E
 10
49640.60149
 20
12970.980717
 30
0.0
 11
49640.60149
 21
12976.980837
 31
0.0
  0
LINE
  8
40
  6
DOT
 62
     3
  5
52F
 10
49655.60151
 20
12970.980717
 30
0.0
 11
49655.60151
 21
12976.980837
 31
0.0
  0
LINE
  8
40
  6
CONTINUOUS
 62
     4
  5
530
 10
49662.10143
 20
12976.980697
 30
0.0
 11
49662.10143
 21
12999.56503
 31
0.0
  0
LINE
  8
40
  6
CONTINUOUS
 62
     4
  5
531
 10
49634.10143
 20
12976.980697
 30
0.0
 11
49634.10143
 21
12999.56503
 31
0.0
  0
LINE
  8
40
  6
CONTINUOUS
 62
     4
  5
532
 10
49662.10143
 20
12976.980837
 30
0.0
 11
49634.10143
 21
12976.980837
 31
0.0
  0
LINE
  8
40
  6
DOT
 62
     3
  5
533
 10
49224.834843
 20
12970.980717
 30
0.0
 11
49209.834823
 21
12970.980717
 31
0.0
  0
LINE
  8
40
  6
DOT
 62
     3
  5
534
 10
49224.834843
 20
12970.980717
 30
0.0
 11
49224.834843
 21
12976.980837
 31
0.0
  0
LINE
  8
40
  6
DOT
 62
     3
  5
535
 10
49209.834823
 20
12970.980717
 30
0.0
 11
49209.834823
 21
12976.980837
 31
0.0
  0
LINE
  8
40
  6
CONTINUOUS
 62
     4
  5
536
 10
49231.334903
 20
12976.980697
 30
0.0
 11
49231.334903
 21
12999.56503
 31
0.0
  0
LINE
  8
7
  6
CONTINUOUS
 62
     4
  5
537
 10
49203.334903
 20
13007.030906
 30
0.0
 11
49203.334903
 21
12976.980697
 31
0.0
  0
LINE
  8
7
  6
CONTINUOUS
 62
     4
  5
538
 10
49203.334903
 20
12951.938856
 30
0.0
 11
49662.10143
 21
12951.938856
 31
0.0
  0
ARC
  8
7
  6
CONTINUOUS
 62
     4
  5
539
 10
49203.334903
 20
12961.955592
 30
0.0
 40
10.016736
 50
180.0
 51
270.0
  0
LINE
  8
7
  6
CONTINUOUS
 62
     4
  5
53A
 10
49193.318167
 20
12961.955592
 30
0.0
 11
49193.318167
 21
12976.980697
 31
0.0
  0
LINE
  8
40
  6
CONTINUOUS
 62
     4
  5
53B
 10
49203.334903
 20
12976.980697
 30
0.0
 11
49203.334903
 21
12999.56503
 31
0.0
  0
LINE
  8
40
  6
CONTINUOUS
 62
     4
  5
53C
 10
49203.334903
 20
12976.980837
 30
0.0
 11
49231.334903
 21
12976.980837
 31
0.0
  0
LINE
  8
7
  6
CONTINUOUS
 62
     4
  5
53D
 10
49672.118167
 20
12961.955592
 30
0.0
 11
49672.118167
 21
12976.980697
 31
0.0
  0
LINE
  8
7
  6
CONTINUOUS
 62
     4
  5
53E
 10
49193.318167
 20
12976.980697
 30
0.0
 11
49672.118167
 21
12976.980697
 31
0.0
  0
ARC
  8
7
  6
CONTINUOUS
 62
     4
  5
53F
 10
49662.10143
 20
12961.955592
 30
0.0
 40
10.016736
 50
270.0
 51
360.0
  0
LINE
  8
5
  6
CONTINUOUS
 62
     3
  5
540
 10
49415.293891
 20
12801.938856
 30
0.0
 11
49005.293891
 21
12801.938856
 31
0.0
  0
LINE
  8
5
  6
CONTINUOUS
 62
     3
  5
541
 10
49501.896431
 20
12951.938856
 30
0.0
 11
49415.293891
 21
12801.938856
 31
0.0
  0
TEXT
  8
5
  6
CONTINUOUS
 62
     3
  5
542
 10
49031.475071
 20
12801.938856
 30
0.0
 40
60.0
  1
テスリックス
 41
0.837
  7

 72
     5
 11
49391.475071
 21
12801.938856
 31
0.0
  0
LINE
  8
2
  6
CONTINUOUS
 62
     2
  5
543
 10
48091.76319
 20
12967.981027
 30
0.0
 11
48471.763122
 21
12967.981027
 31
0.0
  0
LINE
  8
5
  6
CONTINUOUS
 62
     6
  5
544
 10
48475.328031
 20
12967.981027
 30
0.0
 11
48088.198281
 21
12967.981027
 31
0.0
  0
LINE
  8
5
  6
CONTINUOUS
 62
     6
  5
545
 10
48236.478371
 20
12813.100847
 30
0.0
 11
48230.732001
 21
12799.566487
 31
0.0
  0
LINE
  8
5
  6
CONTINUOUS
 62
     6
  5
546
 10
48327.047941
 20
12813.100847
 30
0.0
 11
48332.794381
 21
12799.566487
 31
0.0
  0
LINE
  8
5
  6
CONTINUOUS
 62
     6
  5
547
 10
48334.554321
 20
12813.100847
 30
0.0
 11
48229.236031
 21
12813.100847
 31
0.0
  0
LINE
  8
5
  6
CONTINUOUS
 62
     6
  5
548
 10
48475.354281
 20
12971.500907
 30
0.0
 11
48088.171961
 21
12971.500907
 31
0.0
  0
ARC
  8
5
  6
CONTINUOUS
 62
     6
  5
549
 10
48185.130361
 20
12782.899347
 30
0.0
 40
91.42322
 50
335.52
 51
19.279999
  0
ARC
  8
5
  6
CONTINUOUS
 62
     6
  5
54A
 10
48376.864771
 20
12782.837747
 30
0.0
 40
89.9976
 50
160.34
 51
204.84
  0
ARC
  8
5
  6
CONTINUOUS
 62
     6
  5
54B
 10
48463.148801
 20
12826.133727
 30
0.0
 40
3.5112
 50
262.12
 51
353.609998
  0
ARC
  8
5
  6
CONTINUOUS
 62
     6
  5
54C
 10
48100.377581
 20
12826.133727
 30
0.0
 40
3.5112
 50
186.39
 51
277.9
  0
ARC
  8
5
  6
CONTINUOUS
 62
     6
  5
54D
 10
48312.554301
 20
12839.500927
 30
0.0
 40
167.19122
 50
196.72
 51
224.98
  0
ARC
  8
5
  6
CONTINUOUS
 62
     6
  5
54E
 10
48420.627161
 20
12870.300927
 30
0.0
 40
263.99128
 50
195.76
 51
227.94
  0
ARC
  8
5
  6
CONTINUOUS
 62
     6
  5
54F
 10
48250.963121
 20
12839.500927
 30
0.0
 40
167.20004
 50
315.01
 51
343.27
  0
ARC
  8
5
  6
CONTINUOUS
 62
     6
  5
550
 10
48142.899081
 20
12870.300927
 30
0.0
 40
264.0001
 50
312.05
 51
344.229998
  0
ARC
  8
5
  6
CONTINUOUS
 62
     6
  5
551
 10
48281.763121
 20
12777.900927
 30
0.0
 40
55.44
 50
156.989998
 51
23.0
  0
LINE
  8
5
  6
CONTINUOUS
 62
     6
  5
552
 10
48194.300011
 20
12721.316847
 30
0.0
 11
48266.838281
 21
12653.988047
 31
0.0
  0
LINE
  8
5
  6
CONTINUOUS
 62
     6
  5
553
 10
48296.687961
 20
12653.988047
 30
0.0
 11
48369.226371
 21
12721.316847
 31
0.0
  0
ARC
  8
5
  6
CONTINUOUS
 62
     6
  5
554
 10
48281.763121
 20
12671.332927
 30
0.0
 40
22.88006
 50
229.28
 51
310.72
  0
ARC
  8
5
  6
CONTINUOUS
 62
     6
  5
555
 10
48117.599191
 20
12779.660867
 30
0.0
 40
10.56006
 50
199.97
 51
310.74
  0
ARC
  8
5
  6
CONTINUOUS
 62
     6
  5
556
 10
48239.400031
 20
12638.368107
 30
0.0
 40
176.00002
 50
103.72
 51
130.759999
  0
ARC
  8
5
  6
CONTINUOUS
 62
     6
  5
557
 10
48102.155231
 20
12818.389767
 30
0.0
 40
4.39124
 50
97.81
 51
186.7
  0
ARC
  8
5
  6
CONTINUOUS
 62
     6
  5
558
 10
48324.117671
 20
12638.368107
 30
0.0
 40
175.9912
 50
49.23
 51
76.27
  0
ARC
  8
5
  6
CONTINUOUS
 62
     6
  5
559
 10
48334.554321
 20
12681.109687
 30
0.0
 40
131.99998
 50
76.27
 51
90.0
  0
ARC
  8
5
  6
CONTINUOUS
 62
     6
  5
55A
 10
48461.371151
 20
12818.389767
 30
0.0
 40
4.40006
 50
353.37
 51
82.16
  0
LINE
  8
5
  6
CONTINUOUS
 62
     6
  5
55B
 10
48465.709541
 20
12817.553687
 30
0.0
 11
48475.354281
 21
12971.500907
 31
0.0
  0
ARC
  8
5
  6
CONTINUOUS
 62
     6
  5
55C
 10
48445.927121
 20
12779.660867
 30
0.0
 40
10.56006
 50
229.23
 51
340.02
  0
ARC
  8
5
  6
CONTINUOUS
 62
     6
  5
55D
 10
48282.176681
 20
12839.201747
 30
0.0
 40
184.8
 50
317.46
 51
353.27
  0
LINE
  8
5
  6
CONTINUOUS
 62
     6
  5
55E
 10
48088.171961
 20
12971.509727
 30
0.0
 11
48097.816701
 21
12817.553687
 31
0.0
  0
ARC
  8
5
  6
CONTINUOUS
 62
     6
  5
55F
 10
48281.349631
 20
12839.201747
 30
0.0
 40
184.79118
 50
186.72
 51
222.53
  0
LINE
  8
5
  6
CONTINUOUS
 62
     6
  5
560
 10
48461.969651
 20
12822.745727
 30
0.0
 11
48101.556871
 21
12822.745727
 31
0.0
  0
ARC
  8
5
  6
CONTINUOUS
 62
     6
  5
561
 10
48228.963171
 20
12681.109687
 30
0.0
 40
131.99998
 50
90.0
 51
103.72
  0
LINE
  8
5
  6
CONTINUOUS
 62
     6
  5
562
 10
48359.572741
 20
12664.301707
 30
0.0
 11
48426.091991
 21
12740.976067
 31
0.0
  0
LINE
  8
5
  6
CONTINUOUS
 62
     6
  5
563
 10
48137.434321
 20
12740.976067
 30
0.0
 11
48203.953501
 21
12664.301707
 31
0.0
  0
ARC
  8
5
  6
CONTINUOUS
 62
     6
  5
564
 10
48282.176681
 20
12839.201747
 30
0.0
 40
174.23126
 50
325.68
 51
336.539998
  0
ARC
  8
5
  6
CONTINUOUS
 62
     6
  5
565
 10
48281.349631
 20
12839.201747
 30
0.0
 40
174.23126
 50
203.45
 51
214.31
  0
LINE
  8
5
  6
CONTINUOUS
 62
     6
  5
566
 10
48203.953501
 20
12664.301707
 30
0.0
 11
48264.171981
 21
12614.009647
 31
0.0
  0
LINE
  8
5
  6
CONTINUOUS
 62
     6
  5
567
 10
48299.354401
 20
12614.009647
 30
0.0
 11
48359.572741
 21
12664.301707
 31
0.0
  0
LINE
  8
5
  6
CONTINUOUS
 62
     6
  5
568
 10
48303.085541
 20
12609.108107
 30
0.0
 11
48418.347961
 21
12714.259307
 31
0.0
  0
LINE
  8
5
  6
CONTINUOUS
 62
     6
  5
569
 10
48145.178281
 20
12714.268127
 30
0.0
 11
48260.440701
 21
12609.108107
 31
0.0
  0
ARC
  8
5
  6
CONTINUOUS
 62
     6
  5
56A
 10
48281.763121
 20
12637.109647
 30
0.0
 40
35.19124
 50
230.35
 51
307.97
  0
ARC
  8
5
  6
CONTINUOUS
 62
     6
  5
56B
 10
48281.763121
 20
12637.109647
 30
0.0
 40
29.03124
 50
230.35
 51
307.97
  0
LINE
  8
5
  6
CENTER
 62
     3
  5
56C
 10
50235.762807
 20
11821.981232
 30
0.0
 11
50235.762807
 21
13111.981001
 31
0.0
  0
LINE
  8
5
  6
CENTER
 62
     3
  5
56D
 10
48635.763093
 20
12559.9811
 30
0.0
 11
48635.763093
 21
13111.981001
 31
0.0
  0
LINE
  8
5
  6
CENTER
 62
     3
  5
56E
 10
50398.762778
 20
13066.981009
 30
0.0
 11
46983.763388
 21
13066.981009
 31
0.0
  0
LINE
  8
5
  6
CENTER
 62
     3
  5
56F
 10
50398.762778
 20
11866.981223
 30
0.0
 11
46983.763388
 21
11866.981223
 31
0.0
  0
LINE
  8
5
  6
CONTINUOUS
 62
     3
  5
570
 10
50235.762807
 20
13341.981001
 30
0.0
 11
50235.762807
 21
13141.981001
 31
0.0
  0
LINE
  8
5
  6
CONTINUOUS
 62
     3
  5
571
 10
48635.763093
 20
13241.981001
 30
0.0
 11
48635.763093
 21
13141.981001
 31
0.0
  0
CIRCLE
  8
5
  6
CONTINUOUS
 62
     3
  5
572
 10
50235.762807
 20
13341.981001
 30
0.0
 40
7.5
  0
CIRCLE
  8
5
  6
CONTINUOUS
 62
     3
  5
573
 10
48635.763093
 20
13241.981001
 30
0.0
 40
7.5
  0
CIRCLE
  8
5
  6
CONTINUOUS
 62
     3
  5
574
 10
50235.762807
 20
13241.981001
 30
0.0
 40
7.5
  0
TEXT
  8
5
  6
CONTINUOUS
 62
     3
  5
575
 10
49345.76295
 20
13241.981001
 30
0.0
 40
60.0
  1
1,600
 41
0.6
  7

 72
     5
 11
49525.76295
 21
13241.981001
 31
0.0
  0
LINE
  8
5
  6
CONTINUOUS
 62
     3
  5
576
 10
48635.763093
 20
13241.981001
 30
0.0
 11
50235.762807
 21
13241.981001
 31
0.0
  0
LINE
  8
5
  6
CONTINUOUS
 62
     3
  5
577
 10
50628.762778
 20
11866.981223
 30
0.0
 11
50428.762778
 21
11866.981223
 31
0.0
  0
CIRCLE
  8
5
  6
CONTINUOUS
 62
     3
  5
578
 10
50628.762778
 20
13066.981009
 30
0.0
 40
7.5
  0
CIRCLE
  8
5
  6
CONTINUOUS
 62
     3
  5
579
 10
50628.762778
 20
11866.981223
 30
0.0
 40
7.5
  0
CIRCLE
  8
5
  6
CONTINUOUS
 62
     3
  5
57A
 10
50528.762778
 20
11866.981223
 30
0.0
 40
7.5
  0
CIRCLE
  8
5
  6
CONTINUOUS
 62
     3
  5
57B
 10
50528.762778
 20
13066.981009
 30
0.0
 40
7.5
  0
LINE
  8
2
  6
CONTINUOUS
 62
     2
  5
57C
 10
47103.763368
 20
12113.981179
 30
0.0
 11
47103.763368
 21
12577.981096
 31
0.0
  0
LINE
  8
2
  6
CONTINUOUS
 62
     2
  5
57D
 10
47452.763306
 20
12057.981189
 30
0.0
 11
47103.763368
 21
12113.981179
 31
0.0
  0
LINE
  8
2
  6
CONTINUOUS
 62
     2
  5
57E
 10
47103.763368
 20
12577.981096
 30
0.0
 11
47445.763307
 21
12632.981087
 31
0.0
  0
ARC
  8
2
  6
CONTINUOUS
 62
     2
  5
57F
 10
47106.763368
 20
12345.981138
 30
0.0
 40
485.999913
 50
331.46
 51
28.54
  0
ARC
  8
2
  6
CONTINUOUS
 62
     2
  5
580
 10
47390.763317
 20
12230.981158
 30
0.0
 40
183.999967
 50
289.57
 51
320.41
  0
ARC
  8
2
  6
CONTINUOUS
 62
     2
  5
581
 10
47390.763317
 20
12460.981117
 30
0.0
 40
183.999967
 50
39.59
 51
70.43
  0
CIRCLE
  8
2
  6
CONTINUOUS
 62
     2
  5
582
 10
47312.763331
 20
12345.981138
 30
0.0
 40
29.999995
  0
LINE
  8
24
  6
CONTINUOUS
 62
     4
  5
583
 10
46990.763388
 20
13111.981001
 30
0.0
 11
46990.763388
 21
11821.981232
 31
0.0
  0
LINE
  8
24
  6
CONTINUOUS
 62
     4
  5
584
 10
47080.763372
 20
13021.981017
 30
0.0
 11
47080.763372
 21
11911.981215
 31
0.0
  0
LINE
  8
5
  6
CENTER
 62
     3
  5
585
 10
47035.76338
 20
13111.981001
 30
0.0
 11
47035.76338
 21
11821.981232
 31
0.0
  0
CIRCLE
  8
5
  6
CONTINUOUS
 62
     3
  5
586
 10
47035.76338
 20
13341.981001
 30
0.0
 40
7.5
  0
CIRCLE
  8
5
  6
CONTINUOUS
 62
     3
  5
587
 10
47035.76338
 20
13241.981001
 30
0.0
 40
7.5
  0
CIRCLE
  8
5
  6
CONTINUOUS
 62
     3
  5
588
 10
50528.762778
 20
11956.981208
 30
0.0
 40
7.5
  0
CIRCLE
  8
5
  6
CONTINUOUS
 62
     3
  5
589
 10
50528.762778
 20
12526.981107
 30
0.0
 40
7.5
  0
TEXT
  8
5
  6
CONTINUOUS
 62
     3
  5
58A
 10
50528.762778
 20
12181.981158
 30
0.0
 40
60.0
  1
570
 50
90.0
 41
0.666667
  7

 72
     5
 11
50528.762778
 21
12301.981158
 31
0.0
  0
LINE
  8
5
  6
CONTINUOUS
 62
     3
  5
58B
 10
50528.762778
 20
11956.981208
 30
0.0
 11
50528.762778
 21
12526.981107
 31
0.0
  0
LINE
  8
5
  6
CONTINUOUS
 62
     3
  5
58C
 10
47035.76338
 20
13241.981001
 30
0.0
 11
48635.763093
 21
13241.981001
 31
0.0
  0
TEXT
  8
5
  6
CONTINUOUS
 62
     3
  5
58D
 10
47745.763237
 20
13241.981001
 30
0.0
 40
60.0
  1
1,600
 41
0.6
  7

 72
     5
 11
47925.763237
 21
13241.981001
 31
0.0
  0
LINE
  8
5
  6
CONTINUOUS
 62
     3
  5
58E
 10
47035.76338
 20
13341.981001
 30
0.0
 11
47035.76338
 21
13141.981001
 31
0.0
  0
LINE
  8
5
  6
CONTINUOUS
 62
     3
  5
58F
 10
47035.76338
 20
13341.981001
 30
0.0
 11
50235.762807
 21
13341.981001
 31
0.0
  0
TEXT
  8
5
  6
CONTINUOUS
 62
     3
  5
590
 10
48545.763094
 20
13341.981001
 30
0.0
 40
60.0
  1
3,200
 41
0.6
  7

 72
     5
 11
48725.763094
 21
13341.981001
 31
0.0
  0
LINE
  8
5
  6
CONTINUOUS
 62
     3
  5
591
 10
50528.762778
 20
12526.981107
 30
0.0
 11
50528.762778
 21
13066.981009
 31
0.0
  0
LINE
  8
5
  6
CONTINUOUS
 62
     3
  5
592
 10
50528.762778
 20
12526.981107
 30
0.0
 11
50428.762778
 21
12526.981107
 31
0.0
  0
TEXT
  8
5
  6
CONTINUOUS
 62
     3
  5
593
 10
50528.762778
 20
12736.981058
 30
0.0
 40
60.0
  1
540
 50
90.0
 41
0.666667
  7

 72
     5
 11
50528.762778
 21
12856.981058
 31
0.0
  0
LINE
  8
5
  6
CONTINUOUS
 62
     3
  5
594
 10
50528.762778
 20
11866.981223
 30
0.0
 11
50528.762778
 21
11956.981208
 31
0.0
  0
LINE
  8
5
  6
CONTINUOUS
 62
     3
  5
595
 10
50528.762778
 20
11956.981208
 30
0.0
 11
50428.762778
 21
11956.981208
 31
0.0
  0
TEXT
  8
5
  6
CONTINUOUS
 62
     3
  5
596
 10
50528.762778
 20
11866.981216
 30
0.0
 40
60.0
  1
90
 50
90.0
 41
0.75
  7

 72
     5
 11
50528.762778
 21
11956.981216
 31
0.0
  0
LINE
  8
5
  6
CONTINUOUS
 62
     3
  5
597
 10
50628.762778
 20
13066.981009
 30
0.0
 11
50628.762778
 21
11866.981223
 31
0.0
  0
LINE
  8
5
  6
CONTINUOUS
 62
     3
  5
598
 10
50628.762778
 20
13066.981009
 30
0.0
 11
50428.762778
 21
13066.981009
 31
0.0
  0
TEXT
  8
5
  6
CONTINUOUS
 62
     3
  5
599
 10
50628.762778
 20
12376.981116
 30
0.0
 40
60.0
  1
1,200
 50
90.0
 41
0.6
  7

 72
     5
 11
50628.762778
 21
12556.981116
 31
0.0
  0
ENDSEC
  0
EOF
