  0
SECTION
  2
HEADER
  9
$ACADVER
  1
AC1009
  9
$INSBASE
 10
0.0
 20
0.0
 30
0.0
  9
$EXTMIN
 10
47375.363842
 20
8144.305433
 30
0.0
  9
$EXTMAX
 10
50280.699191
 20
13154.314337
 30
0.0
  9
$LIMMIN
 10
46887.147718
 20
7820.98695
  9
$LIMMAX
 10
51087.147718
 20
13760.98695
  9
$ORTHOMODE
 70
     0
  9
$REGENMODE
 70
     1
  9
$FILLMODE
 70
     1
  9
$QTEXTMODE
 70
     0
  9
$MIRRTEXT
 70
     1
  9
$DRAGMODE
 70
     2
  9
$LTSCALE
 40
20.0
  9
$OSMODE
 70
     0
  9
$ATTMODE
 70
     1
  9
$TEXTSIZE
 40
0.2
  9
$TRACEWID
 40
0.05
  9
$TEXTSTYLE
  7
STANDARD
  9
$CLAYER
  8
0
  9
$CELTYPE
  6
CONTINUOUS
  9
$CECOLOR
 62
   256
  9
$DIMSCALE
 40
1.0
  9
$DIMASZ
 40
0.18
  9
$DIMEXO
 40
0.0625
  9
$DIMDLI
 40
0.38
  9
$DIMRND
 40
0.0
  9
$DIMDLE
 40
0.0
  9
$DIMEXE
 40
0.18
  9
$DIMTP
 40
0.0
  9
$DIMTM
 40
0.0
  9
$DIMTXT
 40
0.18
  9
$DIMCEN
 40
0.09
  9
$DIMTSZ
 40
0.0
  9
$DIMTOL
 70
     0
  9
$DIMLIM
 70
     0
  9
$DIMTIH
 70
     1
  9
$DIMTOH
 70
     1
  9
$DIMSE1
 70
     0
  9
$DIMSE2
 70
     0
  9
$DIMTAD
 70
     0
  9
$DIMZIN
 70
     0
  9
$DIMBLK
  1

  9
$DIMASO
 70
     1
  9
$DIMSHO
 70
     1
  9
$DIMPOST
  1

  9
$DIMAPOST
  1

  9
$DIMALT
 70
     0
  9
$DIMALTD
 70
     2
  9
$DIMALTF
 40
25.4
  9
$DIMLFAC
 40
1.0
  9
$DIMTOFL
 70
     0
  9
$DIMTVP
 40
0.0
  9
$DIMTIX
 70
     0
  9
$DIMSOXD
 70
     0
  9
$DIMSAH
 70
     0
  9
$DIMBLK1
  1

  9
$DIMBLK2
  1

  9
$DIMSTYLE
  2
STANDARD
  9
$DIMCLRD
 70
     0
  9
$DIMCLRE
 70
     0
  9
$DIMCLRT
 70
     0
  9
$DIMTFAC
 40
1.0
  9
$DIMGAP
 40
0.09
  9
$LUNITS
 70
     2
  9
$LUPREC
 70
     4
  9
$AXISMODE
 70
     0
  9
$AXISUNIT
 10
0.0
 20
0.0
  9
$SKETCHINC
 40
0.1
  9
$FILLETRAD
 40
0.0
  9
$AUNITS
 70
     0
  9
$AUPREC
 70
     0
  9
$MENU
  1
acad
  9
$ELEVATION
 40
0.0
  9
$PELEVATION
 40
0.0
  9
$THICKNESS
 40
0.0
  9
$LIMCHECK
 70
     0
  9
$BLIPMODE
 70
     1
  9
$CHAMFERA
 40
0.0
  9
$CHAMFERB
 40
0.0
  9
$SKPOLY
 70
     0
  9
$TDCREATE
 40
0.000000000
  9
$TDUPDATE
 40
0.000000000
  9
$TDINDWG
 40
0.0000000000
  9
$TDUSRTIMER
 40
0.0000000000
  9
$USRTIMER
 70
     1
  9
$ANGBASE
 50
0.0
  9
$ANGDIR
 70
     0
  9
$PDMODE
 70
     0
  9
$PDSIZE
 40
0.0
  9
$PLINEWID
 40
0.0
  9
$COORDS
 70
     0
  9
$SPLFRAME
 70
     0
  9
$SPLINETYPE
 70
     6
  9
$SPLINESEGS
 70
     8
  9
$ATTDIA
 70
     0
  9
$ATTREQ
 70
     1
  9
$HANDLING
 70
     1
  9
$HANDSEED
  5
411
  9
$SURFTAB1
 70
     6
  9
$SURFTAB2
 70
     6
  9
$SURFTYPE
 70
     6
  9
$SURFU
 70
     6
  9
$SURFV
 70
     6
  9
$UCSNAME
  2

  9
$UCSORG
 10
0.0
 20
0.0
 30
0.0
  9
$UCSXDIR
 10
1.0
 20
0.0
 30
0.0
  9
$UCSYDIR
 10
0.0
 20
1.0
 30
0.0
  9
$PUCSNAME
  2

  9
$PUCSORG
 10
0.0
 20
0.0
 30
0.0
  9
$PUCSXDIR
 10
1.0
 20
0.0
 30
0.0
  9
$PUCSYDIR
 10
0.0
 20
1.0
 30
0.0
  9
$USERI1
 70
     0
  9
$USERI2
 70
     0
  9
$USERI3
 70
     0
  9
$USERI4
 70
     0
  9
$USERI5
 70
     0
  9
$USERR1
 40
0.0
  9
$USERR2
 40
0.0
  9
$USERR3
 40
0.0
  9
$USERR4
 40
0.0
  9
$USERR5
 40
0.0
  9
$WORLDVIEW
 70
     1
  9
$SHADEDGE
 70
     3
  9
$SHADEDIF
 70
    70
  9
$TILEMODE
 70
     1
  9
$MAXACTVP
 70
    16
  9
$PINSBASE
 10
0.0
 20
0.0
 30
0.0
  9
$PLIMCHECK
 70
     0
  9
$PEXTMIN
 10
1.000000E+20
 20
1.000000E+20
 30
1.000000E+20
  9
$PEXTMAX
 10
-1.000000E+20
 20
-1.000000E+20
 30
-1.000000E+20
  9
$PLIMMIN
 10
0.0
 20
0.0
  9
$PLIMMAX
 10
12.0
 20
9.0
  9
$UNITMODE
 70
     0
  9
$VISRETAIN
 70
     0
  9
$PLINEGEN
 70
     1
  9
$PSLTSCALE
 70
     0
  9
$TREEDEPTH
 70
  3020
  9
$DWGCODEPAGE
  3
dos932
  0
ENDSEC
  0
SECTION
  2
TABLES
  0
TABLE
  2
VPORT
 70
     1
  0
VPORT
  2
*ACTIVE
 70
     0
 10
0.0
 20
0.0
 11
1.0
 21
1.0
 12
48987.147718
 22
10790.98695
 13
0.0
 23
0.0
 14
1000.0
 24
1000.0
 15
1000.0
 25
1000.0
 16
0.0
 26
0.0
 36
1.0
 17
0.0
 27
0.0
 37
0.0
 40
5940.0
 41
0.707071
 42
50.0
 43
0.0
 44
0.0
 50
0.0
 51
0.0
 71
     0
 72
   100
 73
     1
 74
     1
 75
     0
 76
     0
 77
     0
 78
     0
  0
ENDTAB
  0
TABLE
  2
LTYPE
 70
     9
  0
LTYPE
  2
CONTINUOUS
 70
    64
  3
Solid line
 72
    65
 73
     0
 40
0.0
  0
LTYPE
  2
HIDDEN
 70
    64
  3
__ __ __ __ __ __ __ __ __ __ __ __ __ __ __ __
 72
    65
 73
     5
 40
8.0
 49
1.0
 49
-2.0
 49
2.0
 49
-2.0
 49
1.0
  0
LTYPE
  2
DOT
 70
    64
  3
. . . . . . . . . . . . . . . . . . . . . . . .
 72
    65
 73
     3
 40
1.6
 49
0.4
 49
-0.8
 49
0.4
  0
LTYPE
  2
CENTER
 70
    64
  3
____ _ ____ _ ____ _ ____ _ ____ _ ____ _ ____ 
 72
    65
 73
     5
 40
12.0
 49
5.0
 49
-0.8
 49
0.4
 49
-0.8
 49
5.0
  0
LTYPE
  2
DIVIDE
 70
    64
  3
____ . . ____ . . ____ . . ____ . . ____ . . __
 72
    65
 73
     7
 40
13.2
 49
5.0
 49
-0.8
 49
0.4
 49
-0.8
 49
0.4
 49
-0.8
 49
5.0
  0
LTYPE
  2
DASHED1
 70
     0
  3
Solid Line
 72
    65
 73
     2
 40
2.5
 49
1.25
 49
-1.25
  0
LTYPE
  2
DASHED3
 70
     0
  3
Solid Line
 72
    65
 73
     2
 40
5.0
 49
3.75
 49
-1.25
  0
LTYPE
  2
CENTER1
 70
     0
  3
Solid Line
 72
    65
 73
     4
 40
10.0
 49
6.25
 49
-1.25
 49
1.25
 49
-1.25
  0
LTYPE
  2
PHANTOM1
 70
     0
  3
Solid Line
 72
    65
 73
     6
 40
9.5
 49
3.25
 49
-1.25
 49
1.25
 49
-1.25
 49
1.25
 49
-1.25
  0
ENDTAB
  0
TABLE
  2
LAYER
 70
    23
  0
LAYER
  2
0
 70
     0
 62
     7
  6
CONTINUOUS
  0
LAYER
  2
1
 70
     0
 62
     1
  6
CONTINUOUS
  0
LAYER
  2
2
 70
     0
 62
     1
  6
CONTINUOUS
  0
LAYER
  2
3
 70
     0
 62
     1
  6
CONTINUOUS
  0
LAYER
  2
4
 70
     0
 62
     1
  6
CONTINUOUS
  0
LAYER
  2
5
 70
     0
 62
     1
  6
CONTINUOUS
  0
LAYER
  2
6
 70
     0
 62
     1
  6
CONTINUOUS
  0
LAYER
  2
7
 70
     0
 62
     1
  6
CONTINUOUS
  0
LAYER
  2
8
 70
     0
 62
     1
  6
CONTINUOUS
  0
LAYER
  2
9
 70
     0
 62
     1
  6
CONTINUOUS
  0
LAYER
  2
10
 70
     0
 62
     1
  6
CONTINUOUS
  0
LAYER
  2
11
 70
     0
 62
     1
  6
CONTINUOUS
  0
LAYER
  2
12
 70
     0
 62
     1
  6
CONTINUOUS
  0
LAYER
  2
13
 70
     0
 62
     1
  6
CONTINUOUS
  0
LAYER
  2
14
 70
     0
 62
     1
  6
CONTINUOUS
  0
LAYER
  2
15
 70
     0
 62
     1
  6
CONTINUOUS
  0
LAYER
  2
16
 70
     0
 62
     1
  6
CONTINUOUS
  0
LAYER
  2
22
 70
     0
 62
     1
  6
CONTINUOUS
  0
LAYER
  2
40
 70
     0
 62
     1
  6
CONTINUOUS
  0
LAYER
  2
50
 70
     0
 62
     1
  6
CONTINUOUS
  0
LAYER
  2
52
 70
     0
 62
     1
  6
CONTINUOUS
  0
LAYER
  2
80
 70
     0
 62
     1
  6
CONTINUOUS
  0
LAYER
  2
200
 70
     0
 62
     1
  6
CONTINUOUS
  0
ENDTAB
  0
TABLE
  2
STYLE
 70
     3
  0
STYLE
  2
STANDARD
 70
     0
 40
0.0
 41
1.0
 50
0.0
 71
     0
 42
0.0
  3
txt
  4

  0
STYLE
  2

 70
     0
 40
1000.0
 41
1.0
 50
0.0
 71
     0
 42
1000.0
  3
txt
  4
extfont
  0
STYLE
  2

 70
     0
 40
1000.0
 41
1.0
 50
0.0
 71
     0
 42
1000.0
  3
txt
  4
extfont
  0
ENDTAB
  0
TABLE
  2
VIEW
 70
     0
  0
ENDTAB
  0
TABLE
  2
UCS
 70
     0
  0
ENDTAB
  0
TABLE
  2
APPID
 70
     1
  0
APPID
  2
ACAD
 70
     0
  0
ENDTAB
  0
TABLE
  2
DIMSTYLE
 70
     1
  0
DIMSTYLE
  2
STANDARD
 70
     0
  3

  4

  5

  6

  7

 40
1.0
 41
0.18
 42
0.0625
 43
0.38
 44
0.18
 45
0.0
 46
0.0
 47
0.0
 48
0.0
 71
     0
 72
     0
 73
     1
 74
     1
 75
     0
 76
     0
 77
     0
 78
     0
140
0.18
141
0.09
142
0.0
143
25.4
144
1.0
145
0.0
146
1.0
147
0.09
170
     0
171
     2
172
     0
173
     0
174
     0
175
     0
176
     0
177
     0
178
     0
  0
ENDTAB
  0
ENDSEC
  0
SECTION
  2
BLOCKS
  0
ENDSEC
  0
SECTION
  2
ENTITIES
  0
LINE
  8
2
  6
CONTINUOUS
 62
     2
  5
102
 10
49933.199191
 20
12206.219453
 30
0.0
 11
49933.199191
 21
12626.219453
 31
0.0
  0
LINE
  8
3
  6
CONTINUOUS
 62
     1
  5
103
 10
49883.199191
 20
12439.314337
 30
0.0
 11
50083.199191
 21
12439.314337
 31
0.0
  0
LINE
  8
0
  6
CENTER
 62
     3
  5
104
 10
49983.199191
 20
12964.314337
 30
0.0
 11
49983.199191
 21
11914.314337
 31
0.0
  0
LINE
  8
0
  6
CENTER
 62
     3
  5
105
 10
48133.199191
 20
12964.314337
 30
0.0
 11
48133.199191
 21
11914.314337
 31
0.0
  0
LINE
  8
3
  6
CONTINUOUS
 62
     3
  5
106
 10
48115.363842
 20
12139.314337
 30
0.0
 11
48115.363842
 21
12839.314337
 31
0.0
  0
LINE
  8
1
  6
CONTINUOUS
 62
     4
  5
107
 10
50043.199191
 20
12039.314337
 30
0.0
 11
49923.199191
 21
12039.314337
 31
0.0
  0
LINE
  8
1
  6
CONTINUOUS
 62
     4
  5
108
 10
50043.199191
 20
12839.314337
 30
0.0
 11
49923.199191
 21
12839.314337
 31
0.0
  0
LINE
  8
3
  6
CONTINUOUS
 62
     1
  5
109
 10
50003.199191
 20
12399.314337
 30
0.0
 11
50003.199191
 21
12839.314337
 31
0.0
  0
LINE
  8
3
  6
CONTINUOUS
 62
     1
  5
10A
 10
49963.199191
 20
12479.314337
 30
0.0
 11
49963.199191
 21
12039.314337
 31
0.0
  0
LINE
  8
3
  6
CONTINUOUS
 62
     1
  5
10B
 10
50033.199191
 20
12839.314337
 30
0.0
 11
50033.199191
 21
12039.314337
 31
0.0
  0
LINE
  8
1
  6
CONTINUOUS
 62
     4
  5
10C
 10
48083.199191
 20
12839.314337
 30
0.0
 11
48185.363842
 21
12839.314337
 31
0.0
  0
LINE
  8
1
  6
CONTINUOUS
 62
     4
  5
10D
 10
48183.199191
 20
12139.314337
 30
0.0
 11
48085.363842
 21
12139.314337
 31
0.0
  0
LINE
  8
1
  6
CONTINUOUS
 62
     4
  5
10E
 10
49923.199191
 20
12014.314337
 30
0.0
 11
49923.199191
 21
12039.314337
 31
0.0
  0
LINE
  8
1
  6
CONTINUOUS
 62
     4
  5
10F
 10
50043.199191
 20
11914.314337
 30
0.0
 11
50043.199191
 21
12039.314337
 31
0.0
  0
LINE
  8
1
  6
CONTINUOUS
 62
     4
  5
110
 10
50043.199191
 20
12839.314337
 30
0.0
 11
50043.199191
 21
12964.314337
 31
0.0
  0
LINE
  8
1
  6
CONTINUOUS
 62
     4
  5
111
 10
48183.199191
 20
12014.314337
 30
0.0
 11
48183.199191
 21
12139.314337
 31
0.0
  0
LINE
  8
1
  6
CONTINUOUS
 62
     4
  5
112
 10
49923.199191
 20
12014.314337
 30
0.0
 11
48183.199191
 21
12014.314337
 31
0.0
  0
LINE
  8
1
  6
CONTINUOUS
 62
     4
  5
113
 10
48085.363842
 20
11914.314337
 30
0.0
 11
48085.363842
 21
12139.314337
 31
0.0
  0
LINE
  8
1
  6
CONTINUOUS
 62
     4
  5
114
 10
50043.199191
 20
11914.314337
 30
0.0
 11
48085.363842
 21
11914.314337
 31
0.0
  0
LINE
  8
1
  6
CONTINUOUS
 62
     4
  5
115
 10
48083.199191
 20
12839.314337
 30
0.0
 11
48083.199191
 21
12964.314337
 31
0.0
  0
LINE
  8
1
  6
CONTINUOUS
 62
     4
  5
116
 10
50043.199191
 20
12964.314337
 30
0.0
 11
48083.199191
 21
12964.314337
 31
0.0
  0
LINE
  8
0
  6
CENTER
 62
     3
  5
117
 10
48085.363842
 20
11964.314337
 30
0.0
 11
50043.199191
 21
11964.314337
 31
0.0
  0
LINE
  8
0
  6
CENTER
 62
     3
  5
118
 10
48083.199191
 20
12914.314337
 30
0.0
 11
50043.199191
 21
12914.314337
 31
0.0
  0
LINE
  8
5
  6
CONTINUOUS
 62
     3
  5
119
 10
48133.199191
 20
13094.314337
 30
0.0
 11
48133.199191
 21
12994.314337
 31
0.0
  0
LINE
  8
5
  6
CONTINUOUS
 62
     3
  5
11A
 10
49983.199191
 20
13094.314337
 30
0.0
 11
49983.199191
 21
12994.314337
 31
0.0
  0
CIRCLE
  8
5
  6
CONTINUOUS
 62
     3
  5
11B
 10
48133.199191
 20
13094.314337
 30
0.0
 40
7.5
  0
CIRCLE
  8
5
  6
CONTINUOUS
 62
     3
  5
11C
 10
49983.199191
 20
13094.314337
 30
0.0
 40
7.5
  0
TEXT
  8
5
  6
CONTINUOUS
 62
     3
  5
11D
 10
48968.199191
 20
13094.314337
 30
0.0
 40
60.0
  1
1,850
 41
0.6
  7

 72
     5
 11
49148.199191
 21
13094.314337
 31
0.0
  0
LINE
  8
5
  6
CONTINUOUS
 62
     3
  5
11E
 10
48133.199191
 20
13094.314337
 30
0.0
 11
49983.199191
 21
13094.314337
 31
0.0
  0
LINE
  8
5
  6
CONTINUOUS
 62
     3
  5
11F
 10
50273.199191
 20
12914.314337
 30
0.0
 11
50073.199191
 21
12914.314337
 31
0.0
  0
LINE
  8
5
  6
CONTINUOUS
 62
     3
  5
120
 10
50273.199191
 20
11964.314337
 30
0.0
 11
50073.199191
 21
11964.314337
 31
0.0
  0
LINE
  8
5
  6
CONTINUOUS
 62
     3
  5
121
 10
50173.199191
 20
12039.314337
 30
0.0
 11
50073.199191
 21
12039.314337
 31
0.0
  0
LINE
  8
5
  6
CONTINUOUS
 62
     3
  5
122
 10
50173.199191
 20
12839.314337
 30
0.0
 11
50073.199191
 21
12839.314337
 31
0.0
  0
CIRCLE
  8
5
  6
CONTINUOUS
 62
     3
  5
123
 10
50273.199191
 20
12914.314337
 30
0.0
 40
7.5
  0
CIRCLE
  8
5
  6
CONTINUOUS
 62
     3
  5
124
 10
50273.199191
 20
11964.314337
 30
0.0
 40
7.5
  0
CIRCLE
  8
5
  6
CONTINUOUS
 62
     3
  5
125
 10
50173.199191
 20
11964.314337
 30
0.0
 40
7.5
  0
CIRCLE
  8
5
  6
CONTINUOUS
 62
     3
  5
126
 10
50173.199191
 20
12039.314337
 30
0.0
 40
7.5
  0
CIRCLE
  8
5
  6
CONTINUOUS
 62
     3
  5
127
 10
50173.199191
 20
12839.314337
 30
0.0
 40
7.5
  0
CIRCLE
  8
5
  6
CONTINUOUS
 62
     3
  5
128
 10
50173.199191
 20
12914.314337
 30
0.0
 40
7.5
  0
TEXT
  8
5
  6
CONTINUOUS
 62
     3
  5
129
 10
50273.199191
 20
12379.314337
 30
0.0
 40
60.0
  1
950
 50
90.0
 41
0.666667
  7

 72
     5
 11
50273.199191
 21
12499.314337
 31
0.0
  0
LINE
  8
5
  6
CONTINUOUS
 62
     3
  5
12A
 10
50273.199191
 20
12914.314337
 30
0.0
 11
50273.199191
 21
11964.314337
 31
0.0
  0
TEXT
  8
5
  6
CONTINUOUS
 62
     3
  5
12B
 10
50173.199191
 20
11956.814337
 30
0.0
 40
60.0
  1
75
 50
90.0
 41
0.75
  7

 72
     5
 11
50173.199191
 21
12046.814337
 31
0.0
  0
LINE
  8
5
  6
CONTINUOUS
 62
     3
  5
12C
 10
50173.199191
 20
11964.314337
 30
0.0
 11
50173.199191
 21
12039.314337
 31
0.0
  0
TEXT
  8
5
  6
CONTINUOUS
 62
     3
  5
12D
 10
50173.199191
 20
12379.314337
 30
0.0
 40
60.0
  1
800
 50
90.0
 41
0.666667
  7

 72
     5
 11
50173.199191
 21
12499.314337
 31
0.0
  0
LINE
  8
5
  6
CONTINUOUS
 62
     3
  5
12E
 10
50173.199191
 20
12039.314337
 30
0.0
 11
50173.199191
 21
12839.314337
 31
0.0
  0
TEXT
  8
5
  6
CONTINUOUS
 62
     3
  5
12F
 10
50173.199191
 20
12831.814337
 30
0.0
 40
60.0
  1
75
 50
90.0
 41
0.75
  7

 72
     5
 11
50173.199191
 21
12921.814337
 31
0.0
  0
LINE
  8
5
  6
CONTINUOUS
 62
     3
  5
130
 10
50173.199191
 20
12839.314337
 30
0.0
 11
50173.199191
 21
12914.314337
 31
0.0
  0
LINE
  8
5
  6
CONTINUOUS
 62
     3
  5
131
 10
47855.363842
 20
11964.314337
 30
0.0
 11
48055.363842
 21
11964.314337
 31
0.0
  0
LINE
  8
5
  6
CONTINUOUS
 62
     3
  5
132
 10
47855.363842
 20
12914.314337
 30
0.0
 11
48055.363842
 21
12914.314337
 31
0.0
  0
LINE
  8
5
  6
CONTINUOUS
 62
     3
  5
133
 10
47955.363842
 20
12839.314337
 30
0.0
 11
48055.363842
 21
12839.314337
 31
0.0
  0
LINE
  8
5
  6
CONTINUOUS
 62
     3
  5
134
 10
47955.363842
 20
12139.314337
 30
0.0
 11
48055.363842
 21
12139.314337
 31
0.0
  0
CIRCLE
  8
5
  6
CONTINUOUS
 62
     3
  5
135
 10
47855.363842
 20
11964.314337
 30
0.0
 40
7.5
  0
CIRCLE
  8
5
  6
CONTINUOUS
 62
     3
  5
136
 10
47855.363842
 20
12914.314337
 30
0.0
 40
7.5
  0
CIRCLE
  8
5
  6
CONTINUOUS
 62
     3
  5
137
 10
47955.363842
 20
11964.314337
 30
0.0
 40
7.5
  0
CIRCLE
  8
5
  6
CONTINUOUS
 62
     3
  5
138
 10
47955.363842
 20
12139.314337
 30
0.0
 40
7.5
  0
CIRCLE
  8
5
  6
CONTINUOUS
 62
     3
  5
139
 10
47955.363842
 20
12839.314337
 30
0.0
 40
7.5
  0
CIRCLE
  8
5
  6
CONTINUOUS
 62
     3
  5
13A
 10
47955.363842
 20
12914.314337
 30
0.0
 40
7.5
  0
TEXT
  8
5
  6
CONTINUOUS
 62
     3
  5
13B
 10
47855.363842
 20
12379.314337
 30
0.0
 40
60.0
  1
950
 50
90.0
 41
0.666667
  7

 72
     5
 11
47855.363842
 21
12499.314337
 31
0.0
  0
LINE
  8
5
  6
CONTINUOUS
 62
     3
  5
13C
 10
47855.363842
 20
11964.314337
 30
0.0
 11
47855.363842
 21
12914.314337
 31
0.0
  0
TEXT
  8
5
  6
CONTINUOUS
 62
     3
  5
13D
 10
47955.363842
 20
11991.814337
 30
0.0
 40
60.0
  1
175
 50
90.0
 41
0.666667
  7

 72
     5
 11
47955.363842
 21
12111.814337
 31
0.0
  0
LINE
  8
5
  6
CONTINUOUS
 62
     3
  5
13E
 10
47955.363842
 20
11964.314337
 30
0.0
 11
47955.363842
 21
12139.314337
 31
0.0
  0
TEXT
  8
5
  6
CONTINUOUS
 62
     3
  5
13F
 10
47955.363842
 20
12429.314337
 30
0.0
 40
60.0
  1
700
 50
90.0
 41
0.666667
  7

 72
     5
 11
47955.363842
 21
12549.314337
 31
0.0
  0
LINE
  8
5
  6
CONTINUOUS
 62
     3
  5
140
 10
47955.363842
 20
12139.314337
 30
0.0
 11
47955.363842
 21
12839.314337
 31
0.0
  0
TEXT
  8
5
  6
CONTINUOUS
 62
     3
  5
141
 10
47955.363842
 20
12831.814337
 30
0.0
 40
60.0
  1
75
 50
90.0
 41
0.75
  7

 72
     5
 11
47955.363842
 21
12921.814337
 31
0.0
  0
LINE
  8
5
  6
CONTINUOUS
 62
     3
  5
142
 10
47955.363842
 20
12839.314337
 30
0.0
 11
47955.363842
 21
12914.314337
 31
0.0
  0
LINE
  8
40
  6
CONTINUOUS
 62
     4
  5
143
 10
48920.37698
 20
12839.186512
 30
0.0
 11
48951.19952
 21
12839.186512
 31
0.0
  0
LINE
  8
40
  6
CONTINUOUS
 62
     4
  5
144
 10
48957.44296
 20
12841.186482
 30
0.0
 11
48914.16196
 21
12841.186482
 31
0.0
  0
LINE
  8
40
  6
CONTINUOUS
 62
     4
  5
145
 10
48980.8378
 20
12859.186492
 30
0.0
 11
48980.8378
 21
12848.699582
 31
0.0
  0
LINE
  8
40
  6
CONTINUOUS
 62
     4
  5
146
 10
48890.83782
 20
12859.186492
 30
0.0
 11
48890.83782
 21
12848.670952
 31
0.0
  0
LINE
  8
40
  6
CONTINUOUS
 62
     4
  5
147
 10
48891.58388
 20
12847.186532
 30
0.0
 11
48980.04834
 21
12847.186532
 31
0.0
  0
ARC
  8
40
  6
CONTINUOUS
 62
     4
  5
148
 10
48978.8379
 20
12848.802272
 30
0.0
 40
2.00004
 50
284.470295
 51
360.0
  0
ARC
  8
40
  6
CONTINUOUS
 62
     4
  5
149
 10
48892.83954
 20
12848.759222
 30
0.0
 40
2.00004
 50
180.0
 51
255.930352
  0
LINE
  8
1
  6
CONTINUOUS
 62
     4
  5
14A
 10
48968.14876
 20
12866.372552
 30
0.0
 11
48964.14868
 21
12867.067582
 31
0.0
  0
LINE
  8
1
  6
CONTINUOUS
 62
     4
  5
14B
 10
48968.14876
 20
12869.408872
 30
0.0
 11
48964.14868
 21
12870.118112
 31
0.0
  0
LINE
  8
1
  6
CONTINUOUS
 62
     4
  5
14C
 10
48968.14876
 20
12872.461992
 30
0.0
 11
48964.14868
 21
12873.171232
 31
0.0
  0
LINE
  8
1
  6
CONTINUOUS
 62
     4
  5
14D
 10
48968.14876
 20
12875.515112
 30
0.0
 11
48964.14868
 21
12876.224282
 31
0.0
  0
LINE
  8
1
  6
CONTINUOUS
 62
     4
  5
14E
 10
48968.14876
 20
12878.565572
 30
0.0
 11
48964.14868
 21
12879.260532
 31
0.0
  0
LINE
  8
1
  6
CONTINUOUS
 62
     4
  5
14F
 10
48968.14876
 20
12881.601682
 30
0.0
 11
48964.14868
 21
12882.310922
 31
0.0
  0
LINE
  8
1
  6
CONTINUOUS
 62
     4
  5
150
 10
48964.5439
 20
12865.477392
 30
0.0
 11
48967.75354
 21
12864.909762
 31
0.0
  0
LINE
  8
1
  6
CONTINUOUS
 62
     4
  5
151
 10
48964.5439
 20
12868.510842
 30
0.0
 11
48967.75354
 21
12867.943282
 31
0.0
  0
LINE
  8
1
  6
CONTINUOUS
 62
     4
  5
152
 10
48964.5439
 20
12871.563962
 30
0.0
 11
48967.75354
 21
12870.996402
 31
0.0
  0
LINE
  8
1
  6
CONTINUOUS
 62
     4
  5
153
 10
48964.5439
 20
12874.617082
 30
0.0
 11
48967.75354
 21
12874.049592
 31
0.0
  0
LINE
  8
1
  6
CONTINUOUS
 62
     4
  5
154
 10
48964.5439
 20
12877.670272
 30
0.0
 11
48967.75354
 21
12877.102712
 31
0.0
  0
LINE
  8
1
  6
CONTINUOUS
 62
     4
  5
155
 10
48964.5439
 20
12880.703792
 30
0.0
 11
48967.75354
 21
12880.136232
 31
0.0
  0
LINE
  8
1
  6
CONTINUOUS
 62
     4
  5
156
 10
48964.5439
 20
12883.756912
 30
0.0
 11
48967.75354
 21
12883.189282
 31
0.0
  0
LINE
  8
1
  6
CONTINUOUS
 62
     4
  5
157
 10
48968.14876
 20
12863.321182
 30
0.0
 11
48964.14868
 21
12864.025382
 31
0.0
  0
LINE
  8
1
  6
CONTINUOUS
 62
     4
  5
158
 10
48966.14872
 20
12853.186512
 30
0.0
 11
48970.3987
 21
12853.186512
 31
0.0
  0
LINE
  8
1
  6
CONTINUOUS
 62
     4
  5
159
 10
48968.14876
 20
12857.274652
 30
0.0
 11
48964.14868
 21
12857.983892
 31
0.0
  0
LINE
  8
1
  6
CONTINUOUS
 62
     4
  5
15A
 10
48968.14876
 20
12860.288502
 30
0.0
 11
48964.14868
 21
12860.997742
 31
0.0
  0
LINE
  8
1
  6
CONTINUOUS
 62
     4
  5
15B
 10
48964.5439
 20
12856.396222
 30
0.0
 11
48967.75354
 21
12855.828662
 31
0.0
  0
LINE
  8
1
  6
CONTINUOUS
 62
     4
  5
15C
 10
48964.5439
 20
12859.410142
 30
0.0
 11
48967.75354
 21
12858.842582
 31
0.0
  0
LINE
  8
1
  6
CONTINUOUS
 62
     4
  5
15D
 10
48964.5439
 20
12862.443732
 30
0.0
 11
48967.75354
 21
12861.876172
 31
0.0
  0
LINE
  8
1
  6
CONTINUOUS
 62
     4
  5
15E
 10
48968.75174
 20
12853.186512
 30
0.0
 11
48967.54872
 21
12854.389462
 31
0.0
  0
LINE
  8
1
  6
CONTINUOUS
 62
     4
  5
15F
 10
48968.75174
 20
12853.186512
 30
0.0
 11
48970.3987
 21
12853.186512
 31
0.0
  0
LINE
  8
1
  6
CONTINUOUS
 62
     4
  5
160
 10
48963.5457
 20
12853.186512
 30
0.0
 11
48964.74872
 21
12854.389462
 31
0.0
  0
LINE
  8
1
  6
CONTINUOUS
 62
     4
  5
161
 10
48963.5457
 20
12853.186512
 30
0.0
 11
48961.89874
 21
12853.186512
 31
0.0
  0
LINE
  8
1
  6
CONTINUOUS
 62
     4
  5
162
 10
48964.5439
 20
12854.869662
 30
0.0
 11
48967.75354
 21
12854.302172
 31
0.0
  0
LINE
  8
1
  6
CONTINUOUS
 62
     4
  5
163
 10
48966.75548
 20
12849.695472
 30
0.0
 11
48965.54196
 21
12849.695472
 31
0.0
  0
LINE
  8
1
  6
CONTINUOUS
 62
     4
  5
164
 10
48966.75548
 20
12849.186502
 30
0.0
 11
48966.75548
 21
12849.695472
 31
0.0
  0
LINE
  8
1
  6
CONTINUOUS
 62
     4
  5
165
 10
48965.54196
 20
12849.186502
 30
0.0
 11
48965.54196
 21
12849.695472
 31
0.0
  0
LINE
  8
1
  6
CONTINUOUS
 62
     4
  5
166
 10
48966.75548
 20
12849.186502
 30
0.0
 11
48965.54196
 21
12849.186502
 31
0.0
  0
LINE
  8
1
  6
CONTINUOUS
 62
     4
  5
167
 10
48968.14876
 20
12884.654802
 30
0.0
 11
48964.14868
 21
12885.364042
 31
0.0
  0
LINE
  8
1
  6
CONTINUOUS
 62
     4
  5
168
 10
48964.7574
 20
12888.309222
 30
0.0
 11
48967.64238
 21
12887.797662
 31
0.0
  0
LINE
  8
1
  6
CONTINUOUS
 62
     4
  5
169
 10
48964.5439
 20
12886.809962
 30
0.0
 11
48967.75354
 21
12886.242402
 31
0.0
  0
LINE
  8
1
  6
CONTINUOUS
 62
     4
  5
16A
 10
48965.05028
 20
12889.773482
 30
0.0
 11
48967.32766
 21
12889.370842
 31
0.0
  0
LINE
  8
1
  6
CONTINUOUS
 62
     4
  5
16B
 10
48907.52694
 20
12866.372552
 30
0.0
 11
48903.527
 21
12867.067582
 31
0.0
  0
LINE
  8
1
  6
CONTINUOUS
 62
     4
  5
16C
 10
48907.52694
 20
12869.408872
 30
0.0
 11
48903.527
 21
12870.118112
 31
0.0
  0
LINE
  8
1
  6
CONTINUOUS
 62
     4
  5
16D
 10
48907.52694
 20
12872.461992
 30
0.0
 11
48903.527
 21
12873.171232
 31
0.0
  0
LINE
  8
1
  6
CONTINUOUS
 62
     4
  5
16E
 10
48907.52694
 20
12875.515112
 30
0.0
 11
48903.527
 21
12876.224282
 31
0.0
  0
LINE
  8
1
  6
CONTINUOUS
 62
     4
  5
16F
 10
48907.52694
 20
12878.565572
 30
0.0
 11
48903.527
 21
12879.260532
 31
0.0
  0
LINE
  8
1
  6
CONTINUOUS
 62
     4
  5
170
 10
48907.52694
 20
12881.601682
 30
0.0
 11
48903.527
 21
12882.310922
 31
0.0
  0
LINE
  8
1
  6
CONTINUOUS
 62
     4
  5
171
 10
48903.92208
 20
12865.477392
 30
0.0
 11
48907.13186
 21
12864.909762
 31
0.0
  0
LINE
  8
1
  6
CONTINUOUS
 62
     4
  5
172
 10
48903.92208
 20
12868.510842
 30
0.0
 11
48907.13186
 21
12867.943282
 31
0.0
  0
LINE
  8
1
  6
CONTINUOUS
 62
     4
  5
173
 10
48903.92208
 20
12871.563962
 30
0.0
 11
48907.13186
 21
12870.996402
 31
0.0
  0
LINE
  8
1
  6
CONTINUOUS
 62
     4
  5
174
 10
48903.92208
 20
12874.617082
 30
0.0
 11
48907.13186
 21
12874.049592
 31
0.0
  0
LINE
  8
1
  6
CONTINUOUS
 62
     4
  5
175
 10
48903.92208
 20
12877.670272
 30
0.0
 11
48907.13186
 21
12877.102712
 31
0.0
  0
LINE
  8
1
  6
CONTINUOUS
 62
     4
  5
176
 10
48903.92208
 20
12880.703792
 30
0.0
 11
48907.13186
 21
12880.136232
 31
0.0
  0
LINE
  8
1
  6
CONTINUOUS
 62
     4
  5
177
 10
48903.92208
 20
12883.756912
 30
0.0
 11
48907.13186
 21
12883.189282
 31
0.0
  0
LINE
  8
1
  6
CONTINUOUS
 62
     4
  5
178
 10
48907.52694
 20
12863.321182
 30
0.0
 11
48903.527
 21
12864.025382
 31
0.0
  0
LINE
  8
1
  6
CONTINUOUS
 62
     4
  5
179
 10
48905.5269
 20
12853.186512
 30
0.0
 11
48909.77702
 21
12853.186512
 31
0.0
  0
LINE
  8
1
  6
CONTINUOUS
 62
     4
  5
17A
 10
48907.52694
 20
12857.274652
 30
0.0
 11
48903.527
 21
12857.983892
 31
0.0
  0
LINE
  8
1
  6
CONTINUOUS
 62
     4
  5
17B
 10
48907.52694
 20
12860.288502
 30
0.0
 11
48903.527
 21
12860.997742
 31
0.0
  0
LINE
  8
1
  6
CONTINUOUS
 62
     4
  5
17C
 10
48903.92208
 20
12856.396222
 30
0.0
 11
48907.13186
 21
12855.828662
 31
0.0
  0
LINE
  8
1
  6
CONTINUOUS
 62
     4
  5
17D
 10
48903.92208
 20
12859.410142
 30
0.0
 11
48907.13186
 21
12858.842582
 31
0.0
  0
LINE
  8
1
  6
CONTINUOUS
 62
     4
  5
17E
 10
48903.92208
 20
12862.443732
 30
0.0
 11
48907.13186
 21
12861.876172
 31
0.0
  0
LINE
  8
1
  6
CONTINUOUS
 62
     4
  5
17F
 10
48908.12992
 20
12853.186512
 30
0.0
 11
48906.9269
 21
12854.389462
 31
0.0
  0
LINE
  8
1
  6
CONTINUOUS
 62
     4
  5
180
 10
48908.12992
 20
12853.186512
 30
0.0
 11
48909.77702
 21
12853.186512
 31
0.0
  0
LINE
  8
1
  6
CONTINUOUS
 62
     4
  5
181
 10
48902.92402
 20
12853.186512
 30
0.0
 11
48904.1269
 21
12854.389462
 31
0.0
  0
LINE
  8
1
  6
CONTINUOUS
 62
     4
  5
182
 10
48902.92402
 20
12853.186512
 30
0.0
 11
48901.27692
 21
12853.186512
 31
0.0
  0
LINE
  8
1
  6
CONTINUOUS
 62
     4
  5
183
 10
48903.92208
 20
12854.869662
 30
0.0
 11
48907.13186
 21
12854.302172
 31
0.0
  0
LINE
  8
1
  6
CONTINUOUS
 62
     4
  5
184
 10
48906.13366
 20
12849.695472
 30
0.0
 11
48904.92028
 21
12849.695472
 31
0.0
  0
LINE
  8
1
  6
CONTINUOUS
 62
     4
  5
185
 10
48906.13366
 20
12849.186502
 30
0.0
 11
48906.13366
 21
12849.695472
 31
0.0
  0
LINE
  8
1
  6
CONTINUOUS
 62
     4
  5
186
 10
48904.92028
 20
12849.186502
 30
0.0
 11
48904.92028
 21
12849.695472
 31
0.0
  0
LINE
  8
1
  6
CONTINUOUS
 62
     4
  5
187
 10
48906.13366
 20
12849.186502
 30
0.0
 11
48904.92028
 21
12849.186502
 31
0.0
  0
LINE
  8
1
  6
CONTINUOUS
 62
     4
  5
188
 10
48907.52694
 20
12884.654802
 30
0.0
 11
48903.527
 21
12885.364042
 31
0.0
  0
LINE
  8
1
  6
CONTINUOUS
 62
     4
  5
189
 10
48904.13572
 20
12888.309222
 30
0.0
 11
48907.02056
 21
12887.797662
 31
0.0
  0
LINE
  8
1
  6
CONTINUOUS
 62
     4
  5
18A
 10
48903.92208
 20
12886.809962
 30
0.0
 11
48907.13186
 21
12886.242402
 31
0.0
  0
LINE
  8
1
  6
CONTINUOUS
 62
     4
  5
18B
 10
48904.42846
 20
12889.773482
 30
0.0
 11
48906.70598
 21
12889.370842
 31
0.0
  0
LINE
  8
40
  6
CONTINUOUS
 62
     4
  5
18C
 10
48890.86288
 20
12859.186492
 30
0.0
 11
48890.86288
 21
12848.670952
 31
0.0
  0
LINE
  8
40
  6
CONTINUOUS
 62
     4
  5
18D
 10
48893.36286
 20
12846.554012
 30
0.0
 11
48893.36286
 21
12854.186532
 31
0.0
  0
LINE
  8
40
  6
CONTINUOUS
 62
     4
  5
18E
 10
48953.5679
 20
12840.186532
 30
0.0
 11
48918.03688
 21
12840.186532
 31
0.0
  0
LINE
  8
40
  6
CONTINUOUS
 62
     4
  5
18F
 10
48949.83788
 20
12839.186512
 30
0.0
 11
48921.83788
 21
12839.186512
 31
0.0
  0
LINE
  8
40
  6
CONTINUOUS
 62
     4
  5
190
 10
48921.25352
 20
12838.186492
 30
0.0
 11
48950.35392
 21
12838.186492
 31
0.0
  0
LINE
  8
40
  6
CONTINUOUS
 62
     4
  5
191
 10
48921.69186
 20
12837.186402
 30
0.0
 11
48949.95702
 21
12837.186402
 31
0.0
  0
LINE
  8
12
  6
CONTINUOUS
 62
     4
  5
192
 10
48912.45088
 20
12854.186532
 30
0.0
 11
48890.83782
 21
12854.186532
 31
0.0
  0
LINE
  8
12
  6
CONTINUOUS
 62
     4
  5
193
 10
48978.33782
 20
12846.578792
 30
0.0
 11
48978.33782
 21
12854.186532
 31
0.0
  0
LINE
  8
12
  6
CONTINUOUS
 62
     4
  5
194
 10
48957.48846
 20
12841.198312
 30
0.0
 11
48957.48846
 21
12841.168772
 31
0.0
  0
LINE
  8
12
  6
CONTINUOUS
 62
     4
  5
195
 10
48959.2064
 20
12841.641552
 30
0.0
 11
48959.2064
 21
12854.186532
 31
0.0
  0
LINE
  8
12
  6
CONTINUOUS
 62
     4
  5
196
 10
48957.49462
 20
12841.293792
 30
0.0
 11
48959.11932
 21
12854.291812
 31
0.0
  0
LINE
  8
12
  6
CONTINUOUS
 62
     4
  5
197
 10
48914.16868
 20
12841.092892
 30
0.0
 11
48914.16868
 21
12841.063422
 31
0.0
  0
LINE
  8
12
  6
CONTINUOUS
 62
     4
  5
198
 10
48912.45088
 20
12841.536202
 30
0.0
 11
48912.45088
 21
12854.081252
 31
0.0
  0
LINE
  8
12
  6
CONTINUOUS
 62
     4
  5
199
 10
48914.16252
 20
12841.188512
 30
0.0
 11
48912.53782
 21
12854.186532
 31
0.0
  0
LINE
  8
12
  6
CONTINUOUS
 62
     4
  5
19A
 10
48959.10616
 20
12854.186532
 30
0.0
 11
48978.33782
 21
12854.186532
 31
0.0
  0
LINE
  8
12
  6
CONTINUOUS
 62
     4
  5
19B
 10
48959.10616
 20
12853.186512
 30
0.0
 11
48978.33782
 21
12853.186512
 31
0.0
  0
LINE
  8
12
  6
CONTINUOUS
 62
     4
  5
19C
 10
48912.45088
 20
12853.186512
 30
0.0
 11
48890.83782
 21
12853.186512
 31
0.0
  0
LINE
  8
12
  6
CONTINUOUS
 62
     4
  5
19D
 10
48961.89874
 20
12853.186512
 30
0.0
 11
48970.3987
 21
12853.186512
 31
0.0
  0
LINE
  8
12
  6
CONTINUOUS
 62
     4
  5
19E
 10
48970.3987
 20
12853.186512
 30
0.0
 11
48970.3987
 21
12850.186522
 31
0.0
  0
LINE
  8
12
  6
CONTINUOUS
 62
     4
  5
19F
 10
48961.89874
 20
12853.186512
 30
0.0
 11
48961.89874
 21
12850.186522
 31
0.0
  0
LINE
  8
12
  6
CONTINUOUS
 62
     4
  5
1A0
 10
48961.89874
 20
12850.186522
 30
0.0
 11
48961.89874
 21
12853.186512
 31
0.0
  0
LINE
  8
12
  6
CONTINUOUS
 62
     4
  5
1A1
 10
48970.3987
 20
12850.186522
 30
0.0
 11
48970.3987
 21
12853.186512
 31
0.0
  0
LINE
  8
12
  6
CONTINUOUS
 62
     4
  5
1A2
 10
48970.3987
 20
12850.186522
 30
0.0
 11
48961.89874
 21
12850.186522
 31
0.0
  0
ARC
  8
12
  6
CONTINUOUS
 62
     4
  5
1A3
 10
48966.14872
 20
12858.717772
 30
0.0
 40
9.53134
 50
243.51896
 51
296.48104
  0
LINE
  8
12
  6
CONTINUOUS
 62
     4
  5
1A4
 10
48964.74872
 20
12853.186512
 30
0.0
 11
48964.74872
 21
12884.186502
 31
0.0
  0
LINE
  8
12
  6
CONTINUOUS
 62
     4
  5
1A5
 10
48967.54872
 20
12853.186512
 30
0.0
 11
48967.54872
 21
12884.186502
 31
0.0
  0
LINE
  8
12
  6
CONTINUOUS
 62
     4
  5
1A6
 10
48964.74872
 20
12884.186502
 30
0.0
 11
48967.54872
 21
12884.186502
 31
0.0
  0
LINE
  8
12
  6
CONTINUOUS
 62
     4
  5
1A7
 10
48966.14872
 20
12891.186502
 30
0.0
 11
48967.54872
 21
12884.186502
 31
0.0
  0
LINE
  8
12
  6
CONTINUOUS
 62
     4
  5
1A8
 10
48966.14872
 20
12891.186502
 30
0.0
 11
48964.74872
 21
12884.186502
 31
0.0
  0
LINE
  8
12
  6
CENTER
 62
     4
  5
1A9
 10
48966.14872
 20
12850.186522
 30
0.0
 11
48966.14872
 21
12891.186502
 31
0.0
  0
LINE
  8
12
  6
CENTER
 62
     4
  5
1AA
 10
48966.14872
 20
12891.186502
 30
0.0
 11
48966.14872
 21
12851.679482
 31
0.0
  0
LINE
  8
12
  6
CONTINUOUS
 62
     4
  5
1AB
 10
48901.27692
 20
12853.186512
 30
0.0
 11
48909.77702
 21
12853.186512
 31
0.0
  0
LINE
  8
12
  6
CONTINUOUS
 62
     4
  5
1AC
 10
48909.77702
 20
12853.186512
 30
0.0
 11
48909.77702
 21
12850.186522
 31
0.0
  0
LINE
  8
12
  6
CONTINUOUS
 62
     4
  5
1AD
 10
48901.27692
 20
12853.186512
 30
0.0
 11
48901.27692
 21
12850.186522
 31
0.0
  0
LINE
  8
12
  6
CONTINUOUS
 62
     4
  5
1AE
 10
48901.27692
 20
12850.186522
 30
0.0
 11
48901.27692
 21
12853.186512
 31
0.0
  0
LINE
  8
12
  6
CONTINUOUS
 62
     4
  5
1AF
 10
48909.77702
 20
12850.186522
 30
0.0
 11
48909.77702
 21
12853.186512
 31
0.0
  0
LINE
  8
12
  6
CONTINUOUS
 62
     4
  5
1B0
 10
48909.77702
 20
12850.186522
 30
0.0
 11
48901.27692
 21
12850.186522
 31
0.0
  0
ARC
  8
12
  6
CONTINUOUS
 62
     4
  5
1B1
 10
48905.5269
 20
12858.717772
 30
0.0
 40
9.53134
 50
243.51896
 51
296.48104
  0
LINE
  8
12
  6
CONTINUOUS
 62
     4
  5
1B2
 10
48904.1269
 20
12853.186512
 30
0.0
 11
48904.1269
 21
12884.186502
 31
0.0
  0
LINE
  8
12
  6
CONTINUOUS
 62
     4
  5
1B3
 10
48906.9269
 20
12853.186512
 30
0.0
 11
48906.9269
 21
12884.186502
 31
0.0
  0
LINE
  8
12
  6
CONTINUOUS
 62
     4
  5
1B4
 10
48904.1269
 20
12884.186502
 30
0.0
 11
48906.9269
 21
12884.186502
 31
0.0
  0
LINE
  8
12
  6
CONTINUOUS
 62
     4
  5
1B5
 10
48905.5269
 20
12891.186502
 30
0.0
 11
48906.9269
 21
12884.186502
 31
0.0
  0
LINE
  8
12
  6
CONTINUOUS
 62
     4
  5
1B6
 10
48905.5269
 20
12891.186502
 30
0.0
 11
48904.1269
 21
12884.186502
 31
0.0
  0
LINE
  8
12
  6
CENTER
 62
     4
  5
1B7
 10
48905.5269
 20
12850.186522
 30
0.0
 11
48905.5269
 21
12891.186502
 31
0.0
  0
LINE
  8
12
  6
CENTER
 62
     4
  5
1B8
 10
48905.5269
 20
12891.186502
 30
0.0
 11
48905.5269
 21
12851.679482
 31
0.0
  0
LINE
  8
12
  6
CONTINUOUS
 62
     4
  5
1B9
 10
48960.44022
 20
12853.433752
 30
0.0
 11
48971.94024
 21
12853.433752
 31
0.0
  0
LINE
  8
12
  6
CONTINUOUS
 62
     4
  5
1BA
 10
48960.44022
 20
12854.233642
 30
0.0
 11
48971.94024
 21
12854.233642
 31
0.0
  0
LINE
  8
12
  6
CONTINUOUS
 62
     4
  5
1BB
 10
48960.44022
 20
12853.433752
 30
0.0
 11
48960.44022
 21
12854.233642
 31
0.0
  0
LINE
  8
12
  6
CONTINUOUS
 62
     4
  5
1BC
 10
48963.44014
 20
12853.433752
 30
0.0
 11
48963.44014
 21
12854.233642
 31
0.0
  0
LINE
  8
12
  6
CONTINUOUS
 62
     4
  5
1BD
 10
48968.94018
 20
12853.433752
 30
0.0
 11
48968.94018
 21
12854.233642
 31
0.0
  0
LINE
  8
12
  6
CONTINUOUS
 62
     4
  5
1BE
 10
48971.94024
 20
12853.433752
 30
0.0
 11
48971.94024
 21
12854.233642
 31
0.0
  0
LINE
  8
12
  6
CONTINUOUS
 62
     4
  5
1BF
 10
48899.82204
 20
12853.433752
 30
0.0
 11
48911.32206
 21
12853.433752
 31
0.0
  0
LINE
  8
12
  6
CONTINUOUS
 62
     4
  5
1C0
 10
48899.82204
 20
12854.233642
 30
0.0
 11
48911.32206
 21
12854.233642
 31
0.0
  0
LINE
  8
12
  6
CONTINUOUS
 62
     4
  5
1C1
 10
48899.82204
 20
12853.433752
 30
0.0
 11
48899.82204
 21
12854.233642
 31
0.0
  0
LINE
  8
12
  6
CONTINUOUS
 62
     4
  5
1C2
 10
48902.8221
 20
12853.433752
 30
0.0
 11
48902.8221
 21
12854.233642
 31
0.0
  0
LINE
  8
12
  6
CONTINUOUS
 62
     4
  5
1C3
 10
48908.32214
 20
12853.433752
 30
0.0
 11
48908.32214
 21
12854.233642
 31
0.0
  0
LINE
  8
12
  6
CONTINUOUS
 62
     4
  5
1C4
 10
48911.32206
 20
12853.433752
 30
0.0
 11
48911.32206
 21
12854.233642
 31
0.0
  0
LINE
  8
8
  6
CONTINUOUS
 62
     4
  5
1C5
 10
48918.8374
 20
12839.979892
 30
0.0
 11
48892.34184
 21
12846.817422
 31
0.0
  0
LINE
  8
8
  6
CONTINUOUS
 62
     4
  5
1C6
 10
48952.64964
 20
12839.949442
 30
0.0
 11
48979.38068
 21
12846.847802
 31
0.0
  0
ARC
  8
8
  6
CONTINUOUS
 62
     4
  5
1C7
 10
48953.80562
 20
12836.150542
 30
0.0
 40
4.00008
 50
104.470294
 51
180.0
  0
LINE
  8
50
  6
CENTER
 62
     4
  5
1C8
 10
48966.19016
 20
12853.433752
 30
0.0
 11
48966.19016
 21
12855.555732
 31
0.0
  0
LINE
  8
50
  6
CENTER
 62
     4
  5
1C9
 10
48905.57212
 20
12853.433752
 30
0.0
 11
48905.57212
 21
12855.555732
 31
0.0
  0
ARC
  8
8
  6
CONTINUOUS
 62
     4
  5
1CA
 10
48917.8434
 20
12836.099652
 30
0.0
 40
4.00008
 50
360.0
 51
75.529706
  0
LINE
  8
40
  6
CONTINUOUS
 62
     4
  5
1CB
 10
49354.676986
 20
12839.186512
 30
0.0
 11
49385.499526
 21
12839.186512
 31
0.0
  0
LINE
  8
40
  6
CONTINUOUS
 62
     4
  5
1CC
 10
49391.742966
 20
12841.186482
 30
0.0
 11
49348.461966
 21
12841.186482
 31
0.0
  0
LINE
  8
40
  6
CONTINUOUS
 62
     4
  5
1CD
 10
49415.137806
 20
12859.186492
 30
0.0
 11
49415.137806
 21
12848.699582
 31
0.0
  0
LINE
  8
40
  6
CONTINUOUS
 62
     4
  5
1CE
 10
49325.137826
 20
12859.186492
 30
0.0
 11
49325.137826
 21
12848.670952
 31
0.0
  0
LINE
  8
40
  6
CONTINUOUS
 62
     4
  5
1CF
 10
49325.883886
 20
12847.186532
 30
0.0
 11
49414.348346
 21
12847.186532
 31
0.0
  0
ARC
  8
40
  6
CONTINUOUS
 62
     4
  5
1D0
 10
49413.137906
 20
12848.802272
 30
0.0
 40
2.00004
 50
284.470295
 51
360.0
  0
ARC
  8
40
  6
CONTINUOUS
 62
     4
  5
1D1
 10
49327.139546
 20
12848.759222
 30
0.0
 40
2.00004
 50
180.0
 51
255.930352
  0
LINE
  8
1
  6
CONTINUOUS
 62
     4
  5
1D2
 10
49402.448766
 20
12866.372552
 30
0.0
 11
49398.448686
 21
12867.067582
 31
0.0
  0
LINE
  8
1
  6
CONTINUOUS
 62
     4
  5
1D3
 10
49402.448766
 20
12869.408872
 30
0.0
 11
49398.448686
 21
12870.118112
 31
0.0
  0
LINE
  8
1
  6
CONTINUOUS
 62
     4
  5
1D4
 10
49402.448766
 20
12872.461992
 30
0.0
 11
49398.448686
 21
12873.171232
 31
0.0
  0
LINE
  8
1
  6
CONTINUOUS
 62
     4
  5
1D5
 10
49402.448766
 20
12875.515112
 30
0.0
 11
49398.448686
 21
12876.224282
 31
0.0
  0
LINE
  8
1
  6
CONTINUOUS
 62
     4
  5
1D6
 10
49402.448766
 20
12878.565572
 30
0.0
 11
49398.448686
 21
12879.260532
 31
0.0
  0
LINE
  8
1
  6
CONTINUOUS
 62
     4
  5
1D7
 10
49402.448766
 20
12881.601682
 30
0.0
 11
49398.448686
 21
12882.310922
 31
0.0
  0
LINE
  8
1
  6
CONTINUOUS
 62
     4
  5
1D8
 10
49398.843906
 20
12865.477392
 30
0.0
 11
49402.053546
 21
12864.909762
 31
0.0
  0
LINE
  8
1
  6
CONTINUOUS
 62
     4
  5
1D9
 10
49398.843906
 20
12868.510842
 30
0.0
 11
49402.053546
 21
12867.943282
 31
0.0
  0
LINE
  8
1
  6
CONTINUOUS
 62
     4
  5
1DA
 10
49398.843906
 20
12871.563962
 30
0.0
 11
49402.053546
 21
12870.996402
 31
0.0
  0
LINE
  8
1
  6
CONTINUOUS
 62
     4
  5
1DB
 10
49398.843906
 20
12874.617082
 30
0.0
 11
49402.053546
 21
12874.049592
 31
0.0
  0
LINE
  8
1
  6
CONTINUOUS
 62
     4
  5
1DC
 10
49398.843906
 20
12877.670272
 30
0.0
 11
49402.053546
 21
12877.102712
 31
0.0
  0
LINE
  8
1
  6
CONTINUOUS
 62
     4
  5
1DD
 10
49398.843906
 20
12880.703792
 30
0.0
 11
49402.053546
 21
12880.136232
 31
0.0
  0
LINE
  8
1
  6
CONTINUOUS
 62
     4
  5
1DE
 10
49398.843906
 20
12883.756912
 30
0.0
 11
49402.053546
 21
12883.189282
 31
0.0
  0
LINE
  8
1
  6
CONTINUOUS
 62
     4
  5
1DF
 10
49402.448766
 20
12863.321182
 30
0.0
 11
49398.448686
 21
12864.025382
 31
0.0
  0
LINE
  8
1
  6
CONTINUOUS
 62
     4
  5
1E0
 10
49400.448726
 20
12853.186512
 30
0.0
 11
49404.698706
 21
12853.186512
 31
0.0
  0
LINE
  8
1
  6
CONTINUOUS
 62
     4
  5
1E1
 10
49402.448766
 20
12857.274652
 30
0.0
 11
49398.448686
 21
12857.983892
 31
0.0
  0
LINE
  8
1
  6
CONTINUOUS
 62
     4
  5
1E2
 10
49402.448766
 20
12860.288502
 30
0.0
 11
49398.448686
 21
12860.997742
 31
0.0
  0
LINE
  8
1
  6
CONTINUOUS
 62
     4
  5
1E3
 10
49398.843906
 20
12856.396222
 30
0.0
 11
49402.053546
 21
12855.828662
 31
0.0
  0
LINE
  8
1
  6
CONTINUOUS
 62
     4
  5
1E4
 10
49398.843906
 20
12859.410142
 30
0.0
 11
49402.053546
 21
12858.842582
 31
0.0
  0
LINE
  8
1
  6
CONTINUOUS
 62
     4
  5
1E5
 10
49398.843906
 20
12862.443732
 30
0.0
 11
49402.053546
 21
12861.876172
 31
0.0
  0
LINE
  8
1
  6
CONTINUOUS
 62
     4
  5
1E6
 10
49403.051746
 20
12853.186512
 30
0.0
 11
49401.848726
 21
12854.389462
 31
0.0
  0
LINE
  8
1
  6
CONTINUOUS
 62
     4
  5
1E7
 10
49403.051746
 20
12853.186512
 30
0.0
 11
49404.698706
 21
12853.186512
 31
0.0
  0
LINE
  8
1
  6
CONTINUOUS
 62
     4
  5
1E8
 10
49397.845706
 20
12853.186512
 30
0.0
 11
49399.048726
 21
12854.389462
 31
0.0
  0
LINE
  8
1
  6
CONTINUOUS
 62
     4
  5
1E9
 10
49397.845706
 20
12853.186512
 30
0.0
 11
49396.198746
 21
12853.186512
 31
0.0
  0
LINE
  8
1
  6
CONTINUOUS
 62
     4
  5
1EA
 10
49398.843906
 20
12854.869662
 30
0.0
 11
49402.053546
 21
12854.302172
 31
0.0
  0
LINE
  8
1
  6
CONTINUOUS
 62
     4
  5
1EB
 10
49401.055486
 20
12849.695472
 30
0.0
 11
49399.841966
 21
12849.695472
 31
0.0
  0
LINE
  8
1
  6
CONTINUOUS
 62
     4
  5
1EC
 10
49401.055486
 20
12849.186502
 30
0.0
 11
49401.055486
 21
12849.695472
 31
0.0
  0
LINE
  8
1
  6
CONTINUOUS
 62
     4
  5
1ED
 10
49399.841966
 20
12849.186502
 30
0.0
 11
49399.841966
 21
12849.695472
 31
0.0
  0
LINE
  8
1
  6
CONTINUOUS
 62
     4
  5
1EE
 10
49401.055486
 20
12849.186502
 30
0.0
 11
49399.841966
 21
12849.186502
 31
0.0
  0
LINE
  8
1
  6
CONTINUOUS
 62
     4
  5
1EF
 10
49402.448766
 20
12884.654802
 30
0.0
 11
49398.448686
 21
12885.364042
 31
0.0
  0
LINE
  8
1
  6
CONTINUOUS
 62
     4
  5
1F0
 10
49399.057406
 20
12888.309222
 30
0.0
 11
49401.942386
 21
12887.797662
 31
0.0
  0
LINE
  8
1
  6
CONTINUOUS
 62
     4
  5
1F1
 10
49398.843906
 20
12886.809962
 30
0.0
 11
49402.053546
 21
12886.242402
 31
0.0
  0
LINE
  8
1
  6
CONTINUOUS
 62
     4
  5
1F2
 10
49399.350286
 20
12889.773482
 30
0.0
 11
49401.627666
 21
12889.370842
 31
0.0
  0
LINE
  8
1
  6
CONTINUOUS
 62
     4
  5
1F3
 10
49341.826946
 20
12866.372552
 30
0.0
 11
49337.827006
 21
12867.067582
 31
0.0
  0
LINE
  8
1
  6
CONTINUOUS
 62
     4
  5
1F4
 10
49341.826946
 20
12869.408872
 30
0.0
 11
49337.827006
 21
12870.118112
 31
0.0
  0
LINE
  8
1
  6
CONTINUOUS
 62
     4
  5
1F5
 10
49341.826946
 20
12872.461992
 30
0.0
 11
49337.827006
 21
12873.171232
 31
0.0
  0
LINE
  8
1
  6
CONTINUOUS
 62
     4
  5
1F6
 10
49341.826946
 20
12875.515112
 30
0.0
 11
49337.827006
 21
12876.224282
 31
0.0
  0
LINE
  8
1
  6
CONTINUOUS
 62
     4
  5
1F7
 10
49341.826946
 20
12878.565572
 30
0.0
 11
49337.827006
 21
12879.260532
 31
0.0
  0
LINE
  8
1
  6
CONTINUOUS
 62
     4
  5
1F8
 10
49341.826946
 20
12881.601682
 30
0.0
 11
49337.827006
 21
12882.310922
 31
0.0
  0
LINE
  8
1
  6
CONTINUOUS
 62
     4
  5
1F9
 10
49338.222086
 20
12865.477392
 30
0.0
 11
49341.431866
 21
12864.909762
 31
0.0
  0
LINE
  8
1
  6
CONTINUOUS
 62
     4
  5
1FA
 10
49338.222086
 20
12868.510842
 30
0.0
 11
49341.431866
 21
12867.943282
 31
0.0
  0
LINE
  8
1
  6
CONTINUOUS
 62
     4
  5
1FB
 10
49338.222086
 20
12871.563962
 30
0.0
 11
49341.431866
 21
12870.996402
 31
0.0
  0
LINE
  8
1
  6
CONTINUOUS
 62
     4
  5
1FC
 10
49338.222086
 20
12874.617082
 30
0.0
 11
49341.431866
 21
12874.049592
 31
0.0
  0
LINE
  8
1
  6
CONTINUOUS
 62
     4
  5
1FD
 10
49338.222086
 20
12877.670272
 30
0.0
 11
49341.431866
 21
12877.102712
 31
0.0
  0
LINE
  8
1
  6
CONTINUOUS
 62
     4
  5
1FE
 10
49338.222086
 20
12880.703792
 30
0.0
 11
49341.431866
 21
12880.136232
 31
0.0
  0
LINE
  8
1
  6
CONTINUOUS
 62
     4
  5
1FF
 10
49338.222086
 20
12883.756912
 30
0.0
 11
49341.431866
 21
12883.189282
 31
0.0
  0
LINE
  8
1
  6
CONTINUOUS
 62
     4
  5
200
 10
49341.826946
 20
12863.321182
 30
0.0
 11
49337.827006
 21
12864.025382
 31
0.0
  0
LINE
  8
1
  6
CONTINUOUS
 62
     4
  5
201
 10
49339.826906
 20
12853.186512
 30
0.0
 11
49344.077026
 21
12853.186512
 31
0.0
  0
LINE
  8
1
  6
CONTINUOUS
 62
     4
  5
202
 10
49341.826946
 20
12857.274652
 30
0.0
 11
49337.827006
 21
12857.983892
 31
0.0
  0
LINE
  8
1
  6
CONTINUOUS
 62
     4
  5
203
 10
49341.826946
 20
12860.288502
 30
0.0
 11
49337.827006
 21
12860.997742
 31
0.0
  0
LINE
  8
1
  6
CONTINUOUS
 62
     4
  5
204
 10
49338.222086
 20
12856.396222
 30
0.0
 11
49341.431866
 21
12855.828662
 31
0.0
  0
LINE
  8
1
  6
CONTINUOUS
 62
     4
  5
205
 10
49338.222086
 20
12859.410142
 30
0.0
 11
49341.431866
 21
12858.842582
 31
0.0
  0
LINE
  8
1
  6
CONTINUOUS
 62
     4
  5
206
 10
49338.222086
 20
12862.443732
 30
0.0
 11
49341.431866
 21
12861.876172
 31
0.0
  0
LINE
  8
1
  6
CONTINUOUS
 62
     4
  5
207
 10
49342.429926
 20
12853.186512
 30
0.0
 11
49341.226906
 21
12854.389462
 31
0.0
  0
LINE
  8
1
  6
CONTINUOUS
 62
     4
  5
208
 10
49342.429926
 20
12853.186512
 30
0.0
 11
49344.077026
 21
12853.186512
 31
0.0
  0
LINE
  8
1
  6
CONTINUOUS
 62
     4
  5
209
 10
49337.224026
 20
12853.186512
 30
0.0
 11
49338.426906
 21
12854.389462
 31
0.0
  0
LINE
  8
1
  6
CONTINUOUS
 62
     4
  5
20A
 10
49337.224026
 20
12853.186512
 30
0.0
 11
49335.576926
 21
12853.186512
 31
0.0
  0
LINE
  8
1
  6
CONTINUOUS
 62
     4
  5
20B
 10
49338.222086
 20
12854.869662
 30
0.0
 11
49341.431866
 21
12854.302172
 31
0.0
  0
LINE
  8
1
  6
CONTINUOUS
 62
     4
  5
20C
 10
49340.433666
 20
12849.695472
 30
0.0
 11
49339.220286
 21
12849.695472
 31
0.0
  0
LINE
  8
1
  6
CONTINUOUS
 62
     4
  5
20D
 10
49340.433666
 20
12849.186502
 30
0.0
 11
49340.433666
 21
12849.695472
 31
0.0
  0
LINE
  8
1
  6
CONTINUOUS
 62
     4
  5
20E
 10
49339.220286
 20
12849.186502
 30
0.0
 11
49339.220286
 21
12849.695472
 31
0.0
  0
LINE
  8
1
  6
CONTINUOUS
 62
     4
  5
20F
 10
49340.433666
 20
12849.186502
 30
0.0
 11
49339.220286
 21
12849.186502
 31
0.0
  0
LINE
  8
1
  6
CONTINUOUS
 62
     4
  5
210
 10
49341.826946
 20
12884.654802
 30
0.0
 11
49337.827006
 21
12885.364042
 31
0.0
  0
LINE
  8
1
  6
CONTINUOUS
 62
     4
  5
211
 10
49338.435726
 20
12888.309222
 30
0.0
 11
49341.320566
 21
12887.797662
 31
0.0
  0
LINE
  8
1
  6
CONTINUOUS
 62
     4
  5
212
 10
49338.222086
 20
12886.809962
 30
0.0
 11
49341.431866
 21
12886.242402
 31
0.0
  0
LINE
  8
1
  6
CONTINUOUS
 62
     4
  5
213
 10
49338.728466
 20
12889.773482
 30
0.0
 11
49341.005986
 21
12889.370842
 31
0.0
  0
LINE
  8
40
  6
CONTINUOUS
 62
     4
  5
214
 10
49325.162886
 20
12859.186492
 30
0.0
 11
49325.162886
 21
12848.670952
 31
0.0
  0
LINE
  8
40
  6
CONTINUOUS
 62
     4
  5
215
 10
49327.662866
 20
12846.554012
 30
0.0
 11
49327.662866
 21
12854.186532
 31
0.0
  0
LINE
  8
40
  6
CONTINUOUS
 62
     4
  5
216
 10
49387.867906
 20
12840.186532
 30
0.0
 11
49352.336886
 21
12840.186532
 31
0.0
  0
LINE
  8
40
  6
CONTINUOUS
 62
     4
  5
217
 10
49384.137886
 20
12839.186512
 30
0.0
 11
49356.137886
 21
12839.186512
 31
0.0
  0
LINE
  8
40
  6
CONTINUOUS
 62
     4
  5
218
 10
49355.553526
 20
12838.186492
 30
0.0
 11
49384.653926
 21
12838.186492
 31
0.0
  0
LINE
  8
40
  6
CONTINUOUS
 62
     4
  5
219
 10
49355.991866
 20
12837.186402
 30
0.0
 11
49384.257026
 21
12837.186402
 31
0.0
  0
LINE
  8
12
  6
CONTINUOUS
 62
     4
  5
21A
 10
49346.750886
 20
12854.186532
 30
0.0
 11
49325.137826
 21
12854.186532
 31
0.0
  0
LINE
  8
12
  6
CONTINUOUS
 62
     4
  5
21B
 10
49412.637826
 20
12846.578792
 30
0.0
 11
49412.637826
 21
12854.186532
 31
0.0
  0
LINE
  8
12
  6
CONTINUOUS
 62
     4
  5
21C
 10
49391.788466
 20
12841.198312
 30
0.0
 11
49391.788466
 21
12841.168772
 31
0.0
  0
LINE
  8
12
  6
CONTINUOUS
 62
     4
  5
21D
 10
49393.506406
 20
12841.641552
 30
0.0
 11
49393.506406
 21
12854.186532
 31
0.0
  0
LINE
  8
12
  6
CONTINUOUS
 62
     4
  5
21E
 10
49391.794626
 20
12841.293792
 30
0.0
 11
49393.419326
 21
12854.291812
 31
0.0
  0
LINE
  8
12
  6
CONTINUOUS
 62
     4
  5
21F
 10
49348.468686
 20
12841.092892
 30
0.0
 11
49348.468686
 21
12841.063422
 31
0.0
  0
LINE
  8
12
  6
CONTINUOUS
 62
     4
  5
220
 10
49346.750886
 20
12841.536202
 30
0.0
 11
49346.750886
 21
12854.081252
 31
0.0
  0
LINE
  8
12
  6
CONTINUOUS
 62
     4
  5
221
 10
49348.462526
 20
12841.188512
 30
0.0
 11
49346.837826
 21
12854.186532
 31
0.0
  0
LINE
  8
12
  6
CONTINUOUS
 62
     4
  5
222
 10
49393.406166
 20
12854.186532
 30
0.0
 11
49412.637826
 21
12854.186532
 31
0.0
  0
LINE
  8
12
  6
CONTINUOUS
 62
     4
  5
223
 10
49393.406166
 20
12853.186512
 30
0.0
 11
49412.637826
 21
12853.186512
 31
0.0
  0
LINE
  8
12
  6
CONTINUOUS
 62
     4
  5
224
 10
49346.750886
 20
12853.186512
 30
0.0
 11
49325.137826
 21
12853.186512
 31
0.0
  0
LINE
  8
12
  6
CONTINUOUS
 62
     4
  5
225
 10
49396.198746
 20
12853.186512
 30
0.0
 11
49404.698706
 21
12853.186512
 31
0.0
  0
LINE
  8
12
  6
CONTINUOUS
 62
     4
  5
226
 10
49404.698706
 20
12853.186512
 30
0.0
 11
49404.698706
 21
12850.186522
 31
0.0
  0
LINE
  8
12
  6
CONTINUOUS
 62
     4
  5
227
 10
49396.198746
 20
12853.186512
 30
0.0
 11
49396.198746
 21
12850.186522
 31
0.0
  0
LINE
  8
12
  6
CONTINUOUS
 62
     4
  5
228
 10
49396.198746
 20
12850.186522
 30
0.0
 11
49396.198746
 21
12853.186512
 31
0.0
  0
LINE
  8
12
  6
CONTINUOUS
 62
     4
  5
229
 10
49404.698706
 20
12850.186522
 30
0.0
 11
49404.698706
 21
12853.186512
 31
0.0
  0
LINE
  8
12
  6
CONTINUOUS
 62
     4
  5
22A
 10
49404.698706
 20
12850.186522
 30
0.0
 11
49396.198746
 21
12850.186522
 31
0.0
  0
ARC
  8
12
  6
CONTINUOUS
 62
     4
  5
22B
 10
49400.448726
 20
12858.717772
 30
0.0
 40
9.53134
 50
243.51896
 51
296.48104
  0
LINE
  8
12
  6
CONTINUOUS
 62
     4
  5
22C
 10
49399.048726
 20
12853.186512
 30
0.0
 11
49399.048726
 21
12884.186502
 31
0.0
  0
LINE
  8
12
  6
CONTINUOUS
 62
     4
  5
22D
 10
49401.848726
 20
12853.186512
 30
0.0
 11
49401.848726
 21
12884.186502
 31
0.0
  0
LINE
  8
12
  6
CONTINUOUS
 62
     4
  5
22E
 10
49399.048726
 20
12884.186502
 30
0.0
 11
49401.848726
 21
12884.186502
 31
0.0
  0
LINE
  8
12
  6
CONTINUOUS
 62
     4
  5
22F
 10
49400.448726
 20
12891.186502
 30
0.0
 11
49401.848726
 21
12884.186502
 31
0.0
  0
LINE
  8
12
  6
CONTINUOUS
 62
     4
  5
230
 10
49400.448726
 20
12891.186502
 30
0.0
 11
49399.048726
 21
12884.186502
 31
0.0
  0
LINE
  8
12
  6
CENTER
 62
     4
  5
231
 10
49400.448726
 20
12850.186522
 30
0.0
 11
49400.448726
 21
12891.186502
 31
0.0
  0
LINE
  8
12
  6
CENTER
 62
     4
  5
232
 10
49400.448726
 20
12891.186502
 30
0.0
 11
49400.448726
 21
12851.679482
 31
0.0
  0
LINE
  8
12
  6
CONTINUOUS
 62
     4
  5
233
 10
49335.576926
 20
12853.186512
 30
0.0
 11
49344.077026
 21
12853.186512
 31
0.0
  0
LINE
  8
12
  6
CONTINUOUS
 62
     4
  5
234
 10
49344.077026
 20
12853.186512
 30
0.0
 11
49344.077026
 21
12850.186522
 31
0.0
  0
LINE
  8
12
  6
CONTINUOUS
 62
     4
  5
235
 10
49335.576926
 20
12853.186512
 30
0.0
 11
49335.576926
 21
12850.186522
 31
0.0
  0
LINE
  8
12
  6
CONTINUOUS
 62
     4
  5
236
 10
49335.576926
 20
12850.186522
 30
0.0
 11
49335.576926
 21
12853.186512
 31
0.0
  0
LINE
  8
12
  6
CONTINUOUS
 62
     4
  5
237
 10
49344.077026
 20
12850.186522
 30
0.0
 11
49344.077026
 21
12853.186512
 31
0.0
  0
LINE
  8
12
  6
CONTINUOUS
 62
     4
  5
238
 10
49344.077026
 20
12850.186522
 30
0.0
 11
49335.576926
 21
12850.186522
 31
0.0
  0
ARC
  8
12
  6
CONTINUOUS
 62
     4
  5
239
 10
49339.826906
 20
12858.717772
 30
0.0
 40
9.53134
 50
243.51896
 51
296.48104
  0
LINE
  8
12
  6
CONTINUOUS
 62
     4
  5
23A
 10
49338.426906
 20
12853.186512
 30
0.0
 11
49338.426906
 21
12884.186502
 31
0.0
  0
LINE
  8
12
  6
CONTINUOUS
 62
     4
  5
23B
 10
49341.226906
 20
12853.186512
 30
0.0
 11
49341.226906
 21
12884.186502
 31
0.0
  0
LINE
  8
12
  6
CONTINUOUS
 62
     4
  5
23C
 10
49338.426906
 20
12884.186502
 30
0.0
 11
49341.226906
 21
12884.186502
 31
0.0
  0
LINE
  8
12
  6
CONTINUOUS
 62
     4
  5
23D
 10
49339.826906
 20
12891.186502
 30
0.0
 11
49341.226906
 21
12884.186502
 31
0.0
  0
LINE
  8
12
  6
CONTINUOUS
 62
     4
  5
23E
 10
49339.826906
 20
12891.186502
 30
0.0
 11
49338.426906
 21
12884.186502
 31
0.0
  0
LINE
  8
12
  6
CENTER
 62
     4
  5
23F
 10
49339.826906
 20
12850.186522
 30
0.0
 11
49339.826906
 21
12891.186502
 31
0.0
  0
LINE
  8
12
  6
CENTER
 62
     4
  5
240
 10
49339.826906
 20
12891.186502
 30
0.0
 11
49339.826906
 21
12851.679482
 31
0.0
  0
LINE
  8
12
  6
CONTINUOUS
 62
     4
  5
241
 10
49394.740226
 20
12853.433752
 30
0.0
 11
49406.240246
 21
12853.433752
 31
0.0
  0
LINE
  8
12
  6
CONTINUOUS
 62
     4
  5
242
 10
49394.740226
 20
12854.233642
 30
0.0
 11
49406.240246
 21
12854.233642
 31
0.0
  0
LINE
  8
12
  6
CONTINUOUS
 62
     4
  5
243
 10
49394.740226
 20
12853.433752
 30
0.0
 11
49394.740226
 21
12854.233642
 31
0.0
  0
LINE
  8
12
  6
CONTINUOUS
 62
     4
  5
244
 10
49397.740146
 20
12853.433752
 30
0.0
 11
49397.740146
 21
12854.233642
 31
0.0
  0
LINE
  8
12
  6
CONTINUOUS
 62
     4
  5
245
 10
49403.240186
 20
12853.433752
 30
0.0
 11
49403.240186
 21
12854.233642
 31
0.0
  0
LINE
  8
12
  6
CONTINUOUS
 62
     4
  5
246
 10
49406.240246
 20
12853.433752
 30
0.0
 11
49406.240246
 21
12854.233642
 31
0.0
  0
LINE
  8
12
  6
CONTINUOUS
 62
     4
  5
247
 10
49334.122046
 20
12853.433752
 30
0.0
 11
49345.622066
 21
12853.433752
 31
0.0
  0
LINE
  8
12
  6
CONTINUOUS
 62
     4
  5
248
 10
49334.122046
 20
12854.233642
 30
0.0
 11
49345.622066
 21
12854.233642
 31
0.0
  0
LINE
  8
12
  6
CONTINUOUS
 62
     4
  5
249
 10
49334.122046
 20
12853.433752
 30
0.0
 11
49334.122046
 21
12854.233642
 31
0.0
  0
LINE
  8
12
  6
CONTINUOUS
 62
     4
  5
24A
 10
49337.122106
 20
12853.433752
 30
0.0
 11
49337.122106
 21
12854.233642
 31
0.0
  0
LINE
  8
12
  6
CONTINUOUS
 62
     4
  5
24B
 10
49342.622146
 20
12853.433752
 30
0.0
 11
49342.622146
 21
12854.233642
 31
0.0
  0
LINE
  8
12
  6
CONTINUOUS
 62
     4
  5
24C
 10
49345.622066
 20
12853.433752
 30
0.0
 11
49345.622066
 21
12854.233642
 31
0.0
  0
LINE
  8
8
  6
CONTINUOUS
 62
     4
  5
24D
 10
49353.137406
 20
12839.979892
 30
0.0
 11
49326.641846
 21
12846.817422
 31
0.0
  0
LINE
  8
8
  6
CONTINUOUS
 62
     4
  5
24E
 10
49386.949646
 20
12839.949442
 30
0.0
 11
49413.680686
 21
12846.847802
 31
0.0
  0
ARC
  8
8
  6
CONTINUOUS
 62
     4
  5
24F
 10
49388.105626
 20
12836.150542
 30
0.0
 40
4.00008
 50
104.470294
 51
180.0
  0
LINE
  8
50
  6
CENTER
 62
     4
  5
250
 10
49400.490166
 20
12853.433752
 30
0.0
 11
49400.490166
 21
12855.555732
 31
0.0
  0
LINE
  8
50
  6
CENTER
 62
     4
  5
251
 10
49339.872126
 20
12853.433752
 30
0.0
 11
49339.872126
 21
12855.555732
 31
0.0
  0
ARC
  8
8
  6
CONTINUOUS
 62
     4
  5
252
 10
49352.143406
 20
12836.099652
 30
0.0
 40
4.00008
 50
360.0
 51
75.529706
  0
LINE
  8
7
  6
CONTINUOUS
 62
     3
  5
253
 10
49384.537806
 20
12844.236381
 30
0.0
 11
49384.537806
 21
12814.186172
 31
0.0
  0
LINE
  8
40
  6
DOT
 62
     3
  5
254
 10
49363.037866
 20
12808.186192
 30
0.0
 11
49378.037886
 21
12808.186192
 31
0.0
  0
LINE
  8
40
  6
DOT
 62
     3
  5
255
 10
49363.037866
 20
12808.186192
 30
0.0
 11
49363.037866
 21
12814.186312
 31
0.0
  0
LINE
  8
40
  6
DOT
 62
     3
  5
256
 10
49378.037886
 20
12808.186192
 30
0.0
 11
49378.037886
 21
12814.186312
 31
0.0
  0
LINE
  8
40
  6
CONTINUOUS
 62
     4
  5
257
 10
49384.537806
 20
12814.186172
 30
0.0
 11
49384.537806
 21
12836.770505
 31
0.0
  0
LINE
  8
40
  6
CONTINUOUS
 62
     4
  5
258
 10
49356.537806
 20
12814.186172
 30
0.0
 11
49356.537806
 21
12836.770505
 31
0.0
  0
LINE
  8
40
  6
CONTINUOUS
 62
     4
  5
259
 10
49384.537806
 20
12814.186312
 30
0.0
 11
49356.537806
 21
12814.186312
 31
0.0
  0
LINE
  8
40
  6
DOT
 62
     3
  5
25A
 10
48947.271219
 20
12808.186192
 30
0.0
 11
48932.271199
 21
12808.186192
 31
0.0
  0
LINE
  8
40
  6
DOT
 62
     3
  5
25B
 10
48947.271219
 20
12808.186192
 30
0.0
 11
48947.271219
 21
12814.186312
 31
0.0
  0
LINE
  8
40
  6
DOT
 62
     3
  5
25C
 10
48932.271199
 20
12808.186192
 30
0.0
 11
48932.271199
 21
12814.186312
 31
0.0
  0
LINE
  8
40
  6
CONTINUOUS
 62
     4
  5
25D
 10
48953.771279
 20
12814.186172
 30
0.0
 11
48953.771279
 21
12836.770505
 31
0.0
  0
LINE
  8
7
  6
CONTINUOUS
 62
     4
  5
25E
 10
48925.771279
 20
12844.236381
 30
0.0
 11
48925.771279
 21
12814.186172
 31
0.0
  0
LINE
  8
7
  6
CONTINUOUS
 62
     4
  5
25F
 10
48925.771279
 20
12789.144331
 30
0.0
 11
49384.537806
 21
12789.144331
 31
0.0
  0
ARC
  8
7
  6
CONTINUOUS
 62
     4
  5
260
 10
48925.771279
 20
12799.161067
 30
0.0
 40
10.016736
 50
180.0
 51
270.0
  0
LINE
  8
7
  6
CONTINUOUS
 62
     4
  5
261
 10
48915.754543
 20
12799.161067
 30
0.0
 11
48915.754543
 21
12814.186172
 31
0.0
  0
LINE
  8
40
  6
CONTINUOUS
 62
     4
  5
262
 10
48925.771279
 20
12814.186172
 30
0.0
 11
48925.771279
 21
12836.770505
 31
0.0
  0
LINE
  8
40
  6
CONTINUOUS
 62
     4
  5
263
 10
48925.771279
 20
12814.186312
 30
0.0
 11
48953.771279
 21
12814.186312
 31
0.0
  0
LINE
  8
7
  6
CONTINUOUS
 62
     4
  5
264
 10
49394.554543
 20
12799.161067
 30
0.0
 11
49394.554543
 21
12814.186172
 31
0.0
  0
LINE
  8
7
  6
CONTINUOUS
 62
     4
  5
265
 10
48915.754543
 20
12814.186172
 30
0.0
 11
49394.554543
 21
12814.186172
 31
0.0
  0
ARC
  8
7
  6
CONTINUOUS
 62
     4
  5
266
 10
49384.537806
 20
12799.161067
 30
0.0
 40
10.016736
 50
270.0
 51
360.0
  0
LINE
  8
5
  6
CONTINUOUS
 62
     3
  5
267
 10
49224.332807
 20
12789.144331
 30
0.0
 11
49137.730267
 21
12639.144331
 31
0.0
  0
LINE
  8
1
  6
CONTINUOUS
 62
     4
  5
268
 10
49923.199191
 20
12864.314337
 30
0.0
 11
48185.363842
 21
12864.314337
 31
0.0
  0
LINE
  8
3
  6
CONTINUOUS
 62
     1
  5
269
 10
48085.363842
 20
12139.314337
 30
0.0
 11
48085.363842
 21
12839.314337
 31
0.0
  0
ARC
  8
3
  6
CONTINUOUS
 62
     1
  5
26A
 10
48075.363842
 20
12839.314337
 30
0.0
 40
700.0
 50
180.0
 51
270.0
  0
LINE
  8
3
  6
CONTINUOUS
 62
     1
  5
26B
 10
48083.199191
 20
12839.314337
 30
0.0
 11
47375.363842
 21
12839.314337
 31
0.0
  0
LINE
  8
1
  6
CONTINUOUS
 62
     4
  5
26C
 10
49923.199191
 20
12839.314337
 30
0.0
 11
49923.199191
 21
12864.314337
 31
0.0
  0
LINE
  8
1
  6
CONTINUOUS
 62
     4
  5
26D
 10
48185.363842
 20
12839.314337
 30
0.0
 11
48185.363842
 21
12864.314337
 31
0.0
  0
LINE
  8
5
  6
CONTINUOUS
 62
     3
  5
26E
 10
49137.730267
 20
12639.144331
 30
0.0
 11
48727.730267
 21
12639.144331
 31
0.0
  0
TEXT
  8
5
  6
CONTINUOUS
 62
     3
  5
26F
 10
48753.911447
 20
12639.144331
 30
0.0
 40
60.0
  1
テスリックス
 41
0.837
  7

 72
     5
 11
49113.911447
 21
12639.144331
 31
0.0
  0
LINE
  8
3
  6
CONTINUOUS
 62
     6
  5
270
 10
49697.090757
 20
8918.249068
 30
0.0
 11
49147.490749
 21
8918.249068
 31
0.0
  0
LINE
  8
3
  6
CONTINUOUS
 62
     6
  5
271
 10
49769.090758
 20
8588.649064
 30
0.0
 11
49689.090757
 21
8588.649064
 31
0.0
  0
LINE
  8
3
  6
CONTINUOUS
 62
     6
  5
272
 10
49900.29076
 20
9291.849074
 30
0.0
 11
49710.290757
 21
9291.849074
 31
0.0
  0
LINE
  8
3
  6
CONTINUOUS
 62
     6
  5
273
 10
49697.090757
 20
8970.249069
 30
0.0
 11
49697.090757
 21
8918.249068
 31
0.0
  0
LINE
  8
3
  6
CONTINUOUS
 62
     6
  5
274
 10
49141.490749
 20
8937.449069
 30
0.0
 11
49587.490755
 21
8937.449069
 31
0.0
  0
LINE
  8
3
  6
CONTINUOUS
 62
     6
  5
275
 10
49697.090757
 20
8923.449069
 30
0.0
 11
49896.29076
 21
8923.449069
 31
0.0
  0
LINE
  8
3
  6
CONTINUOUS
 62
     6
  5
276
 10
49587.490755
 20
8970.249069
 30
0.0
 11
49587.490755
 21
8918.249068
 31
0.0
  0
LINE
  8
3
  6
CONTINUOUS
 62
     6
  5
277
 10
49697.090757
 20
8970.249069
 30
0.0
 11
49519.490754
 21
8970.249069
 31
0.0
  0
LINE
  8
3
  6
CONTINUOUS
 62
     6
  5
278
 10
49349.490752
 20
8558.649063
 30
0.0
 11
49349.890752
 21
8583.449063
 31
0.0
  0
LINE
  8
3
  6
CONTINUOUS
 62
     6
  5
279
 10
49349.890752
 20
8583.449063
 30
0.0
 11
49350.690752
 21
8608.249064
 31
0.0
  0
LINE
  8
3
  6
CONTINUOUS
 62
     6
  5
27A
 10
49350.690752
 20
8608.249064
 30
0.0
 11
49351.890752
 21
8633.449064
 31
0.0
  0
LINE
  8
3
  6
CONTINUOUS
 62
     6
  5
27B
 10
49351.890752
 20
8633.449064
 30
0.0
 11
49353.090752
 21
8658.249065
 31
0.0
  0
LINE
  8
3
  6
CONTINUOUS
 62
     6
  5
27C
 10
49353.090752
 20
8658.249065
 30
0.0
 11
49354.290752
 21
8683.449065
 31
0.0
  0
LINE
  8
3
  6
CONTINUOUS
 62
     6
  5
27D
 10
49354.290752
 20
8683.449065
 30
0.0
 11
49355.890752
 21
8707.049065
 31
0.0
  0
ARC
  8
3
  6
CONTINUOUS
 62
     6
  5
27E
 10
49209.09075
 20
8915.849068
 30
0.0
 40
60.000001
 50
177.62
 51
211.08
  0
ARC
  8
3
  6
CONTINUOUS
 62
     6
  5
27F
 10
49233.09075
 20
8585.849064
 30
0.0
 40
200.000003
 50
63.23
 51
68.24
  0
ARC
  8
3
  6
CONTINUOUS
 62
     6
  5
280
 10
49295.890751
 20
8711.049065
 30
0.0
 40
60.000001
 50
356.1
 51
63.23
  0
ARC
  8
3
  6
CONTINUOUS
 62
     6
  5
281
 10
49305.090751
 20
8533.049063
 30
0.0
 40
600.000009
 50
2.46
 51
13.08
  0
LINE
  8
3
  6
CONTINUOUS
 62
     6
  5
282
 10
49871.890759
 20
8923.049069
 30
0.0
 11
49862.690759
 21
8900.249068
 31
0.0
  0
LINE
  8
3
  6
CONTINUOUS
 62
     6
  5
283
 10
49862.690759
 20
8900.249068
 30
0.0
 11
49853.090759
 21
8877.449068
 31
0.0
  0
LINE
  8
3
  6
CONTINUOUS
 62
     6
  5
284
 10
49853.090759
 20
8877.449068
 30
0.0
 11
49842.290759
 21
8854.649068
 31
0.0
  0
LINE
  8
3
  6
CONTINUOUS
 62
     6
  5
285
 10
49842.290759
 20
8854.649068
 30
0.0
 11
49830.690759
 21
8832.249067
 31
0.0
  0
LINE
  8
3
  6
CONTINUOUS
 62
     6
  5
286
 10
49830.690759
 20
8832.249067
 30
0.0
 11
49818.690759
 21
8810.649067
 31
0.0
  0
LINE
  8
3
  6
CONTINUOUS
 62
     6
  5
287
 10
49818.690759
 20
8810.649067
 30
0.0
 11
49810.290758
 21
8796.249067
 31
0.0
  0
ARC
  8
3
  6
CONTINUOUS
 62
     6
  5
288
 10
49737.090757
 20
8618.649064
 30
0.0
 40
160.000002
 50
18.17
 51
58.58
  0
ARC
  8
3
  6
CONTINUOUS
 62
     6
  5
289
 10
49836.290759
 20
8781.049066
 30
0.0
 40
30.0
 50
149.15
 51
238.58
  0
ARC
  8
3
  6
CONTINUOUS
 62
     6
  5
28A
 10
49177.490749
 20
8897.449068
 30
0.0
 40
400.000006
 50
336.56
 51
352.94
  0
ARC
  8
3
  6
CONTINUOUS
 62
     6
  5
28B
 10
49269.49075
 20
8604.249064
 30
0.0
 40
500.000007
 50
358.21
 51
9.62
  0
ARC
  8
3
  6
CONTINUOUS
 62
     6
  5
28C
 10
49565.490755
 20
8654.249065
 30
0.0
 40
200.000003
 50
9.62
 51
24.37
  0
ARC
  8
3
  6
CONTINUOUS
 62
     6
  5
28D
 10
50188.690764
 20
8604.249064
 30
0.0
 40
500.000007
 50
170.39
 51
181.8
  0
ARC
  8
3
  6
CONTINUOUS
 62
     6
  5
28E
 10
49729.090757
 20
8728.649066
 30
0.0
 40
20.0
 50
24.37
 51
155.64
  0
ARC
  8
3
  6
CONTINUOUS
 62
     6
  5
28F
 10
49893.09076
 20
8654.249065
 30
0.0
 40
200.000003
 50
155.64
 51
170.39
  0
LINE
  8
3
  6
CONTINUOUS
 62
     6
  5
290
 10
49229.89075
 20
8961.849069
 30
0.0
 11
49254.69075
 21
8963.849069
 31
0.0
  0
LINE
  8
3
  6
CONTINUOUS
 62
     6
  5
291
 10
49254.69075
 20
8963.849069
 30
0.0
 11
49279.490751
 21
8965.449069
 31
0.0
  0
LINE
  8
3
  6
CONTINUOUS
 62
     6
  5
292
 10
49279.490751
 20
8965.449069
 30
0.0
 11
49304.690751
 21
8966.649069
 31
0.0
  0
LINE
  8
3
  6
CONTINUOUS
 62
     6
  5
293
 10
49304.690751
 20
8966.649069
 30
0.0
 11
49329.490751
 21
8967.449069
 31
0.0
  0
LINE
  8
3
  6
CONTINUOUS
 62
     6
  5
294
 10
49329.490751
 20
8967.449069
 30
0.0
 11
49342.690752
 21
8967.849069
 31
0.0
  0
ARC
  8
3
  6
CONTINUOUS
 62
     6
  5
295
 10
49270.69075
 20
8464.249062
 30
0.0
 40
500.000007
 50
94.7
 51
100.85
  0
ARC
  8
3
  6
CONTINUOUS
 62
     6
  5
296
 10
49199.090749
 20
8837.049067
 30
0.0
 40
120.000002
 50
100.85
 51
109.02
  0
ARC
  8
3
  6
CONTINUOUS
 62
     6
  5
297
 10
49173.090749
 20
8912.249068
 30
0.0
 40
40.000001
 50
109.02
 51
141.74
  0
LINE
  8
3
  6
CONTINUOUS
 62
     6
  5
298
 10
49684.290757
 20
8969.849069
 30
0.0
 11
49684.290757
 21
8995.04907
 31
0.0
  0
LINE
  8
3
  6
CONTINUOUS
 62
     6
  5
299
 10
49684.290757
 20
8995.04907
 30
0.0
 11
49684.690757
 21
9019.84907
 31
0.0
  0
LINE
  8
3
  6
CONTINUOUS
 62
     6
  5
29A
 10
49684.690757
 20
9019.84907
 30
0.0
 11
49685.490757
 21
9045.04907
 31
0.0
  0
LINE
  8
3
  6
CONTINUOUS
 62
     6
  5
29B
 10
49685.490757
 20
9045.04907
 30
0.0
 11
49686.690757
 21
9069.849071
 31
0.0
  0
LINE
  8
3
  6
CONTINUOUS
 62
     6
  5
29C
 10
49686.690757
 20
9069.849071
 30
0.0
 11
49688.290757
 21
9095.049071
 31
0.0
  0
LINE
  8
3
  6
CONTINUOUS
 62
     6
  5
29D
 10
49688.290757
 20
9095.049071
 30
0.0
 11
49689.890757
 21
9119.849071
 31
0.0
  0
LINE
  8
3
  6
CONTINUOUS
 62
     6
  5
29E
 10
49689.890757
 20
9119.849071
 30
0.0
 11
49691.890757
 21
9145.049072
 31
0.0
  0
LINE
  8
3
  6
CONTINUOUS
 62
     6
  5
29F
 10
49691.890757
 20
9145.049072
 30
0.0
 11
49694.290757
 21
9169.849072
 31
0.0
  0
LINE
  8
3
  6
CONTINUOUS
 62
     6
  5
2A0
 10
49694.290757
 20
9169.849072
 30
0.0
 11
49702.690757
 21
9244.249073
 31
0.0
  0
LINE
  8
3
  6
CONTINUOUS
 62
     6
  5
2A1
 10
49703.090757
 20
9244.249073
 30
0.0
 11
49707.090757
 21
9269.049074
 31
0.0
  0
LINE
  8
3
  6
CONTINUOUS
 62
     6
  5
2A2
 10
49715.090757
 20
9318.249074
 30
0.0
 11
49707.090757
 21
9269.049074
 31
0.0
  0
LINE
  8
3
  6
CONTINUOUS
 62
     6
  5
2A3
 10
49715.090757
 20
9318.249074
 30
0.0
 11
49715.090757
 21
9318.649074
 31
0.0
  0
ARC
  8
3
  6
CONTINUOUS
 62
     6
  5
2A4
 10
49183.890749
 20
8901.449068
 30
0.0
 40
40.000001
 50
116.04
 51
154.95
  0
LINE
  8
3
  6
CONTINUOUS
 62
     6
  5
2A5
 10
49342.690752
 20
8967.849069
 30
0.0
 11
49367.890752
 21
8968.649069
 31
0.0
  0
LINE
  8
3
  6
CONTINUOUS
 62
     6
  5
2A6
 10
49367.890752
 20
8968.649069
 30
0.0
 11
49392.690752
 21
8969.049069
 31
0.0
  0
LINE
  8
3
  6
CONTINUOUS
 62
     6
  5
2A7
 10
49392.690752
 20
8969.049069
 30
0.0
 11
49417.890753
 21
8969.449069
 31
0.0
  0
LINE
  8
3
  6
CONTINUOUS
 62
     6
  5
2A8
 10
49417.890753
 20
8969.449069
 30
0.0
 11
49442.690753
 21
8969.849069
 31
0.0
  0
LINE
  8
3
  6
CONTINUOUS
 62
     6
  5
2A9
 10
49442.690753
 20
8969.849069
 30
0.0
 11
49467.890753
 21
8969.849069
 31
0.0
  0
LINE
  8
3
  6
CONTINUOUS
 62
     6
  5
2AA
 10
49467.890753
 20
8969.849069
 30
0.0
 11
49492.690754
 21
8969.849069
 31
0.0
  0
LINE
  8
3
  6
CONTINUOUS
 62
     6
  5
2AB
 10
49492.690754
 20
8969.849069
 30
0.0
 11
49517.890754
 21
8969.849069
 31
0.0
  0
LINE
  8
3
  6
CONTINUOUS
 62
     6
  5
2AC
 10
49517.890754
 20
8969.849069
 30
0.0
 11
49519.490754
 21
8970.249069
 31
0.0
  0
ARC
  8
3
  6
CONTINUOUS
 62
     6
  5
2AD
 10
49455.090753
 20
9142.649072
 30
0.0
 40
400.000006
 50
230.77
 51
248.24
  0
ARC
  8
3
  6
CONTINUOUS
 62
     6
  5
2AE
 10
49328.690751
 20
8987.84907
 30
0.0
 40
200.000003
 50
211.08
 51
230.77
  0
LINE
  8
3
  6
CONTINUOUS
 62
     6
  5
2AF
 10
49897.09076
 20
9342.649075
 30
0.0
 11
49898.69076
 21
9317.849074
 31
0.0
  0
LINE
  8
3
  6
CONTINUOUS
 62
     6
  5
2B0
 10
49898.69076
 20
9317.849074
 30
0.0
 11
49900.29076
 21
9292.649074
 31
0.0
  0
LINE
  8
3
  6
CONTINUOUS
 62
     6
  5
2B1
 10
49900.29076
 20
9292.649074
 30
0.0
 11
49901.09076
 21
9267.849074
 31
0.0
  0
LINE
  8
3
  6
CONTINUOUS
 62
     6
  5
2B2
 10
49901.09076
 20
9267.849074
 30
0.0
 11
49902.29076
 21
9242.649073
 31
0.0
  0
LINE
  8
3
  6
CONTINUOUS
 62
     6
  5
2B3
 10
49902.29076
 20
9242.649073
 30
0.0
 11
49903.09076
 21
9217.849073
 31
0.0
  0
LINE
  8
3
  6
CONTINUOUS
 62
     6
  5
2B4
 10
49903.09076
 20
9217.849073
 30
0.0
 11
49903.49076
 21
9192.649073
 31
0.0
  0
LINE
  8
3
  6
CONTINUOUS
 62
     6
  5
2B5
 10
49903.49076
 20
9192.649073
 30
0.0
 11
49903.89076
 21
9167.849072
 31
0.0
  0
LINE
  8
3
  6
CONTINUOUS
 62
     6
  5
2B6
 10
49903.89076
 20
9167.849072
 30
0.0
 11
49903.89076
 21
9142.649072
 31
0.0
  0
LINE
  8
3
  6
CONTINUOUS
 62
     6
  5
2B7
 10
49903.89076
 20
9142.649072
 30
0.0
 11
49903.89076
 21
9117.849071
 31
0.0
  0
LINE
  8
3
  6
CONTINUOUS
 62
     6
  5
2B8
 10
49903.89076
 20
9117.849071
 30
0.0
 11
49903.49076
 21
9092.649071
 31
0.0
  0
LINE
  8
3
  6
CONTINUOUS
 62
     6
  5
2B9
 10
49903.49076
 20
9092.649071
 30
0.0
 11
49903.09076
 21
9067.849071
 31
0.0
  0
LINE
  8
3
  6
CONTINUOUS
 62
     6
  5
2BA
 10
49903.09076
 20
9067.849071
 30
0.0
 11
49902.29076
 21
9042.64907
 31
0.0
  0
LINE
  8
3
  6
CONTINUOUS
 62
     6
  5
2BB
 10
49902.29076
 20
9042.64907
 30
0.0
 11
49901.49076
 21
9017.84907
 31
0.0
  0
LINE
  8
3
  6
CONTINUOUS
 62
     6
  5
2BC
 10
49901.49076
 20
9017.84907
 30
0.0
 11
49900.29076
 21
8992.64907
 31
0.0
  0
LINE
  8
3
  6
CONTINUOUS
 62
     6
  5
2BD
 10
49900.29076
 20
8992.64907
 30
0.0
 11
49899.09076
 21
8967.849069
 31
0.0
  0
LINE
  8
3
  6
CONTINUOUS
 62
     6
  5
2BE
 10
49899.09076
 20
8967.849069
 30
0.0
 11
49897.49076
 21
8943.049069
 31
0.0
  0
LINE
  8
3
  6
CONTINUOUS
 62
     6
  5
2BF
 10
49897.49076
 20
8943.049069
 30
0.0
 11
49896.29076
 21
8923.449069
 31
0.0
  0
ARC
  8
3
  6
CONTINUOUS
 62
     6
  5
2C0
 10
49924.29076
 20
9174.649072
 30
0.0
 40
170.000003
 50
99.28
 51
116.72
  0
ARC
  8
3
  6
CONTINUOUS
 62
     6
  5
2C1
 10
49809.490758
 20
8868.649068
 30
0.0
 40
460.000007
 50
85.21
 51
101.86
  0
LINE
  8
52
  6
CONTINUOUS
 62
     6
  5
2C2
 10
49892.489418
 20
8655.371656
 30
0.0
 11
49895.91997
 21
8658.802209
 31
0.0
  0
LINE
  8
5
  6
CONTINUOUS
 62
     3
  5
2C3
 10
48573.199184
 20
8558.802209
 30
0.0
 11
48773.199184
 21
8558.802209
 31
0.0
  0
CIRCLE
  8
5
  6
CONTINUOUS
 62
     3
  5
2C4
 10
48573.199184
 20
8558.802209
 30
0.0
 40
7.5
  0
CIRCLE
  8
5
  6
CONTINUOUS
 62
     3
  5
2C5
 10
48673.199184
 20
8558.802209
 30
0.0
 40
7.5
  0
LINE
  8
5
  6
CONTINUOUS
 62
     3
  5
2C6
 10
49923.199191
 20
9853.802216
 30
0.0
 11
49923.199191
 21
9653.802216
 31
0.0
  0
CIRCLE
  8
5
  6
CONTINUOUS
 62
     3
  5
2C7
 10
49923.199191
 20
9853.802216
 30
0.0
 40
7.5
  0
CIRCLE
  8
5
  6
CONTINUOUS
 62
     3
  5
2C8
 10
49923.199191
 20
9753.802216
 30
0.0
 40
7.5
  0
ARC
  8
80
  6
CONTINUOUS
 62
     4
  5
2C9
 10
48828.699185
 20
9443.502213
 30
0.0
 40
7.7
 50
30.0
 51
210.0
  0
ARC
  8
80
  6
CONTINUOUS
 62
     4
  5
2CA
 10
48828.699185
 20
9443.502213
 30
0.0
 40
6.8
 50
30.0
 51
210.0
  0
LINE
  8
80
  6
CONTINUOUS
 62
     4
  5
2CB
 10
48838.799185
 20
9441.202213
 30
0.0
 11
48835.299185
 21
9447.302213
 31
0.0
  0
LINE
  8
80
  6
CONTINUOUS
 62
     4
  5
2CC
 10
48834.499185
 20
9446.802213
 30
0.0
 11
48837.699185
 21
9441.402213
 31
0.0
  0
ARC
  8
80
  6
CONTINUOUS
 62
     4
  5
2CD
 10
48811.199184
 20
9473.802214
 30
0.0
 40
41.800001
 50
290.63
 51
309.02
  0
LINE
  8
80
  6
CONTINUOUS
 62
     4
  5
2CE
 10
48822.799185
 20
9440.102213
 30
0.0
 11
48825.899185
 21
9434.702213
 31
0.0
  0
LINE
  8
80
  6
CONTINUOUS
 62
     4
  5
2CF
 10
48825.499185
 20
9433.602213
 30
0.0
 11
48821.999185
 21
9439.602213
 31
0.0
  0
ARC
  8
80
  6
CONTINUOUS
 62
     4
  5
2D0
 10
48776.199184
 20
9473.802214
 30
0.0
 40
7.7
 50
270.0
 51
90.0
  0
ARC
  8
80
  6
CONTINUOUS
 62
     4
  5
2D1
 10
48776.199184
 20
9473.802214
 30
0.0
 40
6.8
 50
270.0
 51
90.0
  0
LINE
  8
80
  6
CONTINUOUS
 62
     4
  5
2D2
 10
48769.199184
 20
9466.202213
 30
0.0
 11
48776.199184
 21
9466.202213
 31
0.0
  0
LINE
  8
80
  6
CONTINUOUS
 62
     4
  5
2D3
 10
48776.199184
 20
9467.102213
 30
0.0
 11
48769.899184
 21
9467.102213
 31
0.0
  0
ARC
  8
80
  6
CONTINUOUS
 62
     4
  5
2D4
 10
48811.199184
 20
9473.802214
 30
0.0
 40
41.800001
 50
170.63
 51
189.02
  0
LINE
  8
80
  6
CONTINUOUS
 62
     4
  5
2D5
 10
48776.199184
 20
9480.602214
 30
0.0
 11
48769.999184
 21
9480.602214
 31
0.0
  0
LINE
  8
80
  6
CONTINUOUS
 62
     4
  5
2D6
 10
48769.199184
 20
9481.502214
 30
0.0
 11
48776.199184
 21
9481.502214
 31
0.0
  0
ARC
  8
80
  6
CONTINUOUS
 62
     4
  5
2D7
 10
48828.699185
 20
9504.102214
 30
0.0
 40
7.7
 50
150.0
 51
330.0
  0
ARC
  8
80
  6
CONTINUOUS
 62
     4
  5
2D8
 10
48828.699185
 20
9504.102214
 30
0.0
 40
6.8
 50
150.0
 51
330.0
  0
LINE
  8
80
  6
CONTINUOUS
 62
     4
  5
2D9
 10
48825.599185
 20
9514.002214
 30
0.0
 11
48822.099185
 21
9507.902214
 31
0.0
  0
LINE
  8
80
  6
CONTINUOUS
 62
     4
  5
2DA
 10
48822.899185
 20
9507.502214
 30
0.0
 11
48825.999185
 21
9512.902214
 31
0.0
  0
ARC
  8
80
  6
CONTINUOUS
 62
     4
  5
2DB
 10
48811.199184
 20
9473.802214
 30
0.0
 40
41.800001
 50
50.63
 51
69.02
  0
LINE
  8
80
  6
CONTINUOUS
 62
     4
  5
2DC
 10
48834.599185
 20
9500.702214
 30
0.0
 11
48837.699185
 21
9506.102214
 31
0.0
  0
LINE
  8
80
  6
CONTINUOUS
 62
     4
  5
2DD
 10
48838.899185
 20
9506.302214
 30
0.0
 11
48835.399185
 21
9500.302214
 31
0.0
  0
ARC
  8
80
  6
CONTINUOUS
 62
     4
  5
2DE
 10
48828.699185
 20
9143.502209
 30
0.0
 40
7.7
 50
30.0
 51
210.0
  0
ARC
  8
80
  6
CONTINUOUS
 62
     4
  5
2DF
 10
48828.699185
 20
9143.502209
 30
0.0
 40
6.8
 50
30.0
 51
210.0
  0
LINE
  8
80
  6
CONTINUOUS
 62
     4
  5
2E0
 10
48838.799185
 20
9141.202209
 30
0.0
 11
48835.299185
 21
9147.302209
 31
0.0
  0
LINE
  8
80
  6
CONTINUOUS
 62
     4
  5
2E1
 10
48834.499185
 20
9146.802209
 30
0.0
 11
48837.699185
 21
9141.402209
 31
0.0
  0
ARC
  8
80
  6
CONTINUOUS
 62
     4
  5
2E2
 10
48811.199184
 20
9173.802209
 30
0.0
 40
41.800001
 50
290.63
 51
309.02
  0
LINE
  8
80
  6
CONTINUOUS
 62
     4
  5
2E3
 10
48822.799185
 20
9140.102209
 30
0.0
 11
48825.899185
 21
9134.702208
 31
0.0
  0
LINE
  8
80
  6
CONTINUOUS
 62
     4
  5
2E4
 10
48825.499185
 20
9133.602208
 30
0.0
 11
48821.999185
 21
9139.602209
 31
0.0
  0
ARC
  8
80
  6
CONTINUOUS
 62
     4
  5
2E5
 10
48776.199184
 20
9173.802209
 30
0.0
 40
7.7
 50
270.0
 51
90.0
  0
ARC
  8
80
  6
CONTINUOUS
 62
     4
  5
2E6
 10
48776.199184
 20
9173.802209
 30
0.0
 40
6.8
 50
270.0
 51
90.0
  0
LINE
  8
80
  6
CONTINUOUS
 62
     4
  5
2E7
 10
48769.199184
 20
9166.202209
 30
0.0
 11
48776.199184
 21
9166.202209
 31
0.0
  0
LINE
  8
80
  6
CONTINUOUS
 62
     4
  5
2E8
 10
48776.199184
 20
9167.102209
 30
0.0
 11
48769.899184
 21
9167.102209
 31
0.0
  0
ARC
  8
80
  6
CONTINUOUS
 62
     4
  5
2E9
 10
48811.199184
 20
9173.802209
 30
0.0
 40
41.800001
 50
170.63
 51
189.02
  0
LINE
  8
80
  6
CONTINUOUS
 62
     4
  5
2EA
 10
48776.199184
 20
9180.602209
 30
0.0
 11
48769.999184
 21
9180.602209
 31
0.0
  0
LINE
  8
80
  6
CONTINUOUS
 62
     4
  5
2EB
 10
48769.199184
 20
9181.502209
 30
0.0
 11
48776.199184
 21
9181.502209
 31
0.0
  0
ARC
  8
80
  6
CONTINUOUS
 62
     4
  5
2EC
 10
48828.699185
 20
9204.10221
 30
0.0
 40
7.7
 50
150.0
 51
330.0
  0
ARC
  8
80
  6
CONTINUOUS
 62
     4
  5
2ED
 10
48828.699185
 20
9204.10221
 30
0.0
 40
6.8
 50
150.0
 51
330.0
  0
LINE
  8
80
  6
CONTINUOUS
 62
     4
  5
2EE
 10
48825.599185
 20
9214.00221
 30
0.0
 11
48822.099185
 21
9207.90221
 31
0.0
  0
LINE
  8
80
  6
CONTINUOUS
 62
     4
  5
2EF
 10
48822.899185
 20
9207.50221
 30
0.0
 11
48825.999185
 21
9212.90221
 31
0.0
  0
ARC
  8
80
  6
CONTINUOUS
 62
     4
  5
2F0
 10
48811.199184
 20
9173.802209
 30
0.0
 40
41.800001
 50
50.63
 51
69.02
  0
LINE
  8
80
  6
CONTINUOUS
 62
     4
  5
2F1
 10
48834.599185
 20
9200.702209
 30
0.0
 11
48837.699185
 21
9206.10221
 31
0.0
  0
LINE
  8
80
  6
CONTINUOUS
 62
     4
  5
2F2
 10
48838.899185
 20
9206.30221
 30
0.0
 11
48835.399185
 21
9200.302209
 31
0.0
  0
ARC
  8
80
  6
CONTINUOUS
 62
     4
  5
2F3
 10
49227.699191
 20
9504.102214
 30
0.0
 40
7.7
 50
210.0
 51
30.0
  0
ARC
  8
80
  6
CONTINUOUS
 62
     4
  5
2F4
 10
49227.699191
 20
9504.102214
 30
0.0
 40
6.8
 50
210.0
 51
30.0
  0
LINE
  8
80
  6
CONTINUOUS
 62
     4
  5
2F5
 10
49217.59919
 20
9506.402214
 30
0.0
 11
49221.09919
 21
9500.302214
 31
0.0
  0
LINE
  8
80
  6
CONTINUOUS
 62
     4
  5
2F6
 10
49221.899191
 20
9500.802214
 30
0.0
 11
49218.69919
 21
9506.202214
 31
0.0
  0
ARC
  8
80
  6
CONTINUOUS
 62
     4
  5
2F7
 10
49245.199191
 20
9473.802214
 30
0.0
 40
41.800001
 50
110.63
 51
129.02
  0
LINE
  8
80
  6
CONTINUOUS
 62
     4
  5
2F8
 10
49233.599191
 20
9507.502214
 30
0.0
 11
49230.499191
 21
9512.902214
 31
0.0
  0
LINE
  8
80
  6
CONTINUOUS
 62
     4
  5
2F9
 10
49230.899191
 20
9514.002214
 30
0.0
 11
49234.399191
 21
9508.002214
 31
0.0
  0
ARC
  8
80
  6
CONTINUOUS
 62
     4
  5
2FA
 10
49280.199191
 20
9473.802214
 30
0.0
 40
7.7
 50
90.0
 51
270.0
  0
ARC
  8
80
  6
CONTINUOUS
 62
     4
  5
2FB
 10
49280.199191
 20
9473.802214
 30
0.0
 40
6.8
 50
90.0
 51
270.0
  0
LINE
  8
80
  6
CONTINUOUS
 62
     4
  5
2FC
 10
49287.199191
 20
9481.402214
 30
0.0
 11
49280.199191
 21
9481.402214
 31
0.0
  0
LINE
  8
80
  6
CONTINUOUS
 62
     4
  5
2FD
 10
49280.199191
 20
9480.502214
 30
0.0
 11
49286.499191
 21
9480.502214
 31
0.0
  0
ARC
  8
80
  6
CONTINUOUS
 62
     4
  5
2FE
 10
49245.199191
 20
9473.802214
 30
0.0
 40
41.800001
 50
350.63
 51
9.02
  0
LINE
  8
80
  6
CONTINUOUS
 62
     4
  5
2FF
 10
49280.199191
 20
9467.002213
 30
0.0
 11
49286.399191
 21
9467.002213
 31
0.0
  0
LINE
  8
80
  6
CONTINUOUS
 62
     4
  5
300
 10
49287.199191
 20
9466.102213
 30
0.0
 11
49280.199191
 21
9466.102213
 31
0.0
  0
ARC
  8
80
  6
CONTINUOUS
 62
     4
  5
301
 10
49227.699191
 20
9443.502213
 30
0.0
 40
7.7
 50
330.0
 51
150.0
  0
ARC
  8
80
  6
CONTINUOUS
 62
     4
  5
302
 10
49227.699191
 20
9443.502213
 30
0.0
 40
6.8
 50
330.0
 51
150.0
  0
LINE
  8
80
  6
CONTINUOUS
 62
     4
  5
303
 10
49230.799191
 20
9433.602213
 30
0.0
 11
49234.299191
 21
9439.702213
 31
0.0
  0
LINE
  8
80
  6
CONTINUOUS
 62
     4
  5
304
 10
49233.499191
 20
9440.102213
 30
0.0
 11
49230.399191
 21
9434.702213
 31
0.0
  0
ARC
  8
80
  6
CONTINUOUS
 62
     4
  5
305
 10
49245.199191
 20
9473.802214
 30
0.0
 40
41.800001
 50
230.63
 51
249.02
  0
LINE
  8
80
  6
CONTINUOUS
 62
     4
  5
306
 10
49221.79919
 20
9446.902213
 30
0.0
 11
49218.69919
 21
9441.502213
 31
0.0
  0
LINE
  8
80
  6
CONTINUOUS
 62
     4
  5
307
 10
49217.49919
 20
9441.302213
 30
0.0
 11
49220.99919
 21
9447.302213
 31
0.0
  0
ARC
  8
80
  6
CONTINUOUS
 62
     4
  5
308
 10
49227.699191
 20
9204.10221
 30
0.0
 40
7.7
 50
210.0
 51
30.0
  0
ARC
  8
80
  6
CONTINUOUS
 62
     4
  5
309
 10
49227.699191
 20
9204.10221
 30
0.0
 40
6.8
 50
210.0
 51
30.0
  0
LINE
  8
80
  6
CONTINUOUS
 62
     4
  5
30A
 10
49217.59919
 20
9206.40221
 30
0.0
 11
49221.09919
 21
9200.302209
 31
0.0
  0
LINE
  8
80
  6
CONTINUOUS
 62
     4
  5
30B
 10
49221.899191
 20
9200.802209
 30
0.0
 11
49218.69919
 21
9206.20221
 31
0.0
  0
ARC
  8
80
  6
CONTINUOUS
 62
     4
  5
30C
 10
49245.199191
 20
9173.802209
 30
0.0
 40
41.800001
 50
110.63
 51
129.02
  0
LINE
  8
80
  6
CONTINUOUS
 62
     4
  5
30D
 10
49233.599191
 20
9207.50221
 30
0.0
 11
49230.499191
 21
9212.90221
 31
0.0
  0
LINE
  8
80
  6
CONTINUOUS
 62
     4
  5
30E
 10
49230.899191
 20
9214.00221
 30
0.0
 11
49234.399191
 21
9208.00221
 31
0.0
  0
ARC
  8
80
  6
CONTINUOUS
 62
     4
  5
30F
 10
49280.199191
 20
9173.802209
 30
0.0
 40
7.7
 50
90.0
 51
270.0
  0
ARC
  8
80
  6
CONTINUOUS
 62
     4
  5
310
 10
49280.199191
 20
9173.802209
 30
0.0
 40
6.8
 50
90.0
 51
270.0
  0
LINE
  8
80
  6
CONTINUOUS
 62
     4
  5
311
 10
49287.199191
 20
9181.402209
 30
0.0
 11
49280.199191
 21
9181.402209
 31
0.0
  0
LINE
  8
80
  6
CONTINUOUS
 62
     4
  5
312
 10
49280.199191
 20
9180.502209
 30
0.0
 11
49286.499191
 21
9180.502209
 31
0.0
  0
ARC
  8
80
  6
CONTINUOUS
 62
     4
  5
313
 10
49245.199191
 20
9173.802209
 30
0.0
 40
41.800001
 50
350.63
 51
9.02
  0
LINE
  8
80
  6
CONTINUOUS
 62
     4
  5
314
 10
49280.199191
 20
9167.002209
 30
0.0
 11
49286.399191
 21
9167.002209
 31
0.0
  0
LINE
  8
80
  6
CONTINUOUS
 62
     4
  5
315
 10
49287.199191
 20
9166.102209
 30
0.0
 11
49280.199191
 21
9166.102209
 31
0.0
  0
ARC
  8
80
  6
CONTINUOUS
 62
     4
  5
316
 10
49227.699191
 20
9143.502209
 30
0.0
 40
7.7
 50
330.0
 51
150.0
  0
ARC
  8
80
  6
CONTINUOUS
 62
     4
  5
317
 10
49227.699191
 20
9143.502209
 30
0.0
 40
6.8
 50
330.0
 51
150.0
  0
LINE
  8
80
  6
CONTINUOUS
 62
     4
  5
318
 10
49230.799191
 20
9133.602208
 30
0.0
 11
49234.299191
 21
9139.702209
 31
0.0
  0
LINE
  8
80
  6
CONTINUOUS
 62
     4
  5
319
 10
49233.499191
 20
9140.102209
 30
0.0
 11
49230.399191
 21
9134.702208
 31
0.0
  0
ARC
  8
80
  6
CONTINUOUS
 62
     4
  5
31A
 10
49245.199191
 20
9173.802209
 30
0.0
 40
41.800001
 50
230.63
 51
249.02
  0
LINE
  8
80
  6
CONTINUOUS
 62
     4
  5
31B
 10
49221.79919
 20
9146.902209
 30
0.0
 11
49218.69919
 21
9141.502209
 31
0.0
  0
LINE
  8
80
  6
CONTINUOUS
 62
     4
  5
31C
 10
49217.49919
 20
9141.302209
 30
0.0
 11
49220.99919
 21
9147.302209
 31
0.0
  0
ARC
  8
80
  6
CONTINUOUS
 62
     4
  5
31D
 10
48811.199184
 20
9173.802209
 30
0.0
 40
45.000001
 50
119.87
 51
240.13
  0
ARC
  8
80
  6
DIVIDE
 62
     4
  5
31E
 10
48811.199184
 20
9173.802209
 30
0.0
 40
42.700001
 50
121.61
 51
238.39
  0
ARC
  8
80
  6
DIVIDE
 62
     4
  5
31F
 10
48811.199184
 20
9173.802209
 30
0.0
 40
42.700001
 50
278.62
 51
340.29
  0
ARC
  8
80
  6
DIVIDE
 62
     4
  5
320
 10
48811.199184
 20
9173.802209
 30
0.0
 40
42.700001
 50
19.71
 51
81.38
  0
ARC
  8
80
  6
CONTINUOUS
 62
     4
  5
321
 10
48811.199184
 20
9173.802209
 30
0.0
 40
45.000001
 50
278.18
 51
341.32
  0
ARC
  8
80
  6
CONTINUOUS
 62
     4
  5
322
 10
48811.199184
 20
9173.802209
 30
0.0
 40
45.000001
 50
18.68
 51
81.82
  0
ARC
  8
80
  6
DIVIDE
 62
     4
  5
323
 10
48811.199184
 20
9473.802214
 30
0.0
 40
42.700001
 50
121.61
 51
238.39
  0
ARC
  8
80
  6
CONTINUOUS
 62
     4
  5
324
 10
48811.199184
 20
9473.802214
 30
0.0
 40
45.000001
 50
119.87
 51
240.13
  0
ARC
  8
80
  6
DIVIDE
 62
     4
  5
325
 10
48811.199184
 20
9473.802214
 30
0.0
 40
42.700001
 50
278.62
 51
340.29
  0
ARC
  8
80
  6
DIVIDE
 62
     4
  5
326
 10
48811.199184
 20
9473.802214
 30
0.0
 40
42.700001
 50
19.71
 51
81.38
  0
ARC
  8
80
  6
CONTINUOUS
 62
     4
  5
327
 10
48811.199184
 20
9473.802214
 30
0.0
 40
45.000001
 50
278.18
 51
341.32
  0
ARC
  8
80
  6
CONTINUOUS
 62
     4
  5
328
 10
48811.199184
 20
9473.802214
 30
0.0
 40
45.000001
 50
18.68
 51
81.82
  0
ARC
  8
80
  6
DIVIDE
 62
     4
  5
329
 10
49245.199191
 20
9473.802214
 30
0.0
 40
42.700001
 50
199.71
 51
261.38
  0
ARC
  8
80
  6
CONTINUOUS
 62
     4
  5
32A
 10
49245.199191
 20
9473.802214
 30
0.0
 40
45.000001
 50
198.68
 51
261.82
  0
ARC
  8
80
  6
CONTINUOUS
 62
     4
  5
32B
 10
49245.199191
 20
9473.802214
 30
0.0
 40
45.000001
 50
299.87
 51
60.13
  0
ARC
  8
80
  6
CONTINUOUS
 62
     4
  5
32C
 10
49245.199191
 20
9473.802214
 30
0.0
 40
45.000001
 50
98.18
 51
161.32
  0
ARC
  8
80
  6
DIVIDE
 62
     4
  5
32D
 10
49245.199191
 20
9473.802214
 30
0.0
 40
42.700001
 50
301.61
 51
58.39
  0
ARC
  8
80
  6
DIVIDE
 62
     4
  5
32E
 10
49245.199191
 20
9473.802214
 30
0.0
 40
42.700001
 50
98.62
 51
160.29
  0
ARC
  8
80
  6
CONTINUOUS
 62
     4
  5
32F
 10
49245.199191
 20
9173.802209
 30
0.0
 40
45.000001
 50
198.68
 51
261.82
  0
ARC
  8
80
  6
DIVIDE
 62
     4
  5
330
 10
49245.199191
 20
9173.802209
 30
0.0
 40
42.700001
 50
199.71
 51
261.38
  0
ARC
  8
80
  6
DIVIDE
 62
     4
  5
331
 10
49245.199191
 20
9173.802209
 30
0.0
 40
42.700001
 50
301.61
 51
58.39
  0
ARC
  8
80
  6
DIVIDE
 62
     4
  5
332
 10
49245.199191
 20
9173.802209
 30
0.0
 40
42.700001
 50
98.62
 51
160.29
  0
ARC
  8
80
  6
CONTINUOUS
 62
     4
  5
333
 10
49245.199191
 20
9173.802209
 30
0.0
 40
45.000001
 50
299.87
 51
60.13
  0
ARC
  8
80
  6
CONTINUOUS
 62
     4
  5
334
 10
49245.199191
 20
9173.802209
 30
0.0
 40
45.000001
 50
98.18
 51
161.32
  0
CIRCLE
  8
80
  6
CONTINUOUS
 62
     4
  5
335
 10
48776.199184
 20
9473.802214
 30
0.0
 40
4.0
  0
CIRCLE
  8
80
  6
CONTINUOUS
 62
     4
  5
336
 10
48776.199184
 20
9473.802214
 30
0.0
 40
4.4
  0
CIRCLE
  8
80
  6
CONTINUOUS
 62
     4
  5
337
 10
48828.699185
 20
9443.502213
 30
0.0
 40
4.0
  0
CIRCLE
  8
80
  6
CONTINUOUS
 62
     4
  5
338
 10
48828.699185
 20
9443.502213
 30
0.0
 40
4.4
  0
CIRCLE
  8
80
  6
CONTINUOUS
 62
     4
  5
339
 10
48828.699185
 20
9504.102214
 30
0.0
 40
4.0
  0
CIRCLE
  8
80
  6
CONTINUOUS
 62
     4
  5
33A
 10
48828.699185
 20
9504.102214
 30
0.0
 40
4.4
  0
CIRCLE
  8
80
  6
CONTINUOUS
 62
     4
  5
33B
 10
48776.199184
 20
9173.802209
 30
0.0
 40
4.0
  0
CIRCLE
  8
80
  6
CONTINUOUS
 62
     4
  5
33C
 10
48776.199184
 20
9173.802209
 30
0.0
 40
4.4
  0
CIRCLE
  8
80
  6
CONTINUOUS
 62
     4
  5
33D
 10
48828.699185
 20
9204.10221
 30
0.0
 40
4.0
  0
CIRCLE
  8
80
  6
CONTINUOUS
 62
     4
  5
33E
 10
48828.699185
 20
9204.10221
 30
0.0
 40
4.4
  0
CIRCLE
  8
80
  6
CONTINUOUS
 62
     4
  5
33F
 10
48828.699185
 20
9143.502209
 30
0.0
 40
4.0
  0
CIRCLE
  8
80
  6
CONTINUOUS
 62
     4
  5
340
 10
48828.699185
 20
9143.502209
 30
0.0
 40
4.4
  0
CIRCLE
  8
80
  6
CONTINUOUS
 62
     4
  5
341
 10
49227.699191
 20
9143.502209
 30
0.0
 40
4.4
  0
CIRCLE
  8
80
  6
CONTINUOUS
 62
     4
  5
342
 10
49227.699191
 20
9143.502209
 30
0.0
 40
4.0
  0
CIRCLE
  8
80
  6
CONTINUOUS
 62
     4
  5
343
 10
49227.699191
 20
9204.10221
 30
0.0
 40
4.0
  0
CIRCLE
  8
80
  6
CONTINUOUS
 62
     4
  5
344
 10
49227.699191
 20
9204.10221
 30
0.0
 40
4.4
  0
CIRCLE
  8
80
  6
CONTINUOUS
 62
     4
  5
345
 10
49280.199191
 20
9173.802209
 30
0.0
 40
4.0
  0
CIRCLE
  8
80
  6
CONTINUOUS
 62
     4
  5
346
 10
49280.199191
 20
9173.802209
 30
0.0
 40
4.4
  0
CIRCLE
  8
80
  6
CONTINUOUS
 62
     4
  5
347
 10
49227.699191
 20
9443.502213
 30
0.0
 40
4.4
  0
CIRCLE
  8
80
  6
CONTINUOUS
 62
     4
  5
348
 10
49227.699191
 20
9443.502213
 30
0.0
 40
4.0
  0
CIRCLE
  8
80
  6
CONTINUOUS
 62
     4
  5
349
 10
49227.699191
 20
9504.102214
 30
0.0
 40
4.0
  0
CIRCLE
  8
80
  6
CONTINUOUS
 62
     4
  5
34A
 10
49227.699191
 20
9504.102214
 30
0.0
 40
4.4
  0
CIRCLE
  8
80
  6
CONTINUOUS
 62
     4
  5
34B
 10
49280.199191
 20
9473.802214
 30
0.0
 40
4.0
  0
CIRCLE
  8
80
  6
CONTINUOUS
 62
     4
  5
34C
 10
49280.199191
 20
9473.802214
 30
0.0
 40
4.4
  0
ARC
  8
80
  6
CONTINUOUS
 62
     4
  5
34D
 10
49222.599191
 20
9593.202215
 30
0.0
 40
45.000001
 50
360.0
 51
90.0
  0
ARC
  8
80
  6
CONTINUOUS
 62
     4
  5
34E
 10
48833.799185
 20
9593.202215
 30
0.0
 40
45.000001
 50
90.0
 51
180.0
  0
ARC
  8
80
  6
CONTINUOUS
 62
     4
  5
34F
 10
48835.599185
 20
9591.402215
 30
0.0
 40
18.0
 50
90.0
 51
180.0
  0
ARC
  8
80
  6
CONTINUOUS
 62
     4
  5
350
 10
49220.79919
 20
9591.402215
 30
0.0
 40
18.0
 50
360.0
 51
90.0
  0
POINT
  8
80
  6
CONTINUOUS
 62
     4
  5
351
 10
49028.199188
 20
9159.402209
 30
0.0
 50
57.29578
  0
LINE
  8
80
  6
CONTINUOUS
 62
     4
  5
352
 10
48985.599187
 20
9159.402209
 30
0.0
 11
49070.799188
 21
9159.402209
 31
0.0
  0
LINE
  8
80
  6
CONTINUOUS
 62
     4
  5
353
 10
48985.599187
 20
9188.202209
 30
0.0
 11
49070.799188
 21
9188.202209
 31
0.0
  0
LINE
  8
80
  6
CONTINUOUS
 62
     4
  5
354
 10
48985.599187
 20
9459.402213
 30
0.0
 11
49070.799188
 21
9459.402213
 31
0.0
  0
LINE
  8
80
  6
CONTINUOUS
 62
     4
  5
355
 10
48985.599187
 20
9488.202214
 30
0.0
 11
49070.799188
 21
9488.202214
 31
0.0
  0
LINE
  8
80
  6
CONTINUOUS
 62
     4
  5
356
 10
49088.799189
 20
9506.202214
 30
0.0
 11
49088.799189
 21
9591.402215
 31
0.0
  0
LINE
  8
80
  6
CONTINUOUS
 62
     4
  5
357
 10
48967.599187
 20
9506.202214
 30
0.0
 11
48967.599187
 21
9591.402215
 31
0.0
  0
ARC
  8
80
  6
CONTINUOUS
 62
     4
  5
358
 10
49070.799188
 20
9141.402209
 30
0.0
 40
18.0
 50
360.0
 51
90.0
  0
ARC
  8
80
  6
CONTINUOUS
 62
     4
  5
359
 10
49070.799188
 20
9206.20221
 30
0.0
 40
18.0
 50
270.0
 51
360.0
  0
ARC
  8
80
  6
CONTINUOUS
 62
     4
  5
35A
 10
48985.599187
 20
9141.402209
 30
0.0
 40
18.0
 50
90.0
 51
180.0
  0
ARC
  8
80
  6
CONTINUOUS
 62
     4
  5
35B
 10
48985.599187
 20
9206.20221
 30
0.0
 40
18.0
 50
180.0
 51
270.0
  0
ARC
  8
80
  6
CONTINUOUS
 62
     4
  5
35C
 10
49070.799188
 20
9441.402213
 30
0.0
 40
18.0
 50
360.0
 51
90.0
  0
ARC
  8
80
  6
CONTINUOUS
 62
     4
  5
35D
 10
48985.599187
 20
9506.202214
 30
0.0
 40
18.0
 50
180.0
 51
270.0
  0
ARC
  8
80
  6
CONTINUOUS
 62
     4
  5
35E
 10
48985.599187
 20
9441.402213
 30
0.0
 40
18.0
 50
90.0
 51
180.0
  0
ARC
  8
80
  6
CONTINUOUS
 62
     4
  5
35F
 10
49070.799188
 20
9506.202214
 30
0.0
 40
18.0
 50
270.0
 51
360.0
  0
LINE
  8
80
  6
CONTINUOUS
 62
     4
  5
360
 10
48938.799186
 20
9506.202214
 30
0.0
 11
48938.799186
 21
9591.402215
 31
0.0
  0
ARC
  8
80
  6
CONTINUOUS
 62
     4
  5
361
 10
48920.799186
 20
9141.402209
 30
0.0
 40
18.0
 50
360.0
 51
90.0
  0
ARC
  8
80
  6
CONTINUOUS
 62
     4
  5
362
 10
48920.799186
 20
9206.20221
 30
0.0
 40
18.0
 50
270.0
 51
360.0
  0
ARC
  8
80
  6
CONTINUOUS
 62
     4
  5
363
 10
48920.799186
 20
9506.202214
 30
0.0
 40
18.0
 50
270.0
 51
360.0
  0
ARC
  8
80
  6
CONTINUOUS
 62
     4
  5
364
 10
48920.799186
 20
9441.402213
 30
0.0
 40
18.0
 50
360.0
 51
90.0
  0
LINE
  8
80
  6
CONTINUOUS
 62
     4
  5
365
 10
49117.599189
 20
9506.202214
 30
0.0
 11
49117.599189
 21
9591.402215
 31
0.0
  0
ARC
  8
80
  6
CONTINUOUS
 62
     4
  5
366
 10
49135.599189
 20
9141.402209
 30
0.0
 40
18.0
 50
90.0
 51
180.0
  0
ARC
  8
80
  6
CONTINUOUS
 62
     4
  5
367
 10
49135.599189
 20
9206.20221
 30
0.0
 40
18.0
 50
180.0
 51
270.0
  0
ARC
  8
80
  6
CONTINUOUS
 62
     4
  5
368
 10
49135.599189
 20
9506.202214
 30
0.0
 40
18.0
 50
180.0
 51
270.0
  0
ARC
  8
80
  6
CONTINUOUS
 62
     4
  5
369
 10
49135.599189
 20
9441.402213
 30
0.0
 40
18.0
 50
90.0
 51
180.0
  0
LINE
  8
80
  6
CONTINUOUS
 62
     4
  5
36A
 10
49088.799189
 20
9206.20221
 30
0.0
 11
49088.799189
 21
9291.402211
 31
0.0
  0
LINE
  8
80
  6
CONTINUOUS
 62
     4
  5
36B
 10
49088.799189
 20
9356.202212
 30
0.0
 11
49088.799189
 21
9441.402213
 31
0.0
  0
LINE
  8
80
  6
CONTINUOUS
 62
     4
  5
36C
 10
48967.599187
 20
9356.202212
 30
0.0
 11
48967.599187
 21
9441.402213
 31
0.0
  0
LINE
  8
80
  6
CONTINUOUS
 62
     4
  5
36D
 10
48967.599187
 20
9206.20221
 30
0.0
 11
48967.599187
 21
9291.402211
 31
0.0
  0
LINE
  8
80
  6
CONTINUOUS
 62
     4
  5
36E
 10
48938.799186
 20
9356.202212
 30
0.0
 11
48938.799186
 21
9441.402213
 31
0.0
  0
LINE
  8
80
  6
CONTINUOUS
 62
     4
  5
36F
 10
48938.799186
 20
9206.20221
 30
0.0
 11
48938.799186
 21
9291.402211
 31
0.0
  0
LINE
  8
80
  6
CONTINUOUS
 62
     4
  5
370
 10
49117.599189
 20
9356.202212
 30
0.0
 11
49117.599189
 21
9441.402213
 31
0.0
  0
LINE
  8
80
  6
CONTINUOUS
 62
     4
  5
371
 10
49117.599189
 20
9206.20221
 30
0.0
 11
49117.599189
 21
9291.402211
 31
0.0
  0
LINE
  8
80
  6
CONTINUOUS
 62
     4
  5
372
 10
48920.799186
 20
9309.402211
 30
0.0
 11
48835.599185
 21
9309.402211
 31
0.0
  0
LINE
  8
80
  6
CONTINUOUS
 62
     4
  5
373
 10
48920.799186
 20
9338.202212
 30
0.0
 11
48835.199185
 21
9338.202212
 31
0.0
  0
LINE
  8
80
  6
CONTINUOUS
 62
     4
  5
374
 10
49135.599189
 20
9309.402211
 30
0.0
 11
49220.79919
 21
9309.402211
 31
0.0
  0
LINE
  8
80
  6
CONTINUOUS
 62
     4
  5
375
 10
49135.599189
 20
9338.202212
 30
0.0
 11
49221.19919
 21
9338.202212
 31
0.0
  0
LINE
  8
80
  6
CONTINUOUS
 62
     4
  5
376
 10
48985.599187
 20
9309.402211
 30
0.0
 11
49070.799188
 21
9309.402211
 31
0.0
  0
LINE
  8
80
  6
CONTINUOUS
 62
     4
  5
377
 10
48985.599187
 20
9338.202212
 30
0.0
 11
49071.099188
 21
9338.202212
 31
0.0
  0
ARC
  8
80
  6
CONTINUOUS
 62
     4
  5
378
 10
49070.799188
 20
9291.402211
 30
0.0
 40
18.0
 50
360.0
 51
90.0
  0
ARC
  8
80
  6
CONTINUOUS
 62
     4
  5
379
 10
49070.799188
 20
9356.202212
 30
0.0
 40
18.0
 50
270.0
 51
360.0
  0
ARC
  8
80
  6
CONTINUOUS
 62
     4
  5
37A
 10
48985.599187
 20
9291.402211
 30
0.0
 40
18.0
 50
90.0
 51
180.0
  0
ARC
  8
80
  6
CONTINUOUS
 62
     4
  5
37B
 10
48985.599187
 20
9356.202212
 30
0.0
 40
18.0
 50
180.0
 51
270.0
  0
ARC
  8
80
  6
CONTINUOUS
 62
     4
  5
37C
 10
48920.799186
 20
9291.402211
 30
0.0
 40
18.0
 50
360.0
 51
90.0
  0
ARC
  8
80
  6
CONTINUOUS
 62
     4
  5
37D
 10
48920.799186
 20
9356.202212
 30
0.0
 40
18.0
 50
270.0
 51
360.0
  0
ARC
  8
80
  6
CONTINUOUS
 62
     4
  5
37E
 10
49135.599189
 20
9291.402211
 30
0.0
 40
18.0
 50
90.0
 51
180.0
  0
ARC
  8
80
  6
CONTINUOUS
 62
     4
  5
37F
 10
49135.599189
 20
9356.202212
 30
0.0
 40
18.0
 50
180.0
 51
270.0
  0
LINE
  8
80
  6
CONTINUOUS
 62
     4
  5
380
 10
49088.799189
 20
9056.202207
 30
0.0
 11
49088.799189
 21
9141.402209
 31
0.0
  0
LINE
  8
80
  6
CONTINUOUS
 62
     4
  5
381
 10
48967.599187
 20
9056.202207
 30
0.0
 11
48967.599187
 21
9141.402209
 31
0.0
  0
LINE
  8
80
  6
CONTINUOUS
 62
     4
  5
382
 10
48938.799186
 20
9056.202207
 30
0.0
 11
48938.799186
 21
9141.402209
 31
0.0
  0
LINE
  8
80
  6
CONTINUOUS
 62
     4
  5
383
 10
49117.599189
 20
9056.202207
 30
0.0
 11
49117.599189
 21
9141.402209
 31
0.0
  0
LINE
  8
80
  6
CONTINUOUS
 62
     4
  5
384
 10
49135.599189
 20
9159.402209
 30
0.0
 11
49220.79919
 21
9159.402209
 31
0.0
  0
LINE
  8
80
  6
CONTINUOUS
 62
     4
  5
385
 10
49135.599189
 20
9188.202209
 30
0.0
 11
49220.79919
 21
9188.202209
 31
0.0
  0
LINE
  8
80
  6
CONTINUOUS
 62
     4
  5
386
 10
49135.599189
 20
9459.402213
 30
0.0
 11
49220.79919
 21
9459.402213
 31
0.0
  0
LINE
  8
80
  6
CONTINUOUS
 62
     4
  5
387
 10
49135.599189
 20
9488.202214
 30
0.0
 11
49220.79919
 21
9488.202214
 31
0.0
  0
LINE
  8
80
  6
CONTINUOUS
 62
     4
  5
388
 10
48920.799186
 20
9488.202214
 30
0.0
 11
48835.599185
 21
9488.202214
 31
0.0
  0
LINE
  8
80
  6
CONTINUOUS
 62
     4
  5
389
 10
48920.799186
 20
9459.402213
 30
0.0
 11
48835.599185
 21
9459.402213
 31
0.0
  0
LINE
  8
80
  6
CONTINUOUS
 62
     4
  5
38A
 10
48920.799186
 20
9188.202209
 30
0.0
 11
48835.599185
 21
9188.202209
 31
0.0
  0
LINE
  8
80
  6
CONTINUOUS
 62
     4
  5
38B
 10
48920.799186
 20
9159.402209
 30
0.0
 11
48835.599185
 21
9159.402209
 31
0.0
  0
LINE
  8
80
  6
CONTINUOUS
 62
     4
  5
38C
 10
48833.799185
 20
9638.202216
 30
0.0
 11
49222.599191
 21
9638.202216
 31
0.0
  0
LINE
  8
80
  6
CONTINUOUS
 62
     4
  5
38D
 10
48920.799186
 20
9609.402216
 30
0.0
 11
48835.599185
 21
9609.402216
 31
0.0
  0
LINE
  8
80
  6
CONTINUOUS
 62
     4
  5
38E
 10
49135.599189
 20
9609.402216
 30
0.0
 11
49220.79919
 21
9609.402216
 31
0.0
  0
LINE
  8
80
  6
CONTINUOUS
 62
     4
  5
38F
 10
48985.599187
 20
9609.402216
 30
0.0
 11
49070.799188
 21
9609.402216
 31
0.0
  0
ARC
  8
80
  6
CONTINUOUS
 62
     4
  5
390
 10
49070.799188
 20
9591.402215
 30
0.0
 40
18.0
 50
360.0
 51
90.0
  0
ARC
  8
80
  6
CONTINUOUS
 62
     4
  5
391
 10
48985.599187
 20
9591.402215
 30
0.0
 40
18.0
 50
90.0
 51
180.0
  0
ARC
  8
80
  6
CONTINUOUS
 62
     4
  5
392
 10
48920.799186
 20
9591.402215
 30
0.0
 40
18.0
 50
360.0
 51
90.0
  0
ARC
  8
80
  6
CONTINUOUS
 62
     4
  5
393
 10
49135.599189
 20
9591.402215
 30
0.0
 40
18.0
 50
90.0
 51
180.0
  0
LINE
  8
80
  6
CONTINUOUS
 62
     4
  5
394
 10
48817.599184
 20
9206.20221
 30
0.0
 11
48817.599184
 21
9291.402211
 31
0.0
  0
LINE
  8
80
  6
CONTINUOUS
 62
     4
  5
395
 10
48817.599184
 20
9356.202212
 30
0.0
 11
48817.599184
 21
9441.402213
 31
0.0
  0
ARC
  8
80
  6
CONTINUOUS
 62
     4
  5
396
 10
48835.599185
 20
9291.402211
 30
0.0
 40
18.0
 50
90.0
 51
180.0
  0
ARC
  8
80
  6
CONTINUOUS
 62
     4
  5
397
 10
48835.599185
 20
9356.202212
 30
0.0
 40
18.0
 50
180.0
 51
270.0
  0
LINE
  8
80
  6
CONTINUOUS
 62
     4
  5
398
 10
48788.799184
 20
9054.402207
 30
0.0
 11
48788.799184
 21
9593.202215
 31
0.0
  0
ARC
  8
80
  6
CONTINUOUS
 62
     4
  5
399
 10
48835.599185
 20
9441.402213
 30
0.0
 40
18.0
 50
90.0
 51
180.0
  0
ARC
  8
80
  6
CONTINUOUS
 62
     4
  5
39A
 10
48835.599185
 20
9506.202214
 30
0.0
 40
18.0
 50
180.0
 51
270.0
  0
LINE
  8
80
  6
CONTINUOUS
 62
     4
  5
39B
 10
48817.599184
 20
9506.202214
 30
0.0
 11
48817.599184
 21
9591.402215
 31
0.0
  0
LINE
  8
80
  6
CONTINUOUS
 62
     4
  5
39C
 10
49267.599191
 20
9054.402207
 30
0.0
 11
49267.599191
 21
9593.202215
 31
0.0
  0
LINE
  8
80
  6
CONTINUOUS
 62
     4
  5
39D
 10
49238.799191
 20
9506.202214
 30
0.0
 11
49238.799191
 21
9591.402215
 31
0.0
  0
ARC
  8
80
  6
CONTINUOUS
 62
     4
  5
39E
 10
49220.79919
 20
9506.202214
 30
0.0
 40
18.0
 50
270.0
 51
360.0
  0
ARC
  8
80
  6
CONTINUOUS
 62
     4
  5
39F
 10
49220.79919
 20
9441.402213
 30
0.0
 40
18.0
 50
360.0
 51
90.0
  0
LINE
  8
80
  6
CONTINUOUS
 62
     4
  5
3A0
 10
49238.799191
 20
9206.20221
 30
0.0
 11
49238.799191
 21
9291.402211
 31
0.0
  0
LINE
  8
80
  6
CONTINUOUS
 62
     4
  5
3A1
 10
49238.799191
 20
9356.202212
 30
0.0
 11
49238.799191
 21
9441.402213
 31
0.0
  0
ARC
  8
80
  6
CONTINUOUS
 62
     4
  5
3A2
 10
49220.79919
 20
9291.402211
 30
0.0
 40
18.0
 50
360.0
 51
90.0
  0
ARC
  8
80
  6
CONTINUOUS
 62
     4
  5
3A3
 10
49220.79919
 20
9356.202212
 30
0.0
 40
18.0
 50
270.0
 51
360.0
  0
ARC
  8
80
  6
CONTINUOUS
 62
     4
  5
3A4
 10
49220.79919
 20
9141.402209
 30
0.0
 40
18.0
 50
360.0
 51
90.0
  0
ARC
  8
80
  6
CONTINUOUS
 62
     4
  5
3A5
 10
49220.79919
 20
9206.20221
 30
0.0
 40
18.0
 50
270.0
 51
360.0
  0
ARC
  8
80
  6
CONTINUOUS
 62
     4
  5
3A6
 10
48835.599185
 20
9206.20221
 30
0.0
 40
18.0
 50
180.0
 51
270.0
  0
ARC
  8
80
  6
CONTINUOUS
 62
     4
  5
3A7
 10
48835.599185
 20
9141.402209
 30
0.0
 40
18.0
 50
90.0
 51
180.0
  0
LINE
  8
80
  6
CONTINUOUS
 62
     4
  5
3A8
 10
48817.599184
 20
9056.202207
 30
0.0
 11
48817.599184
 21
9141.402209
 31
0.0
  0
ARC
  8
80
  6
CONTINUOUS
 62
     4
  5
3A9
 10
48833.799185
 20
9054.402207
 30
0.0
 40
45.000001
 50
180.0
 51
270.0
  0
ARC
  8
80
  6
CONTINUOUS
 62
     4
  5
3AA
 10
49222.599191
 20
9054.402207
 30
0.0
 40
45.000001
 50
270.0
 51
360.0
  0
ARC
  8
80
  6
CONTINUOUS
 62
     4
  5
3AB
 10
48835.599185
 20
9056.202207
 30
0.0
 40
18.0
 50
180.0
 51
270.0
  0
ARC
  8
80
  6
CONTINUOUS
 62
     4
  5
3AC
 10
49220.79919
 20
9056.202207
 30
0.0
 40
18.0
 50
270.0
 51
360.0
  0
LINE
  8
80
  6
CONTINUOUS
 62
     4
  5
3AD
 10
48833.799185
 20
9009.402207
 30
0.0
 11
49222.599191
 21
9009.402207
 31
0.0
  0
LINE
  8
80
  6
CONTINUOUS
 62
     4
  5
3AE
 10
48835.599185
 20
9038.202207
 30
0.0
 11
48920.799186
 21
9038.202207
 31
0.0
  0
LINE
  8
80
  6
CONTINUOUS
 62
     4
  5
3AF
 10
49220.79919
 20
9038.202207
 30
0.0
 11
49135.599189
 21
9038.202207
 31
0.0
  0
ARC
  8
80
  6
CONTINUOUS
 62
     4
  5
3B0
 10
49070.799188
 20
9056.202207
 30
0.0
 40
18.0
 50
270.0
 51
360.0
  0
ARC
  8
80
  6
CONTINUOUS
 62
     4
  5
3B1
 10
48985.599187
 20
9056.202207
 30
0.0
 40
18.0
 50
180.0
 51
270.0
  0
LINE
  8
80
  6
CONTINUOUS
 62
     4
  5
3B2
 10
49070.799188
 20
9038.202207
 30
0.0
 11
48985.599187
 21
9038.202207
 31
0.0
  0
ARC
  8
80
  6
CONTINUOUS
 62
     4
  5
3B3
 10
48920.799186
 20
9056.202207
 30
0.0
 40
18.0
 50
270.0
 51
360.0
  0
ARC
  8
80
  6
CONTINUOUS
 62
     4
  5
3B4
 10
49135.599189
 20
9056.202207
 30
0.0
 40
18.0
 50
180.0
 51
270.0
  0
LINE
  8
80
  6
CONTINUOUS
 62
     4
  5
3B5
 10
49238.799191
 20
9056.202207
 30
0.0
 11
49238.799191
 21
9141.402209
 31
0.0
  0
LINE
  8
5
  6
CENTER
 62
     3
  5
3B6
 10
48803.199184
 20
9023.802207
 30
0.0
 11
48803.199184
 21
9623.802216
 31
0.0
  0
LINE
  8
5
  6
CENTER
 62
     3
  5
3B7
 10
49253.199191
 20
9023.802207
 30
0.0
 11
48803.199184
 21
9023.802207
 31
0.0
  0
LINE
  8
5
  6
CENTER
 62
     3
  5
3B8
 10
49253.199191
 20
9023.802207
 30
0.0
 11
49253.199191
 21
9623.802216
 31
0.0
  0
LINE
  8
5
  6
CENTER
 62
     3
  5
3B9
 10
48803.199184
 20
9623.802216
 30
0.0
 11
49253.199191
 21
9623.802216
 31
0.0
  0
LINE
  8
5
  6
CENTER
 62
     3
  5
3BA
 10
48803.199184
 20
9473.802216
 30
0.0
 11
49253.199191
 21
9473.802216
 31
0.0
  0
LINE
  8
5
  6
CENTER
 62
     3
  5
3BB
 10
48803.199184
 20
9323.802216
 30
0.0
 11
49253.199191
 21
9323.802216
 31
0.0
  0
LINE
  8
5
  6
CENTER
 62
     3
  5
3BC
 10
48803.199184
 20
9173.802216
 30
0.0
 11
49253.199191
 21
9173.802216
 31
0.0
  0
LINE
  8
5
  6
CENTER
 62
     3
  5
3BD
 10
48953.199184
 20
9023.802207
 30
0.0
 11
48953.199184
 21
9623.802216
 31
0.0
  0
LINE
  8
5
  6
CENTER
 62
     3
  5
3BE
 10
49103.199184
 20
9023.802207
 30
0.0
 11
49103.199184
 21
9623.802216
 31
0.0
  0
CIRCLE
  8
5
  6
CONTINUOUS
 62
     3
  5
3BF
 10
48803.199184
 20
9853.802216
 30
0.0
 40
7.5
  0
CIRCLE
  8
5
  6
CONTINUOUS
 62
     3
  5
3C0
 10
48803.199184
 20
9753.802216
 30
0.0
 40
7.5
  0
CIRCLE
  8
5
  6
CONTINUOUS
 62
     3
  5
3C1
 10
49253.199191
 20
9753.802216
 30
0.0
 40
7.5
  0
CIRCLE
  8
5
  6
CONTINUOUS
 62
     3
  5
3C2
 10
48573.199184
 20
9623.802216
 30
0.0
 40
7.5
  0
CIRCLE
  8
5
  6
CONTINUOUS
 62
     3
  5
3C3
 10
48673.199184
 20
9023.802207
 30
0.0
 40
7.5
  0
CIRCLE
  8
5
  6
CONTINUOUS
 62
     3
  5
3C4
 10
48673.199184
 20
9623.802216
 30
0.0
 40
7.5
  0
LINE
  8
5
  6
CONTINUOUS
 62
     3
  5
3C5
 10
48673.199184
 20
9023.802207
 30
0.0
 11
48673.199184
 21
9623.802216
 31
0.0
  0
LINE
  8
5
  6
CONTINUOUS
 62
     3
  5
3C6
 10
48803.199184
 20
9753.802216
 30
0.0
 11
49253.199191
 21
9753.802216
 31
0.0
  0
LINE
  8
5
  6
CONTINUOUS
 62
     3
  5
3C7
 10
49253.199191
 20
9753.802216
 30
0.0
 11
49253.199191
 21
9653.802216
 31
0.0
  0
LINE
  8
5
  6
CONTINUOUS
 62
     3
  5
3C8
 10
49253.199191
 20
9753.802216
 30
0.0
 11
49923.199191
 21
9753.802216
 31
0.0
  0
LINE
  8
5
  6
CONTINUOUS
 62
     3
  5
3C9
 10
48803.199184
 20
9853.802216
 30
0.0
 11
49923.199191
 21
9853.802216
 31
0.0
  0
LINE
  8
5
  6
CONTINUOUS
 62
     3
  5
3CA
 10
48803.199184
 20
9853.802216
 30
0.0
 11
48803.199184
 21
9653.802216
 31
0.0
  0
LINE
  8
5
  6
CONTINUOUS
 62
     3
  5
3CB
 10
48573.199184
 20
9623.802216
 30
0.0
 11
48773.199184
 21
9623.802216
 31
0.0
  0
LINE
  8
5
  6
CONTINUOUS
 62
     3
  5
3CC
 10
48573.199184
 20
9623.802216
 30
0.0
 11
48573.199184
 21
8558.802209
 31
0.0
  0
LINE
  8
5
  6
CONTINUOUS
 62
     3
  5
3CD
 10
48673.199184
 20
9023.802207
 30
0.0
 11
48773.199184
 21
9023.802207
 31
0.0
  0
LINE
  8
5
  6
CONTINUOUS
 62
     3
  5
3CE
 10
48673.199184
 20
8558.802209
 30
0.0
 11
48673.199184
 21
9023.802207
 31
0.0
  0
TEXT
  8
5
  6
CONTINUOUS
 62
     3
  5
3CF
 10
48938.199188
 20
9753.802216
 30
0.0
 40
90.0
  1
450
 41
0.666667
  7

 72
     5
 11
49118.199188
 21
9753.802216
 31
0.0
  0
TEXT
  8
5
  6
CONTINUOUS
 62
     3
  5
3D0
 10
49495.899194
 20
9753.802216
 30
0.0
 40
90.0
  1
670
 41
0.666667
  7

 72
     5
 11
49675.899194
 21
9753.802216
 31
0.0
  0
LINE
  8
5
  6
CONTINUOUS
 62
     3
  5
3D1
 10
49307.486292
 20
9553.172113
 30
0.0
 11
49259.546343
 21
9470.137686
 31
0.0
  0
LINE
  8
22
  6
CONTINUOUS
 62
     2
  5
3D2
 10
49923.199191
 20
8618.802209
 30
0.0
 11
49898.931141
 21
8618.802209
 31
0.0
  0
LINE
  8
1
  6
CONTINUOUS
 62
     4
  5
3D3
 10
49923.199191
 20
8558.802209
 30
0.0
 11
49923.199191
 21
11058.802209
 31
0.0
  0
LINE
  8
22
  6
CONTINUOUS
 62
     5
  5
3D4
 10
49923.199191
 20
11058.802209
 30
0.0
 11
48185.363842
 21
11058.802209
 31
0.0
  0
LINE
  8
22
  6
CONTINUOUS
 62
     2
  5
3D5
 10
49351.193282
 20
8618.802209
 30
0.0
 11
48185.363842
 21
8618.802209
 31
0.0
  0
LINE
  8
1
  6
CONTINUOUS
 62
     4
  5
3D6
 10
48185.363842
 20
8558.802209
 30
0.0
 11
48185.363842
 21
11058.802209
 31
0.0
  0
LINE
  8
22
  6
CONTINUOUS
 62
     5
  5
3D7
 10
49923.199191
 20
8558.802209
 30
0.0
 11
48185.363842
 21
8558.802209
 31
0.0
  0
TEXT
  8
5
  6
CONTINUOUS
 62
     3
  5
3D8
 10
48673.199184
 20
9263.802211
 30
0.0
 40
60.0
  1
600
 50
90.0
 41
0.666667
  7

 72
     5
 11
48673.199184
 21
9383.802211
 31
0.0
  0
TEXT
  8
5
  6
CONTINUOUS
 62
     3
  5
3D9
 10
49270.899191
 20
9853.802216
 30
0.0
 40
60.0
  1
1,120
 41
0.6
  7

 72
     5
 11
49450.899191
 21
9853.802216
 31
0.0
  0
TEXT
  8
5
  6
CONTINUOUS
 62
     3
  5
3DA
 10
48573.199184
 20
9001.002212
 30
0.0
 40
60.0
  1
1,065
 50
90.0
 41
0.6
  7

 72
     5
 11
48573.199184
 21
9181.002212
 31
0.0
  0
TEXT
  8
5
  6
CONTINUOUS
 62
     3
  5
3DB
 10
48673.199184
 20
8731.002208
 30
0.0
 40
60.0
  1
465
 50
90.0
 41
0.666667
  7

 72
     5
 11
48673.199184
 21
8851.002208
 31
0.0
  0
LINE
  8
5
  6
CONTINUOUS
 62
     3
  5
3DC
 10
49717.486292
 20
9553.172113
 30
0.0
 11
49307.486292
 21
9553.172113
 31
0.0
  0
TEXT
  8
5
  6
CONTINUOUS
 62
     3
  5
3DD
 10
49333.667473
 20
9553.172113
 30
0.0
 40
60.0
  1
テスリックス
 41
0.837
  7

 72
     5
 11
49693.667473
 21
9553.172113
 31
0.0
  0
TEXT
  8
5
  6
CONTINUOUS
 62
     3
  5
3DE
 10
48738.870539
 20
8234.305433
 30
0.0
 40
90.0
  1
テスリックス
 41
0.837
  7

 72
     5
 11
49278.870539
 21
8234.305433
 31
0.0
  0
TEXT
  8
5
  6
CONTINUOUS
 62
     3
  5
3DF
 10
48738.870539
 20
8144.305433
 30
0.0
 40
90.0
  1
取付側展開図
 41
0.837
  7

 72
     5
 11
49278.870539
 21
8144.305433
 31
0.0
  0
TEXT
  8
5
  6
CONTINUOUS
 62
     3
  5
3E0
 10
48891.522409
 20
11629.779905
 30
0.0
 40
90.0
  1
平面図
 41
0.837
  7

 72
     5
 11
49161.522409
 21
11629.779905
 31
0.0
  0
LINE
  8
2
  6
CONTINUOUS
 62
     6
  5
3E1
 10
49734.199191
 20
12611.219453
 30
0.0
 11
49720.199191
 21
12589.219453
 31
0.0
  0
LINE
  8
2
  6
CONTINUOUS
 62
     6
  5
3E2
 10
49770.199191
 20
12642.219453
 30
0.0
 11
49770.199191
 21
12626.219453
 31
0.0
  0
LINE
  8
2
  6
CONTINUOUS
 62
     6
  5
3E3
 10
49805.199191
 20
12642.219453
 30
0.0
 11
49806.199191
 21
12626.219453
 31
0.0
  0
ARC
  8
2
  6
CONTINUOUS
 62
     6
  5
3E4
 10
49761.199191
 20
12594.219453
 30
0.0
 40
32.0
 50
90.0
 51
146.32
  0
ARC
  8
2
  6
CONTINUOUS
 62
     6
  5
3E5
 10
49788.199191
 20
12494.219453
 30
0.0
 40
150.0
 50
83.31
 51
96.7
  0
ARC
  8
2
  6
CONTINUOUS
 62
     6
  5
3E6
 10
49293.199191
 20
12416.219453
 30
0.0
 40
120.0
 50
158.52
 51
201.49
  0
ARC
  8
2
  6
CONTINUOUS
 62
     6
  5
3E7
 10
49436.199191
 20
12938.219453
 30
0.0
 40
700.0
 50
276.76
 51
293.57
  0
ARC
  8
2
  6
CONTINUOUS
 62
     6
  5
3E8
 10
49198.199191
 20
12471.219453
 30
0.0
 40
20.0
 50
137.44
 51
213.57
  0
ARC
  8
2
  6
CONTINUOUS
 62
     6
  5
3E9
 10
49448.199191
 20
12392.219453
 30
0.0
 40
210.0
 50
45.1
 51
90.16
  0
ARC
  8
2
  6
CONTINUOUS
 62
     6
  5
3EA
 10
49448.199191
 20
12441.219453
 30
0.0
 40
210.0
 50
269.85
 51
314.51
  0
ARC
  8
2
  6
CONTINUOUS
 62
     6
  5
3EB
 10
49436.199191
 20
11894.219453
 30
0.0
 40
700.0
 50
66.44
 51
83.25
  0
ARC
  8
2
  6
CONTINUOUS
 62
     6
  5
3EC
 10
49198.199191
 20
12362.219453
 30
0.0
 40
20.0
 50
146.44
 51
222.57
  0
ARC
  8
2
  6
CONTINUOUS
 62
     6
  5
3ED
 10
49448.199191
 20
12590.219453
 30
0.0
 40
360.0
 50
222.57
 51
269.85
  0
LINE
  8
2
  6
CONTINUOUS
 62
     6
  5
3EE
 10
49761.199191
 20
12206.219453
 30
0.0
 11
49933.199191
 21
12206.219453
 31
0.0
  0
LINE
  8
2
  6
CONTINUOUS
 62
     6
  5
3EF
 10
49734.199191
 20
12221.219453
 30
0.0
 11
49720.199191
 21
12243.219453
 31
0.0
  0
LINE
  8
2
  6
CONTINUOUS
 62
     6
  5
3F0
 10
49655.199191
 20
12334.219453
 30
0.0
 11
49624.199191
 21
12334.219453
 31
0.0
  0
LINE
  8
2
  6
CONTINUOUS
 62
     6
  5
3F1
 10
49624.199191
 20
12499.219453
 30
0.0
 11
49624.199191
 21
12333.219453
 31
0.0
  0
LINE
  8
2
  6
CONTINUOUS
 62
     6
  5
3F2
 10
49655.199191
 20
12498.219453
 30
0.0
 11
49624.199191
 21
12498.219453
 31
0.0
  0
LINE
  8
2
  6
CONTINUOUS
 62
     6
  5
3F3
 10
49619.199191
 20
12388.219453
 30
0.0
 11
49676.199191
 21
12444.219453
 31
0.0
  0
LINE
  8
2
  6
CONTINUOUS
 62
     6
  5
3F4
 10
49619.199191
 20
12444.219453
 30
0.0
 11
49676.199191
 21
12388.219453
 31
0.0
  0
ARC
  8
2
  6
CONTINUOUS
 62
     6
  5
3F5
 10
49761.199191
 20
12238.219453
 30
0.0
 40
32.0
 50
213.69
 51
270.0
  0
ARC
  8
2
  6
CONTINUOUS
 62
     6
  5
3F6
 10
48805.199191
 20
12416.219453
 30
0.0
 40
800.0
 50
8.22
 51
8.83
  0
ARC
  8
2
  6
CONTINUOUS
 62
     6
  5
3F7
 10
49443.199191
 20
12359.219453
 30
0.0
 40
230.0
 50
37.96
 51
48.0
  0
ARC
  8
2
  6
CONTINUOUS
 62
     6
  5
3F8
 10
48805.199191
 20
12416.219453
 30
0.0
 40
800.0
 50
351.03
 51
351.86
  0
ARC
  8
2
  6
CONTINUOUS
 62
     6
  5
3F9
 10
49443.199191
 20
12473.219453
 30
0.0
 40
230.0
 50
312.01
 51
322.05
  0
ARC
  8
2
  6
CONTINUOUS
 62
     6
  5
3FA
 10
49643.199191
 20
12308.219453
 30
0.0
 40
50.0
 50
74.69
 51
111.9
  0
ARC
  8
2
  6
CONTINUOUS
 62
     6
  5
3FB
 10
49628.199191
 20
12346.219453
 30
0.0
 40
30.0
 50
336.43
 51
19.93
  0
ARC
  8
2
  6
CONTINUOUS
 62
     6
  5
3FC
 10
49628.199191
 20
12486.219453
 30
0.0
 40
30.0
 50
340.08
 51
23.58
  0
ARC
  8
2
  6
CONTINUOUS
 62
     6
  5
3FD
 10
49643.199191
 20
12524.219453
 30
0.0
 40
50.0
 50
248.11
 51
285.32
  0
LINE
  8
2
  6
CONTINUOUS
 62
     6
  5
3FE
 10
49720.199191
 20
12243.219453
 30
0.0
 11
49718.199191
 21
12267.219453
 31
0.0
  0
LINE
  8
2
  6
CONTINUOUS
 62
     6
  5
3FF
 10
49718.199191
 20
12267.219453
 30
0.0
 11
49716.199191
 21
12292.219453
 31
0.0
  0
LINE
  8
2
  6
CONTINUOUS
 62
     6
  5
400
 10
49716.199191
 20
12292.219453
 30
0.0
 11
49715.199191
 21
12317.219453
 31
0.0
  0
LINE
  8
2
  6
CONTINUOUS
 62
     6
  5
401
 10
49715.199191
 20
12317.219453
 30
0.0
 11
49714.199191
 21
12342.219453
 31
0.0
  0
LINE
  8
2
  6
CONTINUOUS
 62
     6
  5
402
 10
49714.199191
 20
12342.219453
 30
0.0
 11
49714.199191
 21
12367.219453
 31
0.0
  0
LINE
  8
2
  6
CONTINUOUS
 62
     6
  5
403
 10
49714.199191
 20
12367.219453
 30
0.0
 11
49713.199191
 21
12392.219453
 31
0.0
  0
LINE
  8
2
  6
CONTINUOUS
 62
     6
  5
404
 10
49713.199191
 20
12392.219453
 30
0.0
 11
49713.199191
 21
12416.219453
 31
0.0
  0
LINE
  8
2
  6
CONTINUOUS
 62
     6
  5
405
 10
49713.199191
 20
12416.219453
 30
0.0
 11
49713.199191
 21
12441.219453
 31
0.0
  0
LINE
  8
2
  6
CONTINUOUS
 62
     6
  5
406
 10
49713.199191
 20
12441.219453
 30
0.0
 11
49714.199191
 21
12466.219453
 31
0.0
  0
LINE
  8
2
  6
CONTINUOUS
 62
     6
  5
407
 10
49714.199191
 20
12466.219453
 30
0.0
 11
49714.199191
 21
12491.219453
 31
0.0
  0
LINE
  8
2
  6
CONTINUOUS
 62
     6
  5
408
 10
49714.199191
 20
12491.219453
 30
0.0
 11
49715.199191
 21
12516.219453
 31
0.0
  0
LINE
  8
2
  6
CONTINUOUS
 62
     6
  5
409
 10
49715.199191
 20
12516.219453
 30
0.0
 11
49717.199191
 21
12541.219453
 31
0.0
  0
LINE
  8
2
  6
CONTINUOUS
 62
     6
  5
40A
 10
49717.199191
 20
12541.219453
 30
0.0
 11
49718.199191
 21
12566.219453
 31
0.0
  0
LINE
  8
2
  6
CONTINUOUS
 62
     6
  5
40B
 10
49718.199191
 20
12566.219453
 30
0.0
 11
49720.199191
 21
12589.219453
 31
0.0
  0
LINE
  8
2
  6
CONTINUOUS
 62
     6
  5
40C
 10
49761.199191
 20
12626.219453
 30
0.0
 11
49933.199191
 21
12626.219453
 31
0.0
  0
ARC
  8
2
  6
CONTINUOUS
 62
     6
  5
40D
 10
49448.199191
 20
12242.219453
 30
0.0
 40
360.0
 50
90.16
 51
137.44
  0
LINE
  8
3
  6
CONTINUOUS
 62
     6
  5
40E
 10
49933.199191
 20
12839.314337
 30
0.0
 11
49933.199191
 21
12039.314337
 31
0.0
  0
ENDSEC
  0
EOF
