  0
SECTION
  2
HEADER
  9
$ACADVER
  1
AC1009
  9
$INSBASE
 10
0.0
 20
0.0
 30
0.0
  9
$EXTMIN
 10
48665.816777
 20
8423.770056
 30
0.0
  9
$EXTMAX
 10
51027.316897
 20
15720.893291
 30
0.0
  9
$LIMMIN
 10
46882.395087
 20
7815.58695
  9
$LIMMAX
 10
53182.395087
 20
16725.58695
  9
$ORTHOMODE
 70
     0
  9
$REGENMODE
 70
     1
  9
$FILLMODE
 70
     1
  9
$QTEXTMODE
 70
     0
  9
$MIRRTEXT
 70
     1
  9
$DRAGMODE
 70
     2
  9
$LTSCALE
 40
30.0
  9
$OSMODE
 70
     0
  9
$ATTMODE
 70
     1
  9
$TEXTSIZE
 40
0.2
  9
$TRACEWID
 40
0.05
  9
$TEXTSTYLE
  7
STANDARD
  9
$CLAYER
  8
0
  9
$CELTYPE
  6
CONTINUOUS
  9
$CECOLOR
 62
   256
  9
$DIMSCALE
 40
1.0
  9
$DIMASZ
 40
0.18
  9
$DIMEXO
 40
0.0625
  9
$DIMDLI
 40
0.38
  9
$DIMRND
 40
0.0
  9
$DIMDLE
 40
0.0
  9
$DIMEXE
 40
0.18
  9
$DIMTP
 40
0.0
  9
$DIMTM
 40
0.0
  9
$DIMTXT
 40
0.18
  9
$DIMCEN
 40
0.09
  9
$DIMTSZ
 40
0.0
  9
$DIMTOL
 70
     0
  9
$DIMLIM
 70
     0
  9
$DIMTIH
 70
     1
  9
$DIMTOH
 70
     1
  9
$DIMSE1
 70
     0
  9
$DIMSE2
 70
     0
  9
$DIMTAD
 70
     0
  9
$DIMZIN
 70
     0
  9
$DIMBLK
  1

  9
$DIMASO
 70
     1
  9
$DIMSHO
 70
     1
  9
$DIMPOST
  1

  9
$DIMAPOST
  1

  9
$DIMALT
 70
     0
  9
$DIMALTD
 70
     2
  9
$DIMALTF
 40
25.4
  9
$DIMLFAC
 40
1.0
  9
$DIMTOFL
 70
     0
  9
$DIMTVP
 40
0.0
  9
$DIMTIX
 70
     0
  9
$DIMSOXD
 70
     0
  9
$DIMSAH
 70
     0
  9
$DIMBLK1
  1

  9
$DIMBLK2
  1

  9
$DIMSTYLE
  2
STANDARD
  9
$DIMCLRD
 70
     0
  9
$DIMCLRE
 70
     0
  9
$DIMCLRT
 70
     0
  9
$DIMTFAC
 40
1.0
  9
$DIMGAP
 40
0.09
  9
$LUNITS
 70
     2
  9
$LUPREC
 70
     4
  9
$AXISMODE
 70
     0
  9
$AXISUNIT
 10
0.0
 20
0.0
  9
$SKETCHINC
 40
0.1
  9
$FILLETRAD
 40
0.0
  9
$AUNITS
 70
     0
  9
$AUPREC
 70
     0
  9
$MENU
  1
acad
  9
$ELEVATION
 40
0.0
  9
$PELEVATION
 40
0.0
  9
$THICKNESS
 40
0.0
  9
$LIMCHECK
 70
     0
  9
$BLIPMODE
 70
     1
  9
$CHAMFERA
 40
0.0
  9
$CHAMFERB
 40
0.0
  9
$SKPOLY
 70
     0
  9
$TDCREATE
 40
0.000000000
  9
$TDUPDATE
 40
0.000000000
  9
$TDINDWG
 40
0.0000000000
  9
$TDUSRTIMER
 40
0.0000000000
  9
$USRTIMER
 70
     1
  9
$ANGBASE
 50
0.0
  9
$ANGDIR
 70
     0
  9
$PDMODE
 70
     0
  9
$PDSIZE
 40
0.0
  9
$PLINEWID
 40
0.0
  9
$COORDS
 70
     0
  9
$SPLFRAME
 70
     0
  9
$SPLINETYPE
 70
     6
  9
$SPLINESEGS
 70
     8
  9
$ATTDIA
 70
     0
  9
$ATTREQ
 70
     1
  9
$HANDLING
 70
     1
  9
$HANDSEED
  5
88D
  9
$SURFTAB1
 70
     6
  9
$SURFTAB2
 70
     6
  9
$SURFTYPE
 70
     6
  9
$SURFU
 70
     6
  9
$SURFV
 70
     6
  9
$UCSNAME
  2

  9
$UCSORG
 10
0.0
 20
0.0
 30
0.0
  9
$UCSXDIR
 10
1.0
 20
0.0
 30
0.0
  9
$UCSYDIR
 10
0.0
 20
1.0
 30
0.0
  9
$PUCSNAME
  2

  9
$PUCSORG
 10
0.0
 20
0.0
 30
0.0
  9
$PUCSXDIR
 10
1.0
 20
0.0
 30
0.0
  9
$PUCSYDIR
 10
0.0
 20
1.0
 30
0.0
  9
$USERI1
 70
     0
  9
$USERI2
 70
     0
  9
$USERI3
 70
     0
  9
$USERI4
 70
     0
  9
$USERI5
 70
     0
  9
$USERR1
 40
0.0
  9
$USERR2
 40
0.0
  9
$USERR3
 40
0.0
  9
$USERR4
 40
0.0
  9
$USERR5
 40
0.0
  9
$WORLDVIEW
 70
     1
  9
$SHADEDGE
 70
     3
  9
$SHADEDIF
 70
    70
  9
$TILEMODE
 70
     1
  9
$MAXACTVP
 70
    16
  9
$PINSBASE
 10
0.0
 20
0.0
 30
0.0
  9
$PLIMCHECK
 70
     0
  9
$PEXTMIN
 10
1.000000E+20
 20
1.000000E+20
 30
1.000000E+20
  9
$PEXTMAX
 10
-1.000000E+20
 20
-1.000000E+20
 30
-1.000000E+20
  9
$PLIMMIN
 10
0.0
 20
0.0
  9
$PLIMMAX
 10
12.0
 20
9.0
  9
$UNITMODE
 70
     0
  9
$VISRETAIN
 70
     0
  9
$PLINEGEN
 70
     1
  9
$PSLTSCALE
 70
     0
  9
$TREEDEPTH
 70
  3020
  9
$DWGCODEPAGE
  3
dos932
  0
ENDSEC
  0
SECTION
  2
TABLES
  0
TABLE
  2
VPORT
 70
     1
  0
VPORT
  2
*ACTIVE
 70
     0
 10
0.0
 20
0.0
 11
1.0
 21
1.0
 12
50032.395087
 22
12270.58695
 13
0.0
 23
0.0
 14
1000.0
 24
1000.0
 15
1000.0
 25
1000.0
 16
0.0
 26
0.0
 36
1.0
 17
0.0
 27
0.0
 37
0.0
 40
8910.0
 41
0.707071
 42
50.0
 43
0.0
 44
0.0
 50
0.0
 51
0.0
 71
     0
 72
   100
 73
     1
 74
     1
 75
     0
 76
     0
 77
     0
 78
     0
  0
ENDTAB
  0
TABLE
  2
LTYPE
 70
     9
  0
LTYPE
  2
CONTINUOUS
 70
    64
  3
Solid line
 72
    65
 73
     0
 40
0.0
  0
LTYPE
  2
HIDDEN
 70
    64
  3
__ __ __ __ __ __ __ __ __ __ __ __ __ __ __ __
 72
    65
 73
     5
 40
8.0
 49
1.0
 49
-2.0
 49
2.0
 49
-2.0
 49
1.0
  0
LTYPE
  2
DOT
 70
    64
  3
. . . . . . . . . . . . . . . . . . . . . . . .
 72
    65
 73
     3
 40
1.6
 49
0.4
 49
-0.8
 49
0.4
  0
LTYPE
  2
CENTER
 70
    64
  3
____ _ ____ _ ____ _ ____ _ ____ _ ____ _ ____ 
 72
    65
 73
     5
 40
12.0
 49
5.0
 49
-0.8
 49
0.4
 49
-0.8
 49
5.0
  0
LTYPE
  2
DIVIDE
 70
    64
  3
____ . . ____ . . ____ . . ____ . . ____ . . __
 72
    65
 73
     7
 40
13.2
 49
5.0
 49
-0.8
 49
0.4
 49
-0.8
 49
0.4
 49
-0.8
 49
5.0
  0
LTYPE
  2
DASHED1
 70
     0
  3
Solid Line
 72
    65
 73
     2
 40
2.5
 49
1.25
 49
-1.25
  0
LTYPE
  2
DASHED3
 70
     0
  3
Solid Line
 72
    65
 73
     2
 40
5.0
 49
3.75
 49
-1.25
  0
LTYPE
  2
CENTER1
 70
     0
  3
Solid Line
 72
    65
 73
     4
 40
10.0
 49
6.25
 49
-1.25
 49
1.25
 49
-1.25
  0
LTYPE
  2
PHANTOM1
 70
     0
  3
Solid Line
 72
    65
 73
     6
 40
9.5
 49
3.25
 49
-1.25
 49
1.25
 49
-1.25
 49
1.25
 49
-1.25
  0
ENDTAB
  0
TABLE
  2
LAYER
 70
    23
  0
LAYER
  2
0
 70
     0
 62
     7
  6
CONTINUOUS
  0
LAYER
  2
1
 70
     0
 62
     1
  6
CONTINUOUS
  0
LAYER
  2
2
 70
     0
 62
     1
  6
CONTINUOUS
  0
LAYER
  2
3
 70
     0
 62
     1
  6
CONTINUOUS
  0
LAYER
  2
4
 70
     0
 62
     1
  6
CONTINUOUS
  0
LAYER
  2
5
 70
     0
 62
     1
  6
CONTINUOUS
  0
LAYER
  2
6
 70
     0
 62
     1
  6
CONTINUOUS
  0
LAYER
  2
7
 70
     0
 62
     1
  6
CONTINUOUS
  0
LAYER
  2
8
 70
     0
 62
     1
  6
CONTINUOUS
  0
LAYER
  2
9
 70
     0
 62
     1
  6
CONTINUOUS
  0
LAYER
  2
10
 70
     0
 62
     1
  6
CONTINUOUS
  0
LAYER
  2
11
 70
     0
 62
     1
  6
CONTINUOUS
  0
LAYER
  2
12
 70
     0
 62
     1
  6
CONTINUOUS
  0
LAYER
  2
13
 70
     0
 62
     1
  6
CONTINUOUS
  0
LAYER
  2
14
 70
     0
 62
     1
  6
CONTINUOUS
  0
LAYER
  2
15
 70
     0
 62
     1
  6
CONTINUOUS
  0
LAYER
  2
16
 70
     0
 62
     1
  6
CONTINUOUS
  0
LAYER
  2
20
 70
     0
 62
     1
  6
CONTINUOUS
  0
LAYER
  2
40
 70
     0
 62
     1
  6
CONTINUOUS
  0
LAYER
  2
50
 70
     0
 62
     1
  6
CONTINUOUS
  0
LAYER
  2
70
 70
     0
 62
     1
  6
CONTINUOUS
  0
LAYER
  2
100
 70
     0
 62
     1
  6
CONTINUOUS
  0
LAYER
  2
150
 70
     0
 62
     1
  6
CONTINUOUS
  0
ENDTAB
  0
TABLE
  2
STYLE
 70
     3
  0
STYLE
  2
STANDARD
 70
     0
 40
0.0
 41
1.0
 50
0.0
 71
     0
 42
0.0
  3
txt
  4

  0
STYLE
  2

 70
     0
 40
1000.0
 41
1.0
 50
0.0
 71
     0
 42
1000.0
  3
txt
  4
extfont
  0
STYLE
  2

 70
     0
 40
1000.0
 41
1.0
 50
0.0
 71
     0
 42
1000.0
  3
txt
  4
extfont
  0
ENDTAB
  0
TABLE
  2
VIEW
 70
     0
  0
ENDTAB
  0
TABLE
  2
UCS
 70
     0
  0
ENDTAB
  0
TABLE
  2
APPID
 70
     1
  0
APPID
  2
ACAD
 70
     0
  0
ENDTAB
  0
TABLE
  2
DIMSTYLE
 70
     1
  0
DIMSTYLE
  2
STANDARD
 70
     0
  3

  4

  5

  6

  7

 40
1.0
 41
0.18
 42
0.0625
 43
0.38
 44
0.18
 45
0.0
 46
0.0
 47
0.0
 48
0.0
 71
     0
 72
     0
 73
     1
 74
     1
 75
     0
 76
     0
 77
     0
 78
     0
140
0.18
141
0.09
142
0.0
143
25.4
144
1.0
145
0.0
146
1.0
147
0.09
170
     0
171
     2
172
     0
173
     0
174
     0
175
     0
176
     0
177
     0
178
     0
  0
ENDTAB
  0
ENDSEC
  0
SECTION
  2
BLOCKS
  0
ENDSEC
  0
SECTION
  2
ENTITIES
  0
LINE
  8
1
  6
CONTINUOUS
 62
     7
  5
102
 10
50182.316797
 20
8819.824593
 30
0.0
 11
50809.316807
 21
8819.824593
 31
0.0
  0
ARC
  8
1
  6
CONTINUOUS
 62
     7
  5
103
 10
50808.316787
 20
8973.824943
 30
0.0
 40
1.00002
 50
270.0
 51
0.0
  0
CIRCLE
  8
2
  6
CONTINUOUS
 62
     7
  5
104
 10
50809.316807
 20
8817.824623
 30
0.0
 40
2.00004
  0
LINE
  8
1
  6
CONTINUOUS
 62
     7
  5
105
 10
50809.316807
 20
9014.824643
 30
0.0
 11
50809.316807
 21
8973.824943
 31
0.0
  0
LINE
  8
1
  6
CONTINUOUS
 62
     7
  5
106
 10
50809.316807
 20
9027.824623
 30
0.0
 11
50809.316807
 21
9020.824623
 31
0.0
  0
LINE
  8
1
  6
CONTINUOUS
 62
     7
  5
107
 10
50809.316807
 20
9020.824623
 30
0.0
 11
50809.316807
 21
9014.824643
 31
0.0
  0
ARC
  8
1
  6
CONTINUOUS
 62
     7
  5
108
 10
50808.316787
 20
9027.824623
 30
0.0
 40
1.00002
 50
0.0
 51
90.0
  0
LINE
  8
40
  6
CONTINUOUS
 62
     4
  5
109
 10
50907.316807
 20
8819.824593
 30
0.0
 11
50907.316807
 21
11219.824573
 31
0.0
  0
ARC
  8
1
  6
CONTINUOUS
 62
     1
  5
10A
 10
50674.816847
 20
8994.824453
 30
0.0
 40
700.00014
 50
90.0
 51
98.53049
  0
LINE
  8
1
  6
CONTINUOUS
 62
     1
  5
10B
 10
50782.316827
 20
9644.824573
 30
0.0
 11
50567.317147
 21
9644.824573
 31
0.0
  0
LINE
  8
1
  6
CONTINUOUS
 62
     1
  5
10C
 10
50783.316847
 20
9644.824573
 30
0.0
 11
50566.316847
 21
9644.824573
 31
0.0
  0
LINE
  8
1
  6
CONTINUOUS
 62
     1
  5
10D
 10
50774.109887
 20
9685.886573
 30
0.0
 11
50574.693887
 21
9685.886573
 31
0.0
  0
LINE
  8
1
  6
CONTINUOUS
 62
     1
  5
10E
 10
50786.316907
 20
9640.824493
 30
0.0
 11
50563.371107
 21
9640.824493
 31
0.0
  0
LINE
  8
1
  6
CONTINUOUS
 62
     1
  5
10F
 10
50707.966887
 20
9604.824473
 30
0.0
 11
50707.966887
 21
9483.366353
 31
0.0
  0
LINE
  8
1
  6
CONTINUOUS
 62
     1
  5
110
 10
50720.666777
 20
9483.366353
 30
0.0
 11
50720.667057
 21
9598.804473
 31
0.0
  0
ARC
  8
1
  6
CONTINUOUS
 62
     1
  5
111
 10
50715.816687
 20
9410.324153
 30
0.0
 40
12.50004
 50
323.1301
 51
36.869898
  0
LINE
  8
1
  6
CONTINUOUS
 62
     1
  5
112
 10
50724.316787
 20
9459.324573
 30
0.0
 11
50724.316787
 21
9461.824553
 31
0.0
  0
LINE
  8
1
  6
CONTINUOUS
 62
     1
  5
113
 10
50702.816847
 20
9461.824553
 30
0.0
 11
50702.816847
 21
9437.824633
 31
0.0
  0
LINE
  8
1
  6
CONTINUOUS
 62
     1
  5
114
 10
50704.316807
 20
9461.824553
 30
0.0
 11
50704.316807
 21
9459.324573
 31
0.0
  0
LINE
  8
1
  6
CONTINUOUS
 62
     1
  5
115
 10
50725.816887
 20
9437.824633
 30
0.0
 11
50725.816887
 21
9461.824553
 31
0.0
  0
ARC
  8
1
  6
CONTINUOUS
 62
     1
  5
116
 10
50712.727587
 20
9430.556673
 30
0.0
 40
11.1608
 50
204.439313
 51
212.520409
  0
ARC
  8
1
  6
CONTINUOUS
 62
     1
  5
117
 10
50715.906147
 20
9430.556673
 30
0.0
 40
11.1608
 50
327.479591
 51
335.560687
  0
LINE
  8
1
  6
CONTINUOUS
 62
     1
  5
118
 10
50721.316867
 20
9422.056713
 30
0.0
 11
50707.316867
 21
9422.056713
 31
0.0
  0
LINE
  8
1
  6
CONTINUOUS
 62
     1
  5
119
 10
50720.712557
 20
9405.056653
 30
0.0
 11
50707.921247
 21
9405.056653
 31
0.0
  0
LINE
  8
1
  6
CONTINUOUS
 62
     1
  5
11A
 10
50706.316847
 20
9424.556693
 30
0.0
 11
50722.316887
 21
9424.556693
 31
0.0
  0
LINE
  8
1
  6
CONTINUOUS
 62
     1
  5
11B
 10
50721.316867
 20
9424.056613
 30
0.0
 11
50707.316867
 21
9424.056613
 31
0.0
  0
LINE
  8
1
  6
CONTINUOUS
 62
     1
  5
11C
 10
50722.066847
 20
9399.056673
 30
0.0
 11
50706.566887
 21
9399.056673
 31
0.0
  0
ARC
  8
1
  6
CONTINUOUS
 62
     1
  5
11D
 10
50719.546077
 20
9409.806713
 30
0.0
 40
3.27082
 50
302.779079
 51
57.220918
  0
ARC
  8
1
  6
CONTINUOUS
 62
     1
  5
11E
 10
50720.712557
 20
9402.952313
 30
0.0
 40
2.10434
 50
0.0
 51
73.310025
  0
ARC
  8
1
  6
CONTINUOUS
 62
     1
  5
11F
 10
50720.712557
 20
9402.952313
 30
0.0
 40
2.10434
 50
73.310025
 51
90.0
  0
LINE
  8
1
  6
CONTINUOUS
 62
     1
  5
120
 10
50722.816827
 20
9399.056673
 30
0.0
 11
50722.816827
 21
9402.952313
 31
0.0
  0
LINE
  8
1
  6
CONTINUOUS
 62
     1
  5
121
 10
50721.316867
 20
9404.968033
 30
0.0
 11
50721.316867
 21
9407.056693
 31
0.0
  0
LINE
  8
1
  6
CONTINUOUS
 62
     1
  5
122
 10
50722.816827
 20
9399.056673
 30
0.0
 11
50722.066847
 21
9399.056673
 31
0.0
  0
LINE
  8
1
  6
CONTINUOUS
 62
     1
  5
123
 10
50724.616807
 20
9402.824073
 30
0.0
 11
50722.816827
 21
9402.824073
 31
0.0
  0
LINE
  8
1
  6
CONTINUOUS
 62
     1
  5
124
 10
50725.816607
 20
9402.824213
 30
0.0
 11
50724.616807
 21
9402.824073
 31
0.0
  0
ARC
  8
1
  6
CONTINUOUS
 62
     1
  5
125
 10
50717.379367
 20
9418.306673
 30
0.0
 40
5.4376
 50
316.397182
 51
43.602819
  0
LINE
  8
1
  6
CONTINUOUS
 62
     1
  5
126
 10
50724.794467
 20
9424.556693
 30
0.0
 11
50724.795307
 21
9417.823673
 31
0.0
  0
LINE
  8
1
  6
CONTINUOUS
 62
     1
  5
127
 10
50722.316887
 20
9424.556693
 30
0.0
 11
50722.316887
 21
9424.056613
 31
0.0
  0
LINE
  8
1
  6
CONTINUOUS
 62
     1
  5
128
 10
50722.316887
 20
9424.556693
 30
0.0
 11
50725.316807
 21
9424.556693
 31
0.0
  0
LINE
  8
1
  6
CONTINUOUS
 62
     1
  5
129
 10
50722.316887
 20
9424.056613
 30
0.0
 11
50721.316867
 21
9424.056613
 31
0.0
  0
LINE
  8
1
  6
CONTINUOUS
 62
     1
  5
12A
 10
50721.316867
 20
9422.056713
 30
0.0
 11
50721.316867
 21
9424.056613
 31
0.0
  0
LINE
  8
1
  6
CONTINUOUS
 62
     1
  5
12B
 10
50721.316867
 20
9412.556733
 30
0.0
 11
50721.316867
 21
9414.556633
 31
0.0
  0
LINE
  8
1
  6
CONTINUOUS
 62
     1
  5
12C
 10
50724.795307
 20
9417.823673
 30
0.0
 11
50722.795337
 21
9417.823673
 31
0.0
  0
LINE
  8
1
  6
CONTINUOUS
 62
     1
  5
12D
 10
50725.816607
 20
9417.824233
 30
0.0
 11
50724.795307
 21
9417.823673
 31
0.0
  0
ARC
  8
1
  6
CONTINUOUS
 62
     1
  5
12E
 10
50709.087727
 20
9409.806713
 30
0.0
 40
3.27082
 50
122.77908
 51
237.220917
  0
ARC
  8
1
  6
CONTINUOUS
 62
     1
  5
12F
 10
50712.816697
 20
9410.324153
 30
0.0
 40
12.50004
 50
143.130836
 51
216.869896
  0
LINE
  8
1
  6
CONTINUOUS
 62
     1
  5
130
 10
50705.816907
 20
9402.824073
 30
0.0
 11
50704.017067
 21
9402.824073
 31
0.0
  0
ARC
  8
1
  6
CONTINUOUS
 62
     1
  5
131
 10
50707.921247
 20
9402.952313
 30
0.0
 40
2.10434
 50
90.0
 51
106.689973
  0
ARC
  8
1
  6
CONTINUOUS
 62
     1
  5
132
 10
50707.921247
 20
9402.952313
 30
0.0
 40
2.10434
 50
106.689973
 51
180.0
  0
LINE
  8
1
  6
CONTINUOUS
 62
     1
  5
133
 10
50705.816907
 20
9402.952313
 30
0.0
 11
50705.816907
 21
9399.056673
 31
0.0
  0
LINE
  8
1
  6
CONTINUOUS
 62
     1
  5
134
 10
50707.316867
 20
9407.056693
 30
0.0
 11
50707.316867
 21
9404.968033
 31
0.0
  0
LINE
  8
1
  6
CONTINUOUS
 62
     1
  5
135
 10
50706.566887
 20
9399.056673
 30
0.0
 11
50705.816907
 21
9399.056673
 31
0.0
  0
LINE
  8
1
  6
CONTINUOUS
 62
     1
  5
136
 10
50704.017067
 20
9402.824073
 30
0.0
 11
50702.816637
 21
9402.824213
 31
0.0
  0
LINE
  8
1
  6
CONTINUOUS
 62
     1
  5
137
 10
50705.838257
 20
9417.823533
 30
0.0
 11
50703.840107
 21
9417.823533
 31
0.0
  0
LINE
  8
1
  6
CONTINUOUS
 62
     1
  5
138
 10
50703.316787
 20
9424.556693
 30
0.0
 11
50706.316847
 21
9424.556693
 31
0.0
  0
ARC
  8
1
  6
CONTINUOUS
 62
     1
  5
139
 10
50711.254367
 20
9418.306673
 30
0.0
 40
5.4376
 50
136.397181
 51
223.602817
  0
LINE
  8
1
  6
CONTINUOUS
 62
     1
  5
13A
 10
50707.316867
 20
9424.056613
 30
0.0
 11
50707.316867
 21
9422.056713
 31
0.0
  0
LINE
  8
1
  6
CONTINUOUS
 62
     1
  5
13B
 10
50707.316867
 20
9414.556633
 30
0.0
 11
50707.316867
 21
9412.556733
 31
0.0
  0
LINE
  8
1
  6
CONTINUOUS
 62
     1
  5
13C
 10
50706.316847
 20
9424.056613
 30
0.0
 11
50706.316847
 21
9424.556693
 31
0.0
  0
LINE
  8
1
  6
CONTINUOUS
 62
     1
  5
13D
 10
50707.316867
 20
9424.056613
 30
0.0
 11
50706.316847
 21
9424.056613
 31
0.0
  0
LINE
  8
1
  6
CONTINUOUS
 62
     1
  5
13E
 10
50703.839267
 20
9424.556693
 30
0.0
 11
50703.840107
 21
9417.823533
 31
0.0
  0
LINE
  8
1
  6
CONTINUOUS
 62
     1
  5
13F
 10
50703.840107
 20
9417.823533
 30
0.0
 11
50702.816637
 21
9417.823953
 31
0.0
  0
LINE
  8
1
  6
CONTINUOUS
 62
     1
  5
140
 10
50724.316787
 20
9459.324573
 30
0.0
 11
50704.316807
 21
9459.324573
 31
0.0
  0
LINE
  8
1
  6
CONTINUOUS
 62
     1
  5
141
 10
50724.566827
 20
9436.556653
 30
0.0
 11
50704.066907
 21
9436.556653
 31
0.0
  0
LINE
  8
1
  6
CONTINUOUS
 62
     1
  5
142
 10
50704.066907
 20
9440.324613
 30
0.0
 11
50724.566827
 21
9440.324613
 31
0.0
  0
LINE
  8
1
  6
CONTINUOUS
 62
     1
  5
143
 10
50725.566847
 20
9440.324613
 30
0.0
 11
50725.566847
 21
9459.324573
 31
0.0
  0
ARC
  8
1
  6
CONTINUOUS
 62
     1
  5
144
 10
50715.906147
 20
9430.556673
 30
0.0
 40
11.1608
 50
24.439313
 51
32.520409
  0
ARC
  8
1
  6
CONTINUOUS
 62
     1
  5
145
 10
50715.906147
 20
9430.824633
 30
0.0
 40
11.1608
 50
24.439313
 51
32.520409
  0
LINE
  8
1
  6
CONTINUOUS
 62
     1
  5
146
 10
50726.066787
 20
9425.939193
 30
0.0
 11
50726.066787
 21
9435.174153
 31
0.0
  0
LINE
  8
1
  6
CONTINUOUS
 62
     1
  5
147
 10
50724.566827
 20
9437.824633
 30
0.0
 11
50725.816887
 21
9437.824633
 31
0.0
  0
LINE
  8
1
  6
CONTINUOUS
 62
     1
  5
148
 10
50725.316807
 20
9436.824613
 30
0.0
 11
50724.566827
 21
9436.824613
 31
0.0
  0
LINE
  8
1
  6
CONTINUOUS
 62
     1
  5
149
 10
50725.316807
 20
9436.556653
 30
0.0
 11
50724.566827
 21
9436.556653
 31
0.0
  0
LINE
  8
1
  6
CONTINUOUS
 62
     1
  5
14A
 10
50724.566827
 20
9436.556653
 30
0.0
 11
50724.566827
 21
9436.824613
 31
0.0
  0
LINE
  8
1
  6
CONTINUOUS
 62
     1
  5
14B
 10
50724.566827
 20
9440.324613
 30
0.0
 11
50725.566847
 21
9440.324613
 31
0.0
  0
LINE
  8
1
  6
CONTINUOUS
 62
     1
  5
14C
 10
50724.566827
 20
9437.824633
 30
0.0
 11
50724.566827
 21
9440.324613
 31
0.0
  0
LINE
  8
1
  6
CONTINUOUS
 62
     1
  5
14D
 10
50724.566827
 20
9436.824613
 30
0.0
 11
50724.566827
 21
9437.824633
 31
0.0
  0
LINE
  8
1
  6
CONTINUOUS
 62
     1
  5
14E
 10
50726.066787
 20
9435.174153
 30
0.0
 11
50726.066787
 21
9435.442113
 31
0.0
  0
LINE
  8
1
  6
CONTINUOUS
 62
     1
  5
14F
 10
50725.566847
 20
9459.324573
 30
0.0
 11
50724.316787
 21
9459.324573
 31
0.0
  0
LINE
  8
1
  6
CONTINUOUS
 62
     1
  5
150
 10
50703.066887
 20
9459.324573
 30
0.0
 11
50703.066887
 21
9440.324613
 31
0.0
  0
ARC
  8
1
  6
CONTINUOUS
 62
     1
  5
151
 10
50712.727587
 20
9430.556673
 30
0.0
 40
11.1608
 50
147.479591
 51
155.560687
  0
ARC
  8
1
  6
CONTINUOUS
 62
     1
  5
152
 10
50712.727587
 20
9430.824633
 30
0.0
 40
11.1608
 50
147.479591
 51
155.560687
  0
LINE
  8
1
  6
CONTINUOUS
 62
     1
  5
153
 10
50702.566807
 20
9425.939193
 30
0.0
 11
50702.566807
 21
9435.174153
 31
0.0
  0
LINE
  8
1
  6
CONTINUOUS
 62
     1
  5
154
 10
50704.066907
 20
9436.824613
 30
0.0
 11
50703.316787
 21
9436.824613
 31
0.0
  0
LINE
  8
1
  6
CONTINUOUS
 62
     1
  5
155
 10
50704.066907
 20
9440.324613
 30
0.0
 11
50704.066907
 21
9437.824633
 31
0.0
  0
LINE
  8
1
  6
CONTINUOUS
 62
     1
  5
156
 10
50703.066887
 20
9440.324613
 30
0.0
 11
50704.066907
 21
9440.324613
 31
0.0
  0
LINE
  8
1
  6
CONTINUOUS
 62
     1
  5
157
 10
50704.066907
 20
9436.556653
 30
0.0
 11
50703.316787
 21
9436.556653
 31
0.0
  0
LINE
  8
1
  6
CONTINUOUS
 62
     1
  5
158
 10
50702.816847
 20
9437.824633
 30
0.0
 11
50704.066907
 21
9437.824633
 31
0.0
  0
LINE
  8
1
  6
CONTINUOUS
 62
     1
  5
159
 10
50704.066907
 20
9437.824633
 30
0.0
 11
50704.066907
 21
9436.824613
 31
0.0
  0
LINE
  8
1
  6
CONTINUOUS
 62
     1
  5
15A
 10
50704.066907
 20
9436.824613
 30
0.0
 11
50704.066907
 21
9436.556653
 31
0.0
  0
LINE
  8
1
  6
CONTINUOUS
 62
     1
  5
15B
 10
50702.566807
 20
9435.174153
 30
0.0
 11
50702.566807
 21
9435.442113
 31
0.0
  0
LINE
  8
1
  6
CONTINUOUS
 62
     1
  5
15C
 10
50704.316807
 20
9459.324573
 30
0.0
 11
50703.066887
 21
9459.324573
 31
0.0
  0
LINE
  8
1
  6
CONTINUOUS
 62
     1
  5
15D
 10
50708.316887
 20
9474.824673
 30
0.0
 11
50713.316847
 21
9474.824673
 31
0.0
  0
LINE
  8
1
  6
CONTINUOUS
 62
     1
  5
15E
 10
50713.316847
 20
9474.324593
 30
0.0
 11
50707.816807
 21
9474.324593
 31
0.0
  0
LINE
  8
1
  6
CONTINUOUS
 62
     1
  5
15F
 10
50707.966887
 20
9483.366353
 30
0.0
 11
50720.666777
 21
9483.366353
 31
0.0
  0
LINE
  8
1
  6
CONTINUOUS
 62
     1
  5
160
 10
50726.966287
 20
9476.566833
 30
0.0
 11
50723.329087
 21
9482.866693
 31
0.0
  0
LINE
  8
1
  6
CONTINUOUS
 62
     1
  5
161
 10
50715.316887
 20
9474.824673
 30
0.0
 11
50720.316847
 21
9474.824673
 31
0.0
  0
LINE
  8
1
  6
CONTINUOUS
 62
     1
  5
162
 10
50720.816787
 20
9474.324593
 30
0.0
 11
50715.316887
 21
9474.324593
 31
0.0
  0
ARC
  8
1
  6
CONTINUOUS
 62
     1
  5
163
 10
50723.316907
 20
9473.324573
 30
0.0
 40
1.00002
 50
0.0
 51
90.0
  0
LINE
  8
1
  6
CONTINUOUS
 62
     1
  5
164
 10
50724.316787
 20
9464.566733
 30
0.0
 11
50725.566077
 21
9464.566873
 31
0.0
  0
LINE
  8
1
  6
CONTINUOUS
 62
     1
  5
165
 10
50724.316787
 20
9471.824613
 30
0.0
 11
50724.316787
 21
9473.324573
 31
0.0
  0
LINE
  8
1
  6
CONTINUOUS
 62
     1
  5
166
 10
50723.316907
 20
9474.324593
 30
0.0
 11
50720.816787
 21
9474.324593
 31
0.0
  0
LINE
  8
1
  6
CONTINUOUS
 62
     1
  5
167
 10
50720.316847
 20
9474.824673
 30
0.0
 11
50720.816787
 21
9474.324593
 31
0.0
  0
LINE
  8
1
  6
CONTINUOUS
 62
     1
  5
168
 10
50724.816867
 20
9461.824553
 30
0.0
 11
50724.816867
 21
9464.566733
 31
0.0
  0
LINE
  8
1
  6
CONTINUOUS
 62
     1
  5
169
 10
50725.816887
 20
9461.824553
 30
0.0
 11
50724.816867
 21
9461.824553
 31
0.0
  0
LINE
  8
1
  6
CONTINUOUS
 62
     1
  5
16A
 10
50724.316787
 20
9461.824553
 30
0.0
 11
50724.316787
 21
9471.824613
 31
0.0
  0
LINE
  8
1
  6
CONTINUOUS
 62
     1
  5
16B
 10
50724.816867
 20
9461.824553
 30
0.0
 11
50724.316787
 21
9461.824553
 31
0.0
  0
LINE
  8
1
  6
CONTINUOUS
 62
     1
  5
16C
 10
50726.910287
 20
9466.895073
 30
0.0
 11
50726.966287
 21
9476.566833
 31
0.0
  0
LINE
  8
1
  6
CONTINUOUS
 62
     1
  5
16D
 10
50725.566077
 20
9464.566873
 30
0.0
 11
50726.910287
 21
9466.895073
 31
0.0
  0
LINE
  8
1
  6
CONTINUOUS
 62
     1
  5
16E
 10
50715.316887
 20
9474.324593
 30
0.0
 11
50715.316887
 21
9474.824673
 31
0.0
  0
LINE
  8
1
  6
CONTINUOUS
 62
     1
  5
16F
 10
50713.316847
 20
9474.824673
 30
0.0
 11
50713.316847
 21
9474.324593
 31
0.0
  0
LINE
  8
1
  6
CONTINUOUS
 62
     1
  5
170
 10
50715.316887
 20
9474.324593
 30
0.0
 11
50713.316847
 21
9474.324593
 31
0.0
  0
ARC
  8
1
  6
CONTINUOUS
 62
     1
  5
171
 10
50722.462907
 20
9482.366893
 30
0.0
 40
1.00002
 50
29.985075
 51
90.0
  0
LINE
  8
1
  6
CONTINUOUS
 62
     1
  5
172
 10
50720.666777
 20
9483.366353
 30
0.0
 11
50722.462907
 21
9483.366913
 31
0.0
  0
LINE
  8
1
  6
CONTINUOUS
 62
     1
  5
173
 10
50701.721907
 20
9476.566833
 30
0.0
 11
50705.303947
 21
9482.866693
 31
0.0
  0
ARC
  8
1
  6
CONTINUOUS
 62
     1
  5
174
 10
50705.316827
 20
9473.324573
 30
0.0
 40
1.00002
 50
90.0
 51
180.0
  0
LINE
  8
1
  6
CONTINUOUS
 62
     1
  5
175
 10
50707.816807
 20
9474.324593
 30
0.0
 11
50708.316887
 21
9474.824673
 31
0.0
  0
LINE
  8
1
  6
CONTINUOUS
 62
     1
  5
176
 10
50707.816807
 20
9474.324593
 30
0.0
 11
50705.316827
 21
9474.324593
 31
0.0
  0
LINE
  8
1
  6
CONTINUOUS
 62
     1
  5
177
 10
50703.816867
 20
9464.566733
 30
0.0
 11
50703.816867
 21
9461.824553
 31
0.0
  0
LINE
  8
1
  6
CONTINUOUS
 62
     1
  5
178
 10
50704.316807
 20
9471.824613
 30
0.0
 11
50704.316807
 21
9461.824553
 31
0.0
  0
LINE
  8
1
  6
CONTINUOUS
 62
     1
  5
179
 10
50704.316807
 20
9473.324573
 30
0.0
 11
50704.316807
 21
9471.824613
 31
0.0
  0
LINE
  8
1
  6
CONTINUOUS
 62
     1
  5
17A
 10
50703.816867
 20
9461.824553
 30
0.0
 11
50702.816847
 21
9461.824553
 31
0.0
  0
LINE
  8
1
  6
CONTINUOUS
 62
     1
  5
17B
 10
50704.316807
 20
9461.824553
 30
0.0
 11
50703.816867
 21
9461.824553
 31
0.0
  0
LINE
  8
1
  6
CONTINUOUS
 62
     1
  5
17C
 10
50701.721907
 20
9466.895073
 30
0.0
 11
50701.721907
 21
9476.566833
 31
0.0
  0
LINE
  8
1
  6
CONTINUOUS
 62
     1
  5
17D
 10
50703.066257
 20
9464.566873
 30
0.0
 11
50701.721907
 21
9466.895073
 31
0.0
  0
LINE
  8
1
  6
CONTINUOUS
 62
     1
  5
17E
 10
50703.066257
 20
9464.566873
 30
0.0
 11
50704.316807
 21
9464.566733
 31
0.0
  0
ARC
  8
1
  6
CONTINUOUS
 62
     1
  5
17F
 10
50706.169917
 20
9482.366893
 30
0.0
 40
0.99988
 50
90.0
 51
150.006332
  0
LINE
  8
1
  6
CONTINUOUS
 62
     1
  5
180
 10
50706.169917
 20
9483.366913
 30
0.0
 11
50707.966887
 21
9483.366353
 31
0.0
  0
ARC
  8
1
  6
CONTINUOUS
 62
     1
  5
181
 10
50777.316587
 20
9678.179853
 30
0.0
 40
9.00032
 50
359.99794
 51
81.46812
  0
LINE
  8
1
  6
CONTINUOUS
 62
     1
  5
182
 10
50786.316907
 20
9647.824493
 30
0.0
 11
50786.316907
 21
9678.179573
 31
0.0
  0
ARC
  8
1
  6
CONTINUOUS
 62
     1
  5
183
 10
50714.316867
 20
9604.824473
 30
0.0
 40
19.0001
 50
289.524792
 51
180.0
  0
ARC
  8
1
  6
CONTINUOUS
 62
     1
  5
184
 10
50783.316847
 20
9647.824493
 30
0.0
 40
3.00006
 50
270.0
 51
0.0
  0
LINE
  8
1
  6
CONTINUOUS
 62
     1
  5
185
 10
50786.316907
 20
9640.824493
 30
0.0
 11
50782.316827
 21
9644.824573
 31
0.0
  0
ARC
  8
1
  6
CONTINUOUS
 62
     1
  5
186
 10
50714.316867
 20
9604.824473
 30
0.0
 40
19.0001
 50
180.0
 51
250.47578
  0
ARC
  8
1
  6
CONTINUOUS
 62
     1
  5
187
 10
50714.316867
 20
9604.824473
 30
0.0
 40
12.74994
 50
205.582475
 51
214.416339
  0
ARC
  8
1
  6
CONTINUOUS
 62
     1
  5
188
 10
50714.316867
 20
9604.824473
 30
0.0
 40
12.75008
 50
325.58329
 51
334.416928
  0
LINE
  8
1
  6
CONTINUOUS
 62
     1
  5
189
 10
50720.667057
 20
9595.211793
 30
0.0
 11
50724.834927
 21
9597.618113
 31
0.0
  0
LINE
  8
1
  6
CONTINUOUS
 62
     1
  5
18A
 10
50703.798807
 20
9597.618253
 30
0.0
 11
50707.966887
 21
9595.211653
 31
0.0
  0
ARC
  8
1
  6
CONTINUOUS
 62
     1
  5
18B
 10
50714.316867
 20
9604.824473
 30
0.0
 40
6.34998
 50
0.0
 51
180.0
  0
LINE
  8
1
  6
CONTINUOUS
 62
     1
  5
18C
 10
50713.334977
 20
9617.536613
 30
0.0
 11
50703.798807
 21
9612.030973
 31
0.0
  0
LINE
  8
1
  6
CONTINUOUS
 62
     1
  5
18D
 10
50724.834787
 20
9612.030973
 30
0.0
 11
50715.298827
 21
9617.536613
 31
0.0
  0
ARC
  8
1
  6
CONTINUOUS
 62
     1
  5
18E
 10
50714.316867
 20
9604.824473
 30
0.0
 40
12.75008
 50
25.583073
 51
34.417335
  0
LINE
  8
1
  6
CONTINUOUS
 62
     1
  5
18F
 10
50725.816887
 20
9599.318833
 30
0.0
 11
50725.816887
 21
9610.330253
 31
0.0
  0
LINE
  8
1
  6
CONTINUOUS
 62
     1
  5
190
 10
50720.667057
 20
9598.804473
 30
0.0
 11
50720.667057
 21
9604.824473
 31
0.0
  0
ARC
  8
1
  6
CONTINUOUS
 62
     1
  5
191
 10
50714.316867
 20
9604.824473
 30
0.0
 40
12.75008
 50
85.582735
 51
94.417265
  0
ARC
  8
1
  6
CONTINUOUS
 62
     1
  5
192
 10
50714.316867
 20
9604.824473
 30
0.0
 40
12.75008
 50
145.582919
 51
154.417527
  0
LINE
  8
1
  6
CONTINUOUS
 62
     1
  5
193
 10
50702.816637
 20
9610.330113
 30
0.0
 11
50702.816637
 21
9599.318973
 31
0.0
  0
ARC
  8
1
  6
CONTINUOUS
 62
     1
  5
194
 10
50674.816847
 20
8994.824453
 30
0.0
 40
700.00014
 50
81.46951
 51
90.0
  0
LINE
  8
1
  6
CONTINUOUS
 62
     1
  5
195
 10
50563.316787
 20
9647.824493
 30
0.0
 11
50563.316787
 21
9678.179573
 31
0.0
  0
ARC
  8
1
  6
CONTINUOUS
 62
     1
  5
196
 10
50566.316847
 20
9647.824493
 30
0.0
 40
3.00006
 50
180.0
 51
270.0
  0
LINE
  8
1
  6
CONTINUOUS
 62
     1
  5
197
 10
50563.371107
 20
9640.824493
 30
0.0
 11
50567.317147
 21
9644.824573
 31
0.0
  0
ARC
  8
1
  6
CONTINUOUS
 62
     1
  5
198
 10
50572.317107
 20
9678.179853
 30
0.0
 40
9.00032
 50
98.53188
 51
180.002059
  0
LINE
  8
1
  6
CONTINUOUS
 62
     1
  5
199
 10
50704.017067
 20
9084.169513
 30
0.0
 11
50704.017067
 21
8974.148273
 31
0.0
  0
LINE
  8
1
  6
CONTINUOUS
 62
     1
  5
19A
 10
50777.316867
 20
8977.325013
 30
0.0
 11
50777.316867
 21
8968.824913
 31
0.0
  0
LINE
  8
1
  6
CONTINUOUS
 62
     1
  5
19B
 10
50737.316907
 20
8977.118093
 30
0.0
 11
50737.316907
 21
8970.531373
 31
0.0
  0
LINE
  8
1
  6
CONTINUOUS
 62
     1
  5
19C
 10
50773.316927
 20
8979.324773
 30
0.0
 11
50773.316927
 21
8974.324813
 31
0.0
  0
LINE
  8
1
  6
CONTINUOUS
 62
     1
  5
19D
 10
50742.816947
 20
8978.074713
 30
0.0
 11
50742.816947
 21
8969.574753
 31
0.0
  0
LINE
  8
1
  6
CONTINUOUS
 62
     1
  5
19E
 10
50772.316907
 20
8995.324813
 30
0.0
 11
50772.316907
 21
8974.324813
 31
0.0
  0
LINE
  8
1
  6
CONTINUOUS
 62
     1
  5
19F
 10
50754.816907
 20
8944.824713
 30
0.0
 11
50754.816907
 21
8998.824813
 31
0.0
  0
LINE
  8
1
  6
CONTINUOUS
 62
     1
  5
1A0
 10
50779.816847
 20
8967.824893
 30
0.0
 11
50793.816847
 21
8967.824893
 31
0.0
  0
LINE
  8
1
  6
CONTINUOUS
 62
     1
  5
1A1
 10
50808.316787
 20
8974.824893
 30
0.0
 11
50797.316847
 21
8974.824893
 31
0.0
  0
LINE
  8
1
  6
CONTINUOUS
 62
     1
  5
1A2
 10
50793.816847
 20
8967.824893
 30
0.0
 11
50792.844547
 21
8951.295513
 31
0.0
  0
LINE
  8
1
  6
CONTINUOUS
 62
     1
  5
1A3
 10
50793.816847
 20
8967.824893
 30
0.0
 11
50795.316807
 21
8967.824893
 31
0.0
  0
ARC
  8
1
  6
CONTINUOUS
 62
     1
  5
1A4
 10
50797.316847
 20
8973.825013
 30
0.0
 40
1.00002
 50
90.0
 51
180.0
  0
ARC
  8
1
  6
CONTINUOUS
 62
     1
  5
1A5
 10
50795.316807
 20
8968.824913
 30
0.0
 40
1.00002
 50
270.0
 51
0.0
  0
LINE
  8
1
  6
CONTINUOUS
 62
     1
  5
1A6
 10
50796.316827
 20
8968.824913
 30
0.0
 11
50796.316827
 21
8973.825013
 31
0.0
  0
LINE
  8
1
  6
CONTINUOUS
 62
     1
  5
1A7
 10
50773.316927
 20
8974.324813
 30
0.0
 11
50772.316907
 21
8974.324813
 31
0.0
  0
LINE
  8
1
  6
CONTINUOUS
 62
     1
  5
1A8
 10
50774.316947
 20
8959.824733
 30
0.0
 11
50772.316907
 21
8959.824733
 31
0.0
  0
LINE
  8
1
  6
CONTINUOUS
 62
     1
  5
1A9
 10
50779.816847
 20
8967.824893
 30
0.0
 11
50780.789147
 21
8951.295513
 31
0.0
  0
LINE
  8
1
  6
CONTINUOUS
 62
     1
  5
1AA
 10
50775.316827
 20
8952.824733
 30
0.0
 11
50775.316827
 21
8958.824713
 31
0.0
  0
ARC
  8
1
  6
CONTINUOUS
 62
     1
  5
1AB
 10
50778.316887
 20
8968.824913
 30
0.0
 40
1.00002
 50
180.0
 51
270.0
  0
ARC
  8
1
  6
CONTINUOUS
 62
     1
  5
1AC
 10
50774.316947
 20
8958.824713
 30
0.0
 40
1.00002
 50
0.0
 51
90.0
  0
LINE
  8
1
  6
CONTINUOUS
 62
     1
  5
1AD
 10
50778.316887
 20
8967.824893
 30
0.0
 11
50779.816847
 21
8967.824893
 31
0.0
  0
LINE
  8
1
  6
CONTINUOUS
 62
     1
  5
1AE
 10
50772.316907
 20
8959.824733
 30
0.0
 11
50772.316907
 21
8951.824713
 31
0.0
  0
LINE
  8
1
  6
CONTINUOUS
 62
     1
  5
1AF
 10
50772.316907
 20
8974.324813
 30
0.0
 11
50772.316907
 21
8959.824733
 31
0.0
  0
LINE
  8
1
  6
CONTINUOUS
 62
     1
  5
1B0
 10
50737.771627
 20
8970.033393
 30
0.0
 11
50742.816947
 21
8969.574753
 31
0.0
  0
LINE
  8
1
  6
CONTINUOUS
 62
     1
  5
1B1
 10
50742.816947
 20
8962.824793
 30
0.0
 11
50741.016827
 21
8962.824793
 31
0.0
  0
LINE
  8
1
  6
CONTINUOUS
 62
     1
  5
1B2
 10
50741.016827
 20
8958.824713
 30
0.0
 11
50742.816947
 21
8958.824713
 31
0.0
  0
LINE
  8
1
  6
CONTINUOUS
 62
     1
  5
1B3
 10
50742.816947
 20
8958.824713
 30
0.0
 11
50742.816947
 21
8947.671893
 31
0.0
  0
LINE
  8
1
  6
CONTINUOUS
 62
     1
  5
1B4
 10
50742.816947
 20
8962.824793
 30
0.0
 11
50742.816947
 21
8958.824713
 31
0.0
  0
LINE
  8
1
  6
CONTINUOUS
 62
     1
  5
1B5
 10
50742.816947
 20
8969.574753
 30
0.0
 11
50742.816947
 21
8962.824793
 31
0.0
  0
ARC
  8
1
  6
CONTINUOUS
 62
     1
  5
1B6
 10
50737.816847
 20
8970.531373
 30
0.0
 40
0.50008
 50
180.0
 51
264.805571
  0
ARC
  8
1
  6
CONTINUOUS
 62
     1
  5
1B7
 10
50741.016827
 20
8962.324713
 30
0.0
 40
0.50008
 50
90.0
 51
180.0
  0
ARC
  8
1
  6
CONTINUOUS
 62
     1
  5
1B8
 10
50741.016827
 20
8959.324793
 30
0.0
 40
0.50008
 50
180.0
 51
270.0
  0
LINE
  8
1
  6
CONTINUOUS
 62
     1
  5
1B9
 10
50740.516817
 20
8962.324713
 30
0.0
 11
50740.516817
 21
8959.324793
 31
0.0
  0
LINE
  8
1
  6
CONTINUOUS
 62
     1
  5
1BA
 10
50779.316907
 20
9030.824613
 30
0.0
 11
50808.316787
 21
9030.824613
 31
0.0
  0
ARC
  8
1
  6
CONTINUOUS
 62
     1
  5
1BB
 10
50683.833057
 20
9123.527993
 30
0.0
 40
15.0003
 50
315.400433
 51
334.82696
  0
LINE
  8
1
  6
CONTINUOUS
 62
     1
  5
1BC
 10
50754.816907
 20
8998.824813
 30
0.0
 11
50759.316927
 21
8998.824813
 31
0.0
  0
LINE
  8
1
  6
CONTINUOUS
 62
     1
  5
1BD
 10
50777.316867
 20
9028.824573
 30
0.0
 11
50777.316867
 21
8994.324513
 31
0.0
  0
ARC
  8
1
  6
CONTINUOUS
 62
     1
  5
1BE
 10
50771.316887
 20
8996.433473
 30
0.0
 40
1.00002
 50
0.0
 51
83.418055
  0
LINE
  8
1
  6
CONTINUOUS
 62
     1
  5
1BF
 10
50772.316907
 20
8995.324813
 30
0.0
 11
50773.316927
 21
8995.324813
 31
0.0
  0
LINE
  8
1
  6
CONTINUOUS
 62
     1
  5
1C0
 10
50775.316827
 20
8993.824573
 30
0.0
 11
50775.316827
 21
8977.824953
 31
0.0
  0
LINE
  8
1
  6
CONTINUOUS
 62
     1
  5
1C1
 10
50777.316867
 20
8994.324513
 30
0.0
 11
50777.316867
 21
8977.325013
 31
0.0
  0
LINE
  8
1
  6
CONTINUOUS
 62
     1
  5
1C2
 10
50773.316927
 20
8995.324813
 30
0.0
 11
50773.316927
 21
8992.324753
 31
0.0
  0
ARC
  8
1
  6
CONTINUOUS
 62
     1
  5
1C3
 10
50775.816907
 20
8977.824953
 30
0.0
 40
0.50008
 50
180.0
 51
270.0
  0
LINE
  8
1
  6
CONTINUOUS
 62
     1
  5
1C4
 10
50775.816907
 20
8977.325013
 30
0.0
 11
50777.316867
 21
8977.325013
 31
0.0
  0
LINE
  8
1
  6
CONTINUOUS
 62
     1
  5
1C5
 10
50773.316927
 20
8992.324753
 30
0.0
 11
50775.316827
 21
8991.324733
 31
0.0
  0
LINE
  8
1
  6
CONTINUOUS
 62
     1
  5
1C6
 10
50775.316827
 20
8991.324733
 30
0.0
 11
50775.316827
 21
8989.024813
 31
0.0
  0
LINE
  8
1
  6
CONTINUOUS
 62
     1
  5
1C7
 10
50775.316827
 20
8980.324793
 30
0.0
 11
50773.316927
 21
8979.324773
 31
0.0
  0
LINE
  8
1
  6
CONTINUOUS
 62
     1
  5
1C8
 10
50775.316827
 20
8989.024813
 30
0.0
 11
50775.316827
 21
8982.624713
 31
0.0
  0
LINE
  8
1
  6
CONTINUOUS
 62
     1
  5
1C9
 10
50775.316827
 20
8982.624713
 30
0.0
 11
50775.316827
 21
8980.324793
 31
0.0
  0
ARC
  8
1
  6
CONTINUOUS
 62
     1
  5
1CA
 10
50775.816907
 20
8993.824573
 30
0.0
 40
0.50008
 50
90.0
 51
180.0
  0
LINE
  8
1
  6
CONTINUOUS
 62
     1
  5
1CB
 10
50775.816907
 20
8994.324513
 30
0.0
 11
50777.316867
 21
8994.324513
 31
0.0
  0
LINE
  8
1
  6
CONTINUOUS
 62
     1
  5
1CC
 10
50771.431617
 20
8997.426913
 30
0.0
 11
50759.316927
 21
8998.824813
 31
0.0
  0
LINE
  8
1
  6
CONTINUOUS
 62
     1
  5
1CD
 10
50772.316907
 20
8996.433473
 30
0.0
 11
50772.316907
 21
8995.324813
 31
0.0
  0
ARC
  8
1
  6
CONTINUOUS
 62
     1
  5
1CE
 10
50779.316907
 20
9028.824573
 30
0.0
 40
2.00004
 50
90.0
 51
180.0
  0
LINE
  8
1
  6
CONTINUOUS
 62
     1
  5
1CF
 10
50742.816947
 20
8978.074713
 30
0.0
 11
50737.771627
 21
8977.616073
 31
0.0
  0
LINE
  8
1
  6
CONTINUOUS
 62
     1
  5
1D0
 10
50742.816947
 20
8996.442013
 30
0.0
 11
50742.816947
 21
8978.074713
 31
0.0
  0
LINE
  8
1
  6
CONTINUOUS
 62
     1
  5
1D1
 10
50754.816907
 20
8998.824813
 30
0.0
 11
50743.692857
 21
8997.434193
 31
0.0
  0
ARC
  8
1
  6
CONTINUOUS
 62
     1
  5
1D2
 10
50743.816827
 20
8996.442013
 30
0.0
 40
1.00002
 50
97.125016
 51
180.0
  0
ARC
  8
1
  6
CONTINUOUS
 62
     1
  5
1D3
 10
50737.816847
 20
8977.118093
 30
0.0
 40
0.50008
 50
95.194429
 51
180.0
  0
ARC
  8
1
  6
CONTINUOUS
 62
     1
  5
1D4
 10
50702.066867
 20
9104.074293
 30
0.0
 40
19.99998
 50
270.0
 51
0.0
  0
ARC
  8
1
  6
CONTINUOUS
 62
     1
  5
1D5
 10
50702.066867
 20
9104.074293
 30
0.0
 40
4.50002
 50
270.0
 51
0.0
  0
LINE
  8
1
  6
CONTINUOUS
 62
     1
  5
1D6
 10
50681.279807
 20
9099.574273
 30
0.0
 11
50694.513867
 21
9112.995513
 31
0.0
  0
LINE
  8
1
  6
CONTINUOUS
 62
     1
  5
1D7
 10
50724.616807
 20
9199.824213
 30
0.0
 11
50776.452787
 21
9199.824213
 31
0.0
  0
ARC
  8
1
  6
CONTINUOUS
 62
     1
  5
1D8
 10
50721.316657
 20
9224.823313
 30
0.0
 40
65.00018
 50
341.921248
 51
0.000794
  0
ARC
  8
1
  6
CONTINUOUS
 62
     1
  5
1D9
 10
50776.453207
 20
9206.824493
 30
0.0
 40
7.00028
 50
269.997337
 51
341.922149
  0
LINE
  8
1
  6
CONTINUOUS
 62
     1
  5
1DA
 10
50702.316907
 20
9174.824273
 30
0.0
 11
50702.316907
 21
9199.824213
 31
0.0
  0
LINE
  8
1
  6
CONTINUOUS
 62
     1
  5
1DB
 10
50697.408857
 20
9117.147493
 30
0.0
 11
50701.366937
 21
9125.571573
 31
0.0
  0
LINE
  8
1
  6
CONTINUOUS
 62
     1
  5
1DC
 10
50702.311937
 20
9130.127593
 30
0.0
 11
50702.316907
 21
9174.824273
 31
0.0
  0
ARC
  8
1
  6
CONTINUOUS
 62
     1
  5
1DD
 10
50692.316847
 20
9129.824633
 30
0.0
 40
9.99964
 50
334.828273
 51
1.735604
  0
LINE
  8
1
  6
CONTINUOUS
 62
     1
  5
1DE
 10
50702.316907
 20
9195.824273
 30
0.0
 11
50692.316847
 21
9195.824273
 31
0.0
  0
LINE
  8
1
  6
CONTINUOUS
 62
     1
  5
1DF
 10
50692.316847
 20
9195.824273
 30
0.0
 11
50692.316847
 21
9199.824213
 31
0.0
  0
ARC
  8
1
  6
CONTINUOUS
 62
     1
  5
1E0
 10
50742.469887
 20
9019.856033
 30
0.0
 40
99.56072
 50
139.833143
 51
151.374571
  0
LINE
  8
1
  6
CONTINUOUS
 62
     1
  5
1E1
 10
50653.467477
 20
9070.628713
 30
0.0
 11
50666.173527
 21
9084.074313
 31
0.0
  0
LINE
  8
1
  6
CONTINUOUS
 62
     1
  5
1E2
 10
50654.316787
 20
9174.824273
 30
0.0
 11
50654.316787
 21
9174.624213
 31
0.0
  0
LINE
  8
1
  6
CONTINUOUS
 62
     1
  5
1E3
 10
50722.066847
 20
9399.056673
 30
0.0
 11
50722.066847
 21
9104.074293
 31
0.0
  0
LINE
  8
1
  6
CONTINUOUS
 62
     1
  5
1E4
 10
50706.566887
 20
9399.056673
 30
0.0
 11
50706.566887
 21
9104.074293
 31
0.0
  0
LINE
  8
1
  6
CONTINUOUS
 62
     1
  5
1E5
 10
50786.316907
 20
9224.824293
 30
0.0
 11
50786.316907
 21
9640.824493
 31
0.0
  0
LINE
  8
1
  6
CONTINUOUS
 62
     1
  5
1E6
 10
50704.017067
 20
9402.824073
 30
0.0
 11
50704.017067
 21
9100.018773
 31
0.0
  0
LINE
  8
1
  6
CONTINUOUS
 62
     1
  5
1E7
 10
50786.316837
 20
9224.824293
 30
0.0
 11
50786.316837
 21
9678.179433
 31
0.0
  0
LINE
  8
1
  6
CONTINUOUS
 62
     1
  5
1E8
 10
50704.017067
 20
8967.485673
 30
0.0
 11
50704.017067
 21
8848.224293
 31
0.0
  0
LINE
  8
1
  6
CONTINUOUS
 62
     1
  5
1E9
 10
50724.616807
 20
9402.824073
 30
0.0
 11
50724.616807
 21
8848.224293
 31
0.0
  0
ARC
  8
1
  6
CONTINUOUS
 62
     1
  5
1EA
 10
50440.396717
 20
9034.824693
 30
0.0
 40
12.0001
 50
156.453749
 51
270.000289
  0
LINE
  8
1
  6
CONTINUOUS
 62
     1
  5
1EB
 10
50498.816827
 20
9292.824253
 30
0.0
 11
50408.816847
 21
9292.824253
 31
0.0
  0
LINE
  8
1
  6
CONTINUOUS
 62
     1
  5
1EC
 10
50532.035467
 20
9328.979533
 30
0.0
 11
50408.316837
 21
9306.871853
 31
0.0
  0
LINE
  8
1
  6
CONTINUOUS
 62
     1
  5
1ED
 10
50438.473047
 20
9069.824273
 30
0.0
 11
50428.034927
 21
9069.824273
 31
0.0
  0
LINE
  8
1
  6
CONTINUOUS
 62
     1
  5
1EE
 10
50537.316827
 20
9256.524213
 30
0.0
 11
50537.316827
 21
9233.524313
 31
0.0
  0
LINE
  8
1
  6
CONTINUOUS
 62
     1
  5
1EF
 10
50519.891867
 20
9257.254873
 30
0.0
 11
50519.891867
 21
9248.524193
 31
0.0
  0
LINE
  8
1
  6
CONTINUOUS
 62
     1
  5
1F0
 10
50531.042587
 20
9189.824293
 30
0.0
 11
50552.969877
 21
9189.824293
 31
0.0
  0
LINE
  8
1
  6
CONTINUOUS
 62
     1
  5
1F1
 10
50440.396717
 20
9022.824593
 30
0.0
 11
50552.316847
 21
9022.824593
 31
0.0
  0
LINE
  8
1
  6
CONTINUOUS
 62
     1
  5
1F2
 10
50553.782997
 20
9227.610293
 30
0.0
 11
50542.702067
 21
9229.026113
 31
0.0
  0
LINE
  8
1
  6
CONTINUOUS
 62
     1
  5
1F3
 10
50554.163867
 20
9230.591593
 30
0.0
 11
50542.642147
 21
9232.063833
 31
0.0
  0
LINE
  8
1
  6
CONTINUOUS
 62
     1
  5
1F4
 10
50490.578177
 20
9125.878173
 30
0.0
 11
50490.118067
 21
9073.770313
 31
0.0
  0
LINE
  8
1
  6
CONTINUOUS
 62
     1
  5
1F5
 10
50513.193007
 20
9125.886573
 30
0.0
 11
50512.858267
 21
9104.404693
 31
0.0
  0
ARC
  8
1
  6
CONTINUOUS
 62
     1
  5
1F6
 10
50486.118407
 20
9073.824213
 30
0.0
 40
4.00008
 50
270.0
 51
359.227019
  0
LINE
  8
1
  6
CONTINUOUS
 62
     1
  5
1F7
 10
50491.736607
 20
9069.824273
 30
0.0
 11
50486.118407
 21
9069.824273
 31
0.0
  0
LINE
  8
1
  6
CONTINUOUS
 62
     1
  5
1F8
 10
50517.420097
 20
9084.824293
 30
0.0
 11
50519.420067
 21
9084.824293
 31
0.0
  0
LINE
  8
1
  6
CONTINUOUS
 62
     1
  5
1F9
 10
50519.420067
 20
9098.824293
 30
0.0
 11
50517.420097
 21
9098.824293
 31
0.0
  0
ARC
  8
1
  6
CONTINUOUS
 62
     1
  5
1FA
 10
50531.670067
 20
9086.595013
 30
0.0
 40
3.27082
 50
212.779081
 51
327.220919
  0
ARC
  8
1
  6
CONTINUOUS
 62
     1
  5
1FB
 10
50531.670067
 20
9097.053433
 30
0.0
 40
3.27082
 50
32.77908
 51
147.22092
  0
LINE
  8
1
  6
CONTINUOUS
 62
     1
  5
1FC
 10
50536.419987
 20
9098.219913
 30
0.0
 11
50536.419987
 21
9085.428673
 31
0.0
  0
LINE
  8
1
  6
CONTINUOUS
 62
     1
  5
1FD
 10
50542.419967
 20
9084.074313
 30
0.0
 11
50542.419967
 21
9099.574273
 31
0.0
  0
LINE
  8
1
  6
CONTINUOUS
 62
     1
  5
1FE
 10
50538.524327
 20
9083.324193
 30
0.0
 11
50542.419967
 21
9083.324193
 31
0.0
  0
LINE
  8
1
  6
CONTINUOUS
 62
     1
  5
1FF
 10
50542.419967
 20
9083.324193
 30
0.0
 11
50542.419967
 21
9084.074313
 31
0.0
  0
ARC
  8
1
  6
CONTINUOUS
 62
     1
  5
200
 10
50538.524327
 20
9085.428673
 30
0.0
 40
2.10434
 50
180.0
 51
196.689975
  0
ARC
  8
1
  6
CONTINUOUS
 62
     1
  5
201
 10
50538.524327
 20
9085.428673
 30
0.0
 40
2.10434
 50
196.689975
 51
270.0
  0
LINE
  8
1
  6
CONTINUOUS
 62
     1
  5
202
 10
50534.419947
 20
9084.824293
 30
0.0
 11
50536.508607
 21
9084.824293
 31
0.0
  0
LINE
  8
1
  6
CONTINUOUS
 62
     1
  5
203
 10
50542.419967
 20
9100.324253
 30
0.0
 11
50538.524327
 21
9100.324253
 31
0.0
  0
LINE
  8
1
  6
CONTINUOUS
 62
     1
  5
204
 10
50542.419967
 20
9099.574273
 30
0.0
 11
50542.419967
 21
9100.324253
 31
0.0
  0
ARC
  8
1
  6
CONTINUOUS
 62
     1
  5
205
 10
50538.524327
 20
9098.219913
 30
0.0
 40
2.10434
 50
163.310025
 51
180.0
  0
ARC
  8
1
  6
CONTINUOUS
 62
     1
  5
206
 10
50538.524327
 20
9098.219913
 30
0.0
 40
2.10434
 50
90.0
 51
163.310025
  0
LINE
  8
1
  6
CONTINUOUS
 62
     1
  5
207
 10
50536.508607
 20
9098.824293
 30
0.0
 11
50534.419947
 21
9098.824293
 31
0.0
  0
ARC
  8
1
  6
CONTINUOUS
 62
     1
  5
208
 10
50523.169967
 20
9088.761793
 30
0.0
 40
5.4376
 50
226.397181
 51
313.602819
  0
LINE
  8
1
  6
CONTINUOUS
 62
     1
  5
209
 10
50526.920007
 20
9084.824293
 30
0.0
 11
50528.920047
 21
9084.824293
 31
0.0
  0
ARC
  8
1
  6
CONTINUOUS
 62
     1
  5
20A
 10
50523.169967
 20
9094.886793
 30
0.0
 40
5.4376
 50
46.397182
 51
133.602815
  0
LINE
  8
1
  6
CONTINUOUS
 62
     1
  5
20B
 10
50528.920047
 20
9098.824293
 30
0.0
 11
50526.920007
 21
9098.824293
 31
0.0
  0
ARC
  8
1
  6
CONTINUOUS
 62
     1
  5
20C
 10
50510.919967
 20
9090.235013
 30
0.0
 40
11.1608
 50
237.479591
 51
277.95775
  0
ARC
  8
1
  6
CONTINUOUS
 62
     1
  5
20D
 10
50510.919967
 20
9090.235013
 30
0.0
 40
11.1608
 50
277.95775
 51
302.520409
  0
LINE
  8
1
  6
CONTINUOUS
 62
     1
  5
20E
 10
50495.736337
 20
9073.769893
 30
0.0
 11
50495.859327
 21
9082.824253
 31
0.0
  0
ARC
  8
1
  6
CONTINUOUS
 62
     1
  5
20F
 10
50503.066807
 20
9058.074213
 30
0.0
 40
1.25006
 50
270.0
 51
359.999997
  0
LINE
  8
1
  6
CONTINUOUS
 62
     1
  5
210
 10
50505.316887
 20
9069.824273
 30
0.0
 11
50496.505777
 21
9069.824273
 31
0.0
  0
LINE
  8
1
  6
CONTINUOUS
 62
     1
  5
211
 10
50504.316867
 20
9068.824253
 30
0.0
 11
50504.316867
 21
9058.074213
 31
0.0
  0
ARC
  8
1
  6
CONTINUOUS
 62
     1
  5
212
 10
50508.381207
 20
9073.824213
 30
0.0
 40
4.00008
 50
270.0
 51
359.107111
  0
LINE
  8
1
  6
CONTINUOUS
 62
     1
  5
213
 10
50512.465147
 20
9079.181733
 30
0.0
 11
50512.380727
 21
9073.761913
 31
0.0
  0
ARC
  8
1
  6
CONTINUOUS
 62
     1
  5
214
 10
50505.316887
 20
9068.824253
 30
0.0
 40
1.00002
 50
90.0
 51
179.999994
  0
LINE
  8
1
  6
CONTINUOUS
 62
     1
  5
215
 10
50508.381207
 20
9069.824273
 30
0.0
 11
50505.316887
 21
9069.824273
 31
0.0
  0
LINE
  8
1
  6
CONTINUOUS
 62
     1
  5
216
 10
50497.505587
 20
9058.074213
 30
0.0
 11
50497.505587
 21
9068.824253
 31
0.0
  0
ARC
  8
1
  6
CONTINUOUS
 62
     1
  5
217
 10
50498.755577
 20
9058.074213
 30
0.0
 40
1.25006
 50
180.0
 51
270.0
  0
LINE
  8
1
  6
CONTINUOUS
 62
     1
  5
218
 10
50503.066807
 20
9056.824293
 30
0.0
 11
50498.755577
 21
9056.824293
 31
0.0
  0
ARC
  8
1
  6
CONTINUOUS
 62
     1
  5
219
 10
50491.736607
 20
9073.824213
 30
0.0
 40
4.00008
 50
270.0
 51
359.22097
  0
LINE
  8
1
  6
CONTINUOUS
 62
     1
  5
21A
 10
50496.505777
 20
9069.824273
 30
0.0
 11
50491.736607
 21
9069.824273
 31
0.0
  0
ARC
  8
1
  6
CONTINUOUS
 62
     1
  5
21B
 10
50496.505777
 20
9068.824253
 30
0.0
 40
1.00002
 50
0.0
 51
90.0
  0
LINE
  8
1
  6
CONTINUOUS
 62
     1
  5
21C
 10
50504.919987
 20
9100.824193
 30
0.0
 11
50498.692857
 21
9100.824193
 31
0.0
  0
LINE
  8
1
  6
CONTINUOUS
 62
     1
  5
21D
 10
50495.859327
 20
9082.824253
 30
0.0
 11
50504.919987
 21
9082.824253
 31
0.0
  0
LINE
  8
1
  6
CONTINUOUS
 62
     1
  5
21E
 10
50517.420097
 20
9099.824313
 30
0.0
 11
50517.420097
 21
9083.824273
 31
0.0
  0
LINE
  8
1
  6
CONTINUOUS
 62
     1
  5
21F
 10
50504.919987
 20
9100.824193
 30
0.0
 11
50504.919987
 21
9082.824253
 31
0.0
  0
LINE
  8
1
  6
CONTINUOUS
 62
     1
  5
220
 10
50504.919987
 20
9100.824193
 30
0.0
 11
50504.919987
 21
9082.824253
 31
0.0
  0
LINE
  8
1
  6
CONTINUOUS
 62
     1
  5
221
 10
50504.919987
 20
9100.824193
 30
0.0
 11
50504.919987
 21
9082.824253
 31
0.0
  0
LINE
  8
1
  6
CONTINUOUS
 62
     1
  5
222
 10
50516.919947
 20
9083.824273
 30
0.0
 11
50516.919947
 21
9099.824313
 31
0.0
  0
LINE
  8
1
  6
CONTINUOUS
 62
     1
  5
223
 10
50517.420097
 20
9083.824273
 30
0.0
 11
50516.919947
 21
9083.824273
 31
0.0
  0
LINE
  8
1
  6
CONTINUOUS
 62
     1
  5
224
 10
50516.919947
 20
9080.824213
 30
0.0
 11
50516.919947
 21
9083.824273
 31
0.0
  0
LINE
  8
1
  6
CONTINUOUS
 62
     1
  5
225
 10
50504.919987
 20
9082.824253
 30
0.0
 11
50504.919987
 21
9080.824213
 31
0.0
  0
LINE
  8
1
  6
CONTINUOUS
 62
     1
  5
226
 10
50504.919987
 20
9082.824253
 30
0.0
 11
50504.919987
 21
9080.824213
 31
0.0
  0
LINE
  8
1
  6
CONTINUOUS
 62
     1
  5
227
 10
50504.919987
 20
9082.824253
 30
0.0
 11
50504.919987
 21
9080.824213
 31
0.0
  0
ARC
  8
1
  6
CONTINUOUS
 62
     1
  5
228
 10
50510.919967
 20
9093.413573
 30
0.0
 40
11.1608
 50
79.999034
 51
122.520409
  0
ARC
  8
1
  6
CONTINUOUS
 62
     1
  5
229
 10
50510.919967
 20
9093.413573
 30
0.0
 40
11.1608
 50
57.479591
 51
79.999034
  0
LINE
  8
1
  6
CONTINUOUS
 62
     1
  5
22A
 10
50516.919947
 20
9099.824313
 30
0.0
 11
50517.420097
 21
9099.824313
 31
0.0
  0
LINE
  8
1
  6
CONTINUOUS
 62
     1
  5
22B
 10
50516.919947
 20
9099.824313
 30
0.0
 11
50516.919947
 21
9102.824233
 31
0.0
  0
LINE
  8
1
  6
CONTINUOUS
 62
     1
  5
22C
 10
50504.919987
 20
9102.824233
 30
0.0
 11
50504.919987
 21
9100.824193
 31
0.0
  0
LINE
  8
1
  6
CONTINUOUS
 62
     1
  5
22D
 10
50504.919987
 20
9102.824233
 30
0.0
 11
50504.919987
 21
9100.824193
 31
0.0
  0
LINE
  8
1
  6
CONTINUOUS
 62
     1
  5
22E
 10
50504.919987
 20
9102.824233
 30
0.0
 11
50504.919987
 21
9100.824193
 31
0.0
  0
LINE
  8
1
  6
CONTINUOUS
 62
     1
  5
22F
 10
50504.919987
 20
9102.824233
 30
0.0
 11
50504.919987
 21
9100.824193
 31
0.0
  0
LINE
  8
1
  6
CONTINUOUS
 62
     1
  5
230
 10
50498.692857
 20
9100.824193
 30
0.0
 11
50495.859327
 21
9082.824253
 31
0.0
  0
ARC
  8
1
  6
CONTINUOUS
 62
     1
  5
231
 10
49887.350237
 20
9275.821533
 30
0.0
 40
591.27418
 50
336.454246
 51
338.990399
  0
LINE
  8
1
  6
CONTINUOUS
 62
     1
  5
232
 10
50463.590867
 20
9069.824273
 30
0.0
 11
50448.352007
 21
9069.824273
 31
0.0
  0
LINE
  8
1
  6
CONTINUOUS
 62
     1
  5
233
 10
50463.590867
 20
9057.824313
 30
0.0
 11
50484.590867
 21
9057.824313
 31
0.0
  0
LINE
  8
1
  6
CONTINUOUS
 62
     1
  5
234
 10
50484.590867
 20
9069.824273
 30
0.0
 11
50463.590867
 21
9069.824273
 31
0.0
  0
LINE
  8
1
  6
CONTINUOUS
 62
     1
  5
235
 10
50484.590867
 20
9069.824273
 30
0.0
 11
50484.590867
 21
9057.824313
 31
0.0
  0
LINE
  8
1
  6
CONTINUOUS
 62
     1
  5
236
 10
50486.118407
 20
9069.824273
 30
0.0
 11
50484.590867
 21
9069.824273
 31
0.0
  0
LINE
  8
1
  6
CONTINUOUS
 62
     1
  5
237
 10
50463.590867
 20
9069.824273
 30
0.0
 11
50463.590867
 21
9057.824313
 31
0.0
  0
LINE
  8
1
  6
CONTINUOUS
 62
     1
  5
238
 10
50442.656667
 20
9062.083813
 30
0.0
 11
50447.519987
 21
9069.378933
 31
0.0
  0
LINE
  8
1
  6
CONTINUOUS
 62
     1
  5
239
 10
50448.352007
 20
9069.824273
 30
0.0
 11
50438.473047
 21
9069.824273
 31
0.0
  0
ARC
  8
1
  6
CONTINUOUS
 62
     1
  5
23A
 10
50448.352007
 20
9068.824253
 30
0.0
 40
1.00002
 50
90.0
 51
146.309932
  0
LINE
  8
1
  6
CONTINUOUS
 62
     1
  5
23B
 10
50439.316827
 20
9068.836573
 30
0.0
 11
50439.316827
 21
9058.074213
 31
0.0
  0
ARC
  8
1
  6
CONTINUOUS
 62
     1
  5
23C
 10
50446.816907
 20
9059.310413
 30
0.0
 40
5.0001
 50
146.309932
 51
180.0
  0
ARC
  8
1
  6
CONTINUOUS
 62
     1
  5
23D
 10
50440.566887
 20
9058.074213
 30
0.0
 40
1.25006
 50
180.0
 51
0.0
  0
LINE
  8
1
  6
CONTINUOUS
 62
     1
  5
23E
 10
50441.816807
 20
9059.310413
 30
0.0
 11
50441.816807
 21
9058.074213
 31
0.0
  0
ARC
  8
1
  6
CONTINUOUS
 62
     1
  5
23F
 10
50438.316807
 20
9068.836573
 30
0.0
 40
1.00002
 50
0.0
 51
81.010871
  0
LINE
  8
1
  6
CONTINUOUS
 62
     1
  5
240
 10
50529.864907
 20
9177.782753
 30
0.0
 11
50531.433887
 21
9193.824233
 31
0.0
  0
LINE
  8
1
  6
CONTINUOUS
 62
     1
  5
241
 10
50525.200177
 20
9166.079173
 30
0.0
 11
50533.754317
 21
9223.106913
 31
0.0
  0
LINE
  8
1
  6
CONTINUOUS
 62
     1
  5
242
 10
50519.891867
 20
9248.524193
 30
0.0
 11
50518.293347
 21
9162.542773
 31
0.0
  0
LINE
  8
1
  6
CONTINUOUS
 62
     1
  5
243
 10
50525.599247
 20
9129.824213
 30
0.0
 11
50517.192527
 21
9129.824213
 31
0.0
  0
LINE
  8
1
  6
CONTINUOUS
 62
     1
  5
244
 10
50529.864907
 20
9177.782753
 30
0.0
 11
50529.599187
 21
9133.793073
 31
0.0
  0
ARC
  8
1
  6
CONTINUOUS
 62
     1
  5
245
 10
50525.599247
 20
9133.824293
 30
0.0
 40
4.00008
 50
270.000002
 51
359.553334
  0
LINE
  8
1
  6
CONTINUOUS
 62
     1
  5
246
 10
50529.599187
 20
9133.807073
 30
0.0
 11
50529.599187
 21
9133.793073
 31
0.0
  0
ARC
  8
1
  6
CONTINUOUS
 62
     1
  5
247
 10
50522.233297
 20
9166.524233
 30
0.0
 40
3.00006
 50
270.0
 51
351.469234
  0
ARC
  8
1
  6
CONTINUOUS
 62
     1
  5
248
 10
50519.293017
 20
9162.524293
 30
0.0
 40
1.00002
 50
90.0
 51
178.934891
  0
LINE
  8
1
  6
CONTINUOUS
 62
     1
  5
249
 10
50522.233297
 20
9163.524313
 30
0.0
 11
50519.293017
 21
9163.524313
 31
0.0
  0
LINE
  8
1
  6
CONTINUOUS
 62
     1
  5
24A
 10
50517.192527
 20
9129.824213
 30
0.0
 11
50494.577907
 21
9129.824213
 31
0.0
  0
ARC
  8
1
  6
CONTINUOUS
 62
     1
  5
24B
 10
50517.192527
 20
9125.824273
 30
0.0
 40
4.00008
 50
90.0
 51
179.107112
  0
LINE
  8
1
  6
CONTINUOUS
 62
     1
  5
24C
 10
50513.193007
 20
9125.889093
 30
0.0
 11
50513.193007
 21
9125.886573
 31
0.0
  0
ARC
  8
1
  6
CONTINUOUS
 62
     1
  5
24D
 10
50494.577907
 20
9125.824273
 30
0.0
 40
4.00008
 50
90.0
 51
179.227018
  0
LINE
  8
1
  6
CONTINUOUS
 62
     1
  5
24E
 10
50542.960227
 20
9215.961593
 30
0.0
 11
50542.702067
 21
9229.026113
 31
0.0
  0
LINE
  8
1
  6
CONTINUOUS
 62
     1
  5
24F
 10
50542.960227
 20
9215.961593
 30
0.0
 11
50535.032657
 21
9229.692373
 31
0.0
  0
LINE
  8
1
  6
CONTINUOUS
 62
     1
  5
250
 10
50531.433887
 20
9193.824233
 30
0.0
 11
50534.219187
 21
9222.301493
 31
0.0
  0
LINE
  8
1
  6
CONTINUOUS
 62
     1
  5
251
 10
50543.140267
 20
9206.849693
 30
0.0
 11
50534.219187
 21
9222.301493
 31
0.0
  0
LINE
  8
1
  6
CONTINUOUS
 62
     1
  5
252
 10
50534.090807
 20
9193.824233
 30
0.0
 11
50531.433887
 21
9193.824233
 31
0.0
  0
LINE
  8
1
  6
CONTINUOUS
 62
     1
  5
253
 10
50542.090897
 20
9193.324293
 30
0.0
 11
50542.090897
 21
9201.324313
 31
0.0
  0
ARC
  8
1
  6
CONTINUOUS
 62
     1
  5
254
 10
50540.090787
 20
9193.324293
 30
0.0
 40
2.00004
 50
270.0
 51
0.0
  0
LINE
  8
1
  6
CONTINUOUS
 62
     1
  5
255
 10
50534.090807
 20
9193.824233
 30
0.0
 11
50534.090807
 21
9191.324253
 31
0.0
  0
LINE
  8
1
  6
CONTINUOUS
 62
     1
  5
256
 10
50534.090807
 20
9191.324253
 30
0.0
 11
50540.090787
 21
9191.324253
 31
0.0
  0
ARC
  8
1
  6
CONTINUOUS
 62
     1
  5
257
 10
50540.090787
 20
9201.324313
 30
0.0
 40
2.00004
 50
0.0
 51
71.770198
  0
LINE
  8
1
  6
CONTINUOUS
 62
     1
  5
258
 10
50543.163647
 20
9205.671033
 30
0.0
 11
50543.140267
 21
9206.849693
 31
0.0
  0
LINE
  8
1
  6
CONTINUOUS
 62
     1
  5
259
 10
50540.716447
 20
9203.223833
 30
0.0
 11
50543.163647
 21
9205.671033
 31
0.0
  0
LINE
  8
1
  6
CONTINUOUS
 62
     1
  5
25A
 10
50537.316827
 20
9233.524313
 30
0.0
 11
50532.316867
 21
9233.524313
 31
0.0
  0
LINE
  8
1
  6
CONTINUOUS
 62
     1
  5
25B
 10
50542.642147
 20
9232.063833
 30
0.0
 11
50542.316787
 21
9248.524193
 31
0.0
  0
ARC
  8
1
  6
CONTINUOUS
 62
     1
  5
25C
 10
50533.193407
 20
9165.462613
 30
0.0
 40
67.26174
 50
82.718432
 51
88.296953
  0
ARC
  8
1
  6
CONTINUOUS
 62
     1
  5
25D
 10
50533.193407
 20
9165.462613
 30
0.0
 40
64.25608
 50
82.718432
 51
88.359653
  0
LINE
  8
1
  6
CONTINUOUS
 62
     1
  5
25E
 10
50542.702067
 20
9229.026113
 30
0.0
 11
50541.337627
 21
9229.200413
 31
0.0
  0
LINE
  8
1
  6
CONTINUOUS
 62
     1
  5
25F
 10
50542.642147
 20
9232.063833
 30
0.0
 11
50541.718567
 21
9232.181853
 31
0.0
  0
LINE
  8
1
  6
CONTINUOUS
 62
     1
  5
260
 10
50535.192467
 20
9232.694533
 30
0.0
 11
50535.316787
 21
9233.524313
 31
0.0
  0
LINE
  8
1
  6
CONTINUOUS
 62
     1
  5
261
 10
50534.802007
 20
9230.092073
 30
0.0
 11
50535.192467
 21
9232.694533
 31
0.0
  0
LINE
  8
1
  6
CONTINUOUS
 62
     1
  5
262
 10
50533.754317
 20
9223.106913
 30
0.0
 11
50534.802007
 21
9230.092073
 31
0.0
  0
LINE
  8
1
  6
CONTINUOUS
 62
     1
  5
263
 10
50534.219187
 20
9222.301493
 30
0.0
 11
50533.754317
 21
9223.106913
 31
0.0
  0
LINE
  8
1
  6
CONTINUOUS
 62
     1
  5
264
 10
50535.032657
 20
9229.692373
 30
0.0
 11
50534.802007
 21
9230.092073
 31
0.0
  0
LINE
  8
1
  6
CONTINUOUS
 62
     1
  5
265
 10
50542.316787
 20
9248.524193
 30
0.0
 11
50537.316827
 21
9248.524193
 31
0.0
  0
LINE
  8
1
  6
CONTINUOUS
 62
     1
  5
266
 10
50532.316867
 20
9241.524193
 30
0.0
 11
50532.316867
 21
9233.524313
 31
0.0
  0
LINE
  8
1
  6
CONTINUOUS
 62
     1
  5
267
 10
50526.802267
 20
9248.524193
 30
0.0
 11
50519.891867
 21
9248.524193
 31
0.0
  0
ARC
  8
1
  6
CONTINUOUS
 62
     1
  5
268
 10
50526.802267
 20
9247.524313
 30
0.0
 40
1.00002
 50
35.537678
 51
90.0
  0
LINE
  8
1
  6
CONTINUOUS
 62
     1
  5
269
 10
50527.615947
 20
9248.105453
 30
0.0
 11
50532.316867
 21
9241.524193
 31
0.0
  0
LINE
  8
1
  6
CONTINUOUS
 62
     1
  5
26A
 10
50530.724087
 20
9349.631213
 30
0.0
 11
50487.477807
 21
9339.949793
 31
0.0
  0
ARC
  8
1
  6
CONTINUOUS
 62
     1
  5
26B
 10
50482.748257
 20
9469.978293
 30
0.0
 40
156.12394
 50
281.564791
 51
288.924758
  0
LINE
  8
1
  6
CONTINUOUS
 62
     1
  5
26C
 10
50536.316807
 20
9257.524233
 30
0.0
 11
50520.891817
 21
9257.524233
 31
0.0
  0
ARC
  8
1
  6
CONTINUOUS
 62
     1
  5
26D
 10
50536.316807
 20
9256.524213
 30
0.0
 40
1.00002
 50
0.0
 51
90.0
  0
ARC
  8
1
  6
CONTINUOUS
 62
     1
  5
26E
 10
50520.891817
 20
9258.524253
 30
0.0
 40
1.00002
 50
180.0
 51
270.0
  0
ARC
  8
1
  6
CONTINUOUS
 62
     1
  5
26F
 10
50464.471327
 20
9539.014953
 30
0.0
 40
227.45954
 50
279.4518
 51
282.588951
  0
LINE
  8
1
  6
CONTINUOUS
 62
     1
  5
270
 10
50499.316907
 20
9293.324193
 30
0.0
 11
50499.316907
 21
9311.684073
 31
0.0
  0
ARC
  8
1
  6
CONTINUOUS
 62
     1
  5
271
 10
50498.816827
 20
9293.324193
 30
0.0
 40
0.50008
 50
270.0
 51
0.0
  0
ARC
  8
1
  6
CONTINUOUS
 62
     1
  5
272
 10
50502.316827
 20
9311.684073
 30
0.0
 40
3.00006
 50
99.451799
 51
180.0
  0
ARC
  8
1
  6
CONTINUOUS
 62
     1
  5
273
 10
50482.748257
 20
9469.978293
 30
0.0
 40
156.12394
 50
288.791806
 51
290.341493
  0
ARC
  8
1
  6
CONTINUOUS
 62
     1
  5
274
 10
50532.915017
 20
9324.057413
 30
0.0
 40
5.0001
 50
17.68359
 51
100.131383
  0
ARC
  8
1
  6
CONTINUOUS
 62
     1
  5
275
 10
50532.471777
 20
9341.824393
 30
0.0
 40
8.00002
 50
1.132
 51
102.618635
  0
ARC
  8
1
  6
CONTINUOUS
 62
     1
  5
276
 10
50535.771717
 20
9324.964473
 30
0.0
 40
2.00004
 50
334.13193
 51
17.787218
  0
ARC
  8
1
  6
CONTINUOUS
 62
     1
  5
277
 10
50536.671637
 20
9324.528233
 30
0.0
 40
1.00002
 50
290.341493
 51
334.13193
  0
ARC
  8
1
  6
CONTINUOUS
 62
     1
  5
278
 10
50428.034927
 20
9089.824253
 30
0.0
 40
19.99998
 50
243.311325
 51
270.0
  0
LINE
  8
1
  6
CONTINUOUS
 62
     1
  5
279
 10
50408.316837
 20
9293.324193
 30
0.0
 11
50408.316837
 21
9306.871853
 31
0.0
  0
ARC
  8
1
  6
CONTINUOUS
 62
     1
  5
27A
 10
50408.816847
 20
9293.324193
 30
0.0
 40
0.50008
 50
180.0
 51
270.0
  0
ARC
  8
1
  6
CONTINUOUS
 62
     1
  5
27B
 10
50330.372397
 20
9253.527513
 30
0.0
 40
54.0001
 50
90.917918
 51
109.344386
  0
ARC
  8
1
  6
CONTINUOUS
 62
     1
  5
27C
 10
50329.547237
 20
9305.020913
 30
0.0
 40
2.49998
 50
16.759373
 51
90.917918
  0
ARC
  8
1
  6
CONTINUOUS
 62
     1
  5
27D
 10
50329.547237
 20
9305.020913
 30
0.0
 40
2.49998
 50
16.759373
 51
90.917918
  0
ARC
  8
1
  6
CONTINUOUS
 62
     1
  5
27E
 10
50313.313187
 20
9302.120113
 30
0.0
 40
2.49998
 50
109.344386
 51
183.502931
  0
LINE
  8
1
  6
CONTINUOUS
 62
     1
  5
27F
 10
50470.711127
 20
9322.795733
 30
0.0
 11
50469.772777
 21
9318.103493
 31
0.0
  0
ARC
  8
1
  6
CONTINUOUS
 62
     1
  5
280
 10
50492.283867
 20
9318.481073
 30
0.0
 40
22.00002
 50
102.618635
 51
168.690067
  0
LINE
  8
1
  6
CONTINUOUS
 62
     1
  5
281
 10
50542.316787
 20
9248.524193
 30
0.0
 11
50540.470187
 21
9341.982453
 31
0.0
  0
LINE
  8
1
  6
CONTINUOUS
 62
     1
  5
282
 10
50585.776847
 20
9199.824213
 30
0.0
 11
50704.017067
 21
9199.824213
 31
0.0
  0
LINE
  8
1
  6
CONTINUOUS
 62
     1
  5
283
 10
50702.316907
 20
9174.824273
 30
0.0
 11
50640.383917
 21
9174.824273
 31
0.0
  0
LINE
  8
1
  6
CONTINUOUS
 62
     1
  5
284
 10
50692.316847
 20
9195.824273
 30
0.0
 11
50619.316787
 21
9195.824273
 31
0.0
  0
LINE
  8
1
  6
CONTINUOUS
 62
     1
  5
285
 10
50702.066867
 20
9099.574273
 30
0.0
 11
50542.419967
 21
9099.574273
 31
0.0
  0
LINE
  8
1
  6
CONTINUOUS
 62
     1
  5
286
 10
50702.066867
 20
9084.074313
 30
0.0
 11
50542.419967
 21
9084.074313
 31
0.0
  0
LINE
  8
1
  6
CONTINUOUS
 62
     1
  5
287
 10
50715.545647
 20
8945.465213
 30
0.0
 11
50642.978467
 21
9084.074313
 31
0.0
  0
LINE
  8
1
  6
CONTINUOUS
 62
     1
  5
288
 10
50718.278237
 20
8946.929333
 30
0.0
 11
50646.422817
 21
9084.074313
 31
0.0
  0
ARC
  8
1
  6
CONTINUOUS
 62
     1
  5
289
 10
50495.313187
 20
8940.600073
 30
0.0
 40
160.00362
 50
0.000892
 51
17.363186
  0
ARC
  8
1
  6
CONTINUOUS
 62
     1
  5
28A
 10
50495.313187
 20
8940.600073
 30
0.0
 40
160.00362
 50
0.000892
 51
17.363186
  0
LINE
  8
1
  6
CONTINUOUS
 62
     1
  5
28B
 10
50583.596627
 20
9134.390313
 30
0.0
 11
50529.329617
 21
9132.380473
 31
0.0
  0
LINE
  8
1
  6
CONTINUOUS
 62
     1
  5
28C
 10
50577.014107
 20
9148.178493
 30
0.0
 11
50543.140267
 21
9206.849693
 31
0.0
  0
LINE
  8
1
  6
CONTINUOUS
 62
     1
  5
28D
 10
50580.824627
 20
9150.378593
 30
0.0
 11
50542.960227
 21
9215.961593
 31
0.0
  0
ARC
  8
1
  6
CONTINUOUS
 62
     1
  5
28E
 10
50492.316907
 20
9099.278593
 30
0.0
 40
97.80008
 50
0.173249
 51
30.0
  0
ARC
  8
1
  6
CONTINUOUS
 62
     1
  5
28F
 10
50492.316907
 20
9099.278593
 30
0.0
 40
102.2
 50
0.165791
 51
30.0
  0
LINE
  8
1
  6
CONTINUOUS
 62
     1
  5
290
 10
50638.301627
 20
9099.574273
 30
0.0
 11
50578.537027
 21
9213.642353
 31
0.0
  0
LINE
  8
1
  6
CONTINUOUS
 62
     1
  5
291
 10
50634.863507
 20
9099.574273
 30
0.0
 11
50575.879057
 21
9212.239413
 31
0.0
  0
ARC
  8
1
  6
CONTINUOUS
 62
     1
  5
292
 10
50495.312207
 20
8940.607213
 30
0.0
 40
160.00012
 50
42.891178
 51
47.6624
  0
ARC
  8
1
  6
CONTINUOUS
 62
     1
  5
293
 10
50742.469887
 20
9019.856033
 30
0.0
 40
99.56072
 50
153.517623
 51
198.448696
  0
ARC
  8
1
  6
CONTINUOUS
 62
     1
  5
294
 10
50495.316967
 20
8940.601333
 30
0.0
 40
160.00054
 50
36.500994
 51
42.893889
  0
LINE
  8
1
  6
CONTINUOUS
 62
     1
  5
295
 10
50624.207827
 20
9039.666593
 30
0.0
 11
50651.247567
 21
9068.279653
 31
0.0
  0
ARC
  8
1
  6
CONTINUOUS
 62
     1
  5
296
 10
50495.314307
 20
8940.603013
 30
0.0
 40
160.0018
 50
17.36231
 51
36.499966
  0
ARC
  8
1
  6
CONTINUOUS
 62
     1
  5
297
 10
50495.314307
 20
8940.603013
 30
0.0
 40
160.0018
 50
17.36231
 51
36.499966
  0
ARC
  8
1
  6
CONTINUOUS
 62
     1
  5
298
 10
50626.343877
 20
9037.560433
 30
0.0
 40
2.99978
 50
135.402566
 51
216.512014
  0
ARC
  8
1
  6
CONTINUOUS
 62
     1
  5
299
 10
50626.343877
 20
9037.560433
 30
0.0
 40
2.99978
 50
135.402566
 51
216.512014
  0
ARC
  8
1
  6
CONTINUOUS
 62
     1
  5
29A
 10
50552.316847
 20
8982.824493
 30
0.0
 40
40.0001
 50
19.091054
 51
90.0
  0
ARC
  8
1
  6
CONTINUOUS
 62
     1
  5
29B
 10
50528.316927
 20
8976.824513
 30
0.0
 40
110.99998
 50
56.16822
 51
75.06382
  0
ARC
  8
1
  6
CONTINUOUS
 62
     1
  5
29C
 10
50528.316927
 20
8976.824513
 30
0.0
 40
110.99998
 50
47.664694
 51
53.38778
  0
LINE
  8
1
  6
CONTINUOUS
 62
     1
  5
29D
 10
50587.872717
 20
9195.824273
 30
0.0
 11
50609.316867
 21
9195.824273
 31
0.0
  0
LINE
  8
1
  6
CONTINUOUS
 62
     1
  5
29E
 10
50599.511827
 20
9139.159413
 30
0.0
 11
50609.004037
 21
9148.967953
 31
0.0
  0
ARC
  8
1
  6
CONTINUOUS
 62
     1
  5
29F
 10
50640.383917
 20
9159.824253
 30
0.0
 40
15.00002
 50
89.999856
 51
135.938748
  0
LINE
  8
1
  6
CONTINUOUS
 62
     1
  5
2A0
 10
50638.133067
 20
9162.624253
 30
0.0
 11
50637.316867
 21
9162.624253
 31
0.0
  0
LINE
  8
1
  6
CONTINUOUS
 62
     1
  5
2A1
 10
50654.316787
 20
9174.624213
 30
0.0
 11
50650.245097
 21
9174.624213
 31
0.0
  0
LINE
  8
1
  6
CONTINUOUS
 62
     1
  5
2A2
 10
50650.245097
 20
9163.160173
 30
0.0
 11
50650.245097
 21
9174.624213
 31
0.0
  0
LINE
  8
1
  6
CONTINUOUS
 62
     1
  5
2A3
 10
50646.381937
 20
9156.824193
 30
0.0
 11
50640.251897
 21
9156.824193
 31
0.0
  0
LINE
  8
1
  6
CONTINUOUS
 62
     1
  5
2A4
 10
50647.285847
 20
9162.624253
 30
0.0
 11
50643.326437
 21
9162.624253
 31
0.0
  0
LINE
  8
1
  6
CONTINUOUS
 62
     1
  5
2A5
 10
50649.316827
 20
9162.624253
 30
0.0
 11
50648.509867
 21
9162.624253
 31
0.0
  0
LINE
  8
1
  6
CONTINUOUS
 62
     1
  5
2A6
 10
50647.285847
 20
9162.624253
 30
0.0
 11
50647.285847
 21
9157.728313
 31
0.0
  0
LINE
  8
1
  6
CONTINUOUS
 62
     1
  5
2A7
 10
50647.285847
 20
9157.728313
 30
0.0
 11
50646.381937
 21
9156.824193
 31
0.0
  0
LINE
  8
1
  6
CONTINUOUS
 62
     1
  5
2A8
 10
50649.316827
 20
9162.624253
 30
0.0
 11
50650.245097
 21
9163.160173
 31
0.0
  0
LINE
  8
1
  6
CONTINUOUS
 62
     1
  5
2A9
 10
50647.285847
 20
9162.624253
 30
0.0
 11
50648.509867
 21
9162.624253
 31
0.0
  0
LINE
  8
1
  6
CONTINUOUS
 62
     1
  5
2AA
 10
50639.347917
 20
9162.624253
 30
0.0
 11
50639.347917
 21
9157.728313
 31
0.0
  0
LINE
  8
1
  6
CONTINUOUS
 62
     1
  5
2AB
 10
50639.347917
 20
9157.728313
 30
0.0
 11
50640.251897
 21
9156.824193
 31
0.0
  0
LINE
  8
1
  6
CONTINUOUS
 62
     1
  5
2AC
 10
50638.133067
 20
9162.624253
 30
0.0
 11
50639.347917
 21
9162.624253
 31
0.0
  0
LINE
  8
1
  6
CONTINUOUS
 62
     1
  5
2AD
 10
50639.347917
 20
9162.624253
 30
0.0
 11
50643.307187
 21
9162.624253
 31
0.0
  0
LINE
  8
1
  6
CONTINUOUS
 62
     1
  5
2AE
 10
50643.307187
 20
9162.624253
 30
0.0
 11
50643.326437
 21
9162.624253
 31
0.0
  0
LINE
  8
1
  6
CONTINUOUS
 62
     1
  5
2AF
 10
50643.326437
 20
9162.624253
 30
0.0
 11
50643.307187
 21
9162.624253
 31
0.0
  0
LINE
  8
1
  6
CONTINUOUS
 62
     1
  5
2B0
 10
50639.852687
 20
9174.624213
 30
0.0
 11
50646.780937
 21
9174.624213
 31
0.0
  0
LINE
  8
1
  6
CONTINUOUS
 62
     1
  5
2B1
 10
50646.780937
 20
9174.624213
 30
0.0
 11
50639.852687
 21
9174.624213
 31
0.0
  0
LINE
  8
1
  6
CONTINUOUS
 62
     1
  5
2B2
 10
50646.780937
 20
9174.624213
 30
0.0
 11
50650.245097
 21
9174.624213
 31
0.0
  0
LINE
  8
1
  6
CONTINUOUS
 62
     1
  5
2B3
 10
50650.245097
 20
9174.624213
 30
0.0
 11
50646.780937
 21
9174.624213
 31
0.0
  0
LINE
  8
1
  6
CONTINUOUS
 62
     1
  5
2B4
 10
50637.942527
 20
9174.624213
 30
0.0
 11
50639.852687
 21
9174.624213
 31
0.0
  0
LINE
  8
1
  6
CONTINUOUS
 62
     1
  5
2B5
 10
50639.852687
 20
9174.624213
 30
0.0
 11
50637.942527
 21
9174.624213
 31
0.0
  0
LINE
  8
1
  6
CONTINUOUS
 62
     1
  5
2B6
 10
50611.221777
 20
9151.259613
 30
0.0
 11
50629.604827
 21
9170.255653
 31
0.0
  0
LINE
  8
1
  6
CONTINUOUS
 62
     1
  5
2B7
 10
50636.388667
 20
9163.160173
 30
0.0
 11
50636.388667
 21
9174.282473
 31
0.0
  0
LINE
  8
1
  6
CONTINUOUS
 62
     1
  5
2B8
 10
50636.388667
 20
9163.160173
 30
0.0
 11
50637.316867
 21
9162.624253
 31
0.0
  0
LINE
  8
1
  6
CONTINUOUS
 62
     1
  5
2B9
 10
50639.347917
 20
9195.824273
 30
0.0
 11
50632.316907
 21
9195.824273
 31
0.0
  0
LINE
  8
1
  6
CONTINUOUS
 62
     1
  5
2BA
 10
50654.316787
 20
9195.824273
 30
0.0
 11
50647.285847
 21
9195.824273
 31
0.0
  0
LINE
  8
1
  6
CONTINUOUS
 62
     1
  5
2BB
 10
50639.347917
 20
9195.824273
 30
0.0
 11
50647.285847
 21
9195.824273
 31
0.0
  0
LINE
  8
1
  6
CONTINUOUS
 62
     1
  5
2BC
 10
50647.285847
 20
9199.824213
 30
0.0
 11
50647.285847
 21
9195.824273
 31
0.0
  0
LINE
  8
1
  6
CONTINUOUS
 62
     1
  5
2BD
 10
50639.347917
 20
9199.824213
 30
0.0
 11
50639.347917
 21
9195.824273
 31
0.0
  0
LINE
  8
1
  6
CONTINUOUS
 62
     1
  5
2BE
 10
50619.316787
 20
9195.824273
 30
0.0
 11
50609.316867
 21
9195.824273
 31
0.0
  0
ARC
  8
1
  6
CONTINUOUS
 62
     1
  5
2BF
 10
50618.316907
 20
9198.824193
 30
0.0
 40
1.00002
 50
0.0
 51
90.0
  0
LINE
  8
1
  6
CONTINUOUS
 62
     1
  5
2C0
 10
50619.316787
 20
9198.824193
 30
0.0
 11
50619.316787
 21
9195.824273
 31
0.0
  0
ARC
  8
1
  6
CONTINUOUS
 62
     1
  5
2C1
 10
50610.316887
 20
9198.824193
 30
0.0
 40
1.00002
 50
90.0
 51
180.0
  0
LINE
  8
1
  6
CONTINUOUS
 62
     1
  5
2C2
 10
50609.316867
 20
9198.824193
 30
0.0
 11
50609.316867
 21
9195.824273
 31
0.0
  0
ARC
  8
1
  6
CONTINUOUS
 62
     1
  5
2C3
 10
50588.732877
 20
9149.590813
 30
0.0
 40
15.00002
 50
272.120475
 51
315.939207
  0
LINE
  8
1
  6
CONTINUOUS
 62
     1
  5
2C4
 10
50589.287837
 20
9134.601013
 30
0.0
 11
50588.233007
 21
9134.561953
 31
0.0
  0
ARC
  8
1
  6
CONTINUOUS
 62
     1
  5
2C5
 10
50550.093927
 20
9198.740053
 30
0.0
 40
32.11068
 50
27.65174
 51
82.718432
  0
ARC
  8
1
  6
CONTINUOUS
 62
     1
  5
2C6
 10
50581.108827
 20
9206.824213
 30
0.0
 40
7.0
 50
198.913494
 51
269.999692
  0
LINE
  8
1
  6
CONTINUOUS
 62
     1
  5
2C7
 10
50558.050687
 20
9189.824293
 30
0.0
 11
50581.316867
 21
9189.824293
 31
0.0
  0
ARC
  8
1
  6
CONTINUOUS
 62
     1
  5
2C8
 10
50581.316657
 20
9194.824393
 30
0.0
 40
5.00024
 50
270.001753
 51
338.323966
  0
LINE
  8
1
  6
CONTINUOUS
 62
     1
  5
2C9
 10
50581.108827
 20
9199.824213
 30
0.0
 11
50582.378767
 21
9199.824213
 31
0.0
  0
ARC
  8
1
  6
CONTINUOUS
 62
     1
  5
2CA
 10
50635.974687
 20
9225.631393
 30
0.0
 40
64.99962
 50
186.195334
 51
198.920124
  0
ARC
  8
1
  6
CONTINUOUS
 62
     1
  5
2CB
 10
50550.093927
 20
9198.740053
 30
0.0
 40
29.10502
 50
27.63381
 51
82.718432
  0
LINE
  8
1
  6
CONTINUOUS
 62
     1
  5
2CC
 10
50570.980947
 20
9224.753313
 30
0.0
 11
50570.642007
 21
9249.892273
 31
0.0
  0
ARC
  8
1
  6
CONTINUOUS
 62
     1
  5
2CD
 10
50635.974687
 20
9225.631393
 30
0.0
 40
64.99962
 50
180.774062
 51
182.239375
  0
ARC
  8
1
  6
CONTINUOUS
 62
     1
  5
2CE
 10
50565.642397
 20
9249.824653
 30
0.0
 40
5.0001
 50
0.774857
 51
37.641048
  0
LINE
  8
1
  6
CONTINUOUS
 62
     1
  5
2CF
 10
50568.561607
 20
9255.864253
 30
0.0
 11
50563.371107
 21
9640.824493
 31
0.0
  0
ARC
  8
1
  6
CONTINUOUS
 62
     1
  5
2D0
 10
50573.560797
 20
9255.931593
 30
0.0
 40
4.99968
 50
180.771619
 51
217.640864
  0
LINE
  8
1
  6
CONTINUOUS
 62
     1
  5
2D1
 10
50590.116917
 20
8866.024313
 30
0.0
 11
50590.116917
 21
9084.074313
 31
0.0
  0
LINE
  8
1
  6
CONTINUOUS
 62
     1
  5
2D2
 10
50594.516977
 20
8866.024313
 30
0.0
 11
50594.516977
 21
9084.074313
 31
0.0
  0
LINE
  8
1
  6
CONTINUOUS
 62
     1
  5
2D3
 10
50192.316647
 20
9248.524193
 30
0.0
 11
50192.595107
 21
9264.475373
 31
0.0
  0
LINE
  8
1
  6
CONTINUOUS
 62
     1
  5
2D4
 10
50050.147627
 20
9250.744873
 30
0.0
 11
50263.682907
 21
9281.276773
 31
0.0
  0
ARC
  8
1
  6
CONTINUOUS
 62
     1
  5
2D5
 10
50120.316817
 20
8989.824493
 30
0.0
 40
69.99986
 50
354.948981
 51
60.915363
  0
LINE
  8
1
  6
CONTINUOUS
 62
     1
  5
2D6
 10
50154.741207
 20
9189.824293
 30
0.0
 11
50215.398447
 21
9189.824293
 31
0.0
  0
LINE
  8
1
  6
CONTINUOUS
 62
     1
  5
2D7
 10
50192.922637
 20
9238.324213
 30
0.0
 11
50154.182467
 21
9238.324213
 31
0.0
  0
LINE
  8
1
  6
CONTINUOUS
 62
     1
  5
2D8
 10
50204.604867
 20
9198.824193
 30
0.0
 11
50158.745417
 21
9198.824193
 31
0.0
  0
LINE
  8
1
  6
CONTINUOUS
 62
     1
  5
2D9
 10
50194.622167
 20
9231.075713
 30
0.0
 11
50057.509317
 21
9231.075713
 31
0.0
  0
LINE
  8
1
  6
CONTINUOUS
 62
     1
  5
2DA
 10
50204.604867
 20
9198.824193
 30
0.0
 11
50194.622167
 21
9231.075713
 31
0.0
  0
ARC
  8
1
  6
CONTINUOUS
 62
     1
  5
2DB
 10
50208.718487
 20
9199.061633
 30
0.0
 40
4.00008
 50
197.198538
 51
236.260357
  0
LINE
  8
1
  6
CONTINUOUS
 62
     1
  5
2DC
 10
50204.897467
 20
9197.878913
 30
0.0
 11
50204.604867
 21
9198.824193
 31
0.0
  0
ARC
  8
1
  6
CONTINUOUS
 62
     1
  5
2DD
 10
50242.317227
 20
9246.081753
 30
0.0
 40
50.00002
 50
188.925423
 51
197.464722
  0
ARC
  8
1
  6
CONTINUOUS
 62
     1
  5
2DE
 10
50242.316667
 20
9246.085393
 30
0.0
 40
50.00002
 50
180.0
 51
188.929715
  0
LINE
  8
1
  6
CONTINUOUS
 62
     1
  5
2DF
 10
50192.316647
 20
9246.085393
 30
0.0
 11
50192.316647
 21
9248.524193
 31
0.0
  0
ARC
  8
1
  6
CONTINUOUS
 62
     1
  5
2E0
 10
50190.941847
 20
9200.824093
 30
0.0
 40
140.00014
 50
188.275794
 51
216.804198
  0
LINE
  8
1
  6
CONTINUOUS
 62
     1
  5
2E1
 10
50060.316247
 20
9189.824293
 30
0.0
 11
50135.198607
 21
9189.824293
 31
0.0
  0
LINE
  8
1
  6
CONTINUOUS
 62
     1
  5
2E2
 10
50128.763647
 20
9238.324213
 30
0.0
 11
50046.316667
 21
9238.324213
 31
0.0
  0
LINE
  8
1
  6
CONTINUOUS
 62
     1
  5
2E3
 10
50047.114387
 20
9204.641473
 30
0.0
 11
50104.064497
 21
9198.849953
 31
0.0
  0
ARC
  8
1
  6
CONTINUOUS
 62
     1
  5
2E4
 10
50271.009947
 20
9260.733173
 30
0.0
 40
240.00018
 50
216.804443
 51
240.914828
  0
ARC
  8
1
  6
CONTINUOUS
 62
     1
  5
2E5
 10
50133.763607
 20
9236.324313
 30
0.0
 40
5.0001
 50
180.0
 51
270.0
  0
LINE
  8
1
  6
CONTINUOUS
 62
     1
  5
2E6
 10
50104.570247
 20
9198.824193
 30
0.0
 11
50132.198757
 21
9198.824193
 31
0.0
  0
LINE
  8
1
  6
CONTINUOUS
 62
     1
  5
2E7
 10
50154.182467
 20
9238.324213
 30
0.0
 11
50128.763647
 21
9238.324213
 31
0.0
  0
LINE
  8
1
  6
CONTINUOUS
 62
     1
  5
2E8
 10
50154.741207
 20
9189.824293
 30
0.0
 11
50135.198607
 21
9189.824293
 31
0.0
  0
ARC
  8
1
  6
CONTINUOUS
 62
     1
  5
2E9
 10
50161.741207
 20
9196.173853
 30
0.0
 40
4.00008
 50
138.500893
 51
180.0
  0
ARC
  8
1
  6
CONTINUOUS
 62
     1
  5
2EA
 10
50154.741207
 20
9192.824213
 30
0.0
 40
3.00006
 50
270.0
 51
0.0
  0
LINE
  8
1
  6
CONTINUOUS
 62
     1
  5
2EB
 10
50157.741127
 20
9196.173853
 30
0.0
 11
50157.741127
 21
9192.824213
 31
0.0
  0
ARC
  8
1
  6
CONTINUOUS
 62
     1
  5
2EC
 10
50135.198607
 20
9192.824213
 30
0.0
 40
3.00006
 50
180.0
 51
270.0
  0
LINE
  8
1
  6
CONTINUOUS
 62
     1
  5
2ED
 10
50132.198757
 20
9192.824213
 30
0.0
 11
50132.198757
 21
9198.824193
 31
0.0
  0
LINE
  8
1
  6
CONTINUOUS
 62
     1
  5
2EE
 10
50149.182367
 20
9231.324213
 30
0.0
 11
50133.763607
 21
9231.324213
 31
0.0
  0
ARC
  8
1
  6
CONTINUOUS
 62
     1
  5
2EF
 10
50149.182367
 20
9236.324313
 30
0.0
 40
5.0001
 50
270.0
 51
0.0
  0
LINE
  8
1
  6
CONTINUOUS
 62
     1
  5
2F0
 10
50154.182467
 20
9238.324213
 30
0.0
 11
50154.182467
 21
9236.324313
 31
0.0
  0
ARC
  8
1
  6
CONTINUOUS
 62
     1
  5
2F1
 10
50104.570247
 20
9203.824293
 30
0.0
 40
5.0001
 50
264.193269
 51
270.0
  0
LINE
  8
1
  6
CONTINUOUS
 62
     1
  5
2F2
 10
50128.763647
 20
9238.324213
 30
0.0
 11
50128.763647
 21
9236.324313
 31
0.0
  0
ARC
  8
1
  6
CONTINUOUS
 62
     1
  5
2F3
 10
50060.316247
 20
9181.824273
 30
0.0
 40
8.00002
 50
89.999982
 51
188.275733
  0
LINE
  8
1
  6
CONTINUOUS
 62
     1
  5
2F4
 10
50045.316647
 20
9207.374833
 30
0.0
 11
50048.691977
 21
9223.879013
 31
0.0
  0
ARC
  8
1
  6
CONTINUOUS
 62
     1
  5
2F5
 10
50047.316687
 20
9206.631153
 30
0.0
 40
2.00004
 50
180.0
 51
264.193269
  0
LINE
  8
1
  6
CONTINUOUS
 62
     1
  5
2F6
 10
50045.316647
 20
9206.631153
 30
0.0
 11
50045.316647
 21
9207.374833
 31
0.0
  0
ARC
  8
1
  6
CONTINUOUS
 62
     1
  5
2F7
 10
50057.509317
 20
9222.075813
 30
0.0
 40
9.00004
 50
90.0
 51
168.442148
  0
LINE
  8
1
  6
CONTINUOUS
 62
     1
  5
2F8
 10
50263.682907
 20
9281.276773
 30
0.0
 11
50196.714887
 21
9269.310133
 31
0.0
  0
ARC
  8
1
  6
CONTINUOUS
 62
     1
  5
2F9
 10
50197.594297
 20
9264.388153
 30
0.0
 40
5.0001
 50
100.131383
 51
179.000001
  0
ARC
  8
1
  6
CONTINUOUS
 62
     1
  5
2FA
 10
50046.316667
 20
9239.324233
 30
0.0
 40
1.00002
 50
169.611142
 51
270.0
  0
LINE
  8
1
  6
CONTINUOUS
 62
     1
  5
2FB
 10
50046.800647
 20
9247.509473
 30
0.0
 11
50045.333237
 21
9239.504553
 31
0.0
  0
ARC
  8
1
  6
CONTINUOUS
 62
     1
  5
2FC
 10
50050.735067
 20
9246.788193
 30
0.0
 40
4.00008
 50
98.446175
 51
169.611142
  0
LINE
  8
1
  6
CONTINUOUS
 62
     1
  5
2FD
 10
50469.772777
 20
9318.103493
 30
0.0
 11
50331.362967
 21
9293.370673
 31
0.0
  0
ARC
  8
1
  6
CONTINUOUS
 62
     1
  5
2FE
 10
51317.336977
 20
10858.875453
 30
0.0
 40
2000.0001
 50
236.260357
 51
243.311325
  0
LINE
  8
1
  6
CONTINUOUS
 62
     1
  5
2FF
 10
50315.122827
 20
9290.468753
 30
0.0
 11
50263.682907
 21
9281.276773
 31
0.0
  0
LINE
  8
1
  6
CONTINUOUS
 62
     1
  5
300
 10
50315.098607
 20
9291.431953
 30
0.0
 11
50331.051957
 21
9294.282633
 31
0.0
  0
ARC
  8
1
  6
CONTINUOUS
 62
     1
  5
301
 10
50217.038127
 20
9271.139513
 30
0.0
 40
120.00002
 50
11.433307
 51
16.759373
  0
LINE
  8
1
  6
CONTINUOUS
 62
     1
  5
302
 10
50331.051957
 20
9294.282633
 30
0.0
 11
50331.362967
 21
9293.370673
 31
0.0
  0
LINE
  8
1
  6
CONTINUOUS
 62
     1
  5
303
 10
50331.051957
 20
9294.282633
 30
0.0
 11
50334.656957
 21
9294.926773
 31
0.0
  0
ARC
  8
1
  6
CONTINUOUS
 62
     1
  5
304
 10
50430.593777
 20
9309.299313
 30
0.0
 40
120.00002
 50
183.502931
 51
188.828997
  0
LINE
  8
1
  6
CONTINUOUS
 62
     1
  5
305
 10
50312.015527
 20
9290.881053
 30
0.0
 11
50315.098607
 21
9291.431953
 31
0.0
  0
LINE
  8
1
  6
CONTINUOUS
 62
     1
  5
306
 10
50315.098607
 20
9291.431953
 30
0.0
 11
50315.122827
 21
9290.468753
 31
0.0
  0
LINE
  8
1
  6
CONTINUOUS
 62
     1
  5
307
 10
50182.316797
 20
8819.824593
 30
0.0
 11
50182.567957
 21
8841.560713
 31
0.0
  0
ARC
  8
1
  6
CONTINUOUS
 62
     1
  5
308
 10
50205.725287
 20
8849.824493
 30
0.0
 40
25.00008
 50
164.102097
 51
195.897902
  0
LINE
  8
1
  6
CONTINUOUS
 62
     1
  5
309
 10
50182.725247
 20
8852.674613
 30
0.0
 11
50182.725247
 21
8858.324593
 31
0.0
  0
LINE
  8
1
  6
CONTINUOUS
 62
     1
  5
30A
 10
50182.725247
 20
8855.624553
 30
0.0
 11
50182.725247
 21
8852.674193
 31
0.0
  0
ARC
  8
1
  6
CONTINUOUS
 62
     1
  5
30B
 10
50183.225397
 20
8852.674613
 30
0.0
 40
0.50008
 50
180.0
 51
207.629002
  0
ARC
  8
1
  6
CONTINUOUS
 62
     1
  5
30C
 10
50182.643207
 20
8843.250373
 30
0.0
 40
1.00002
 50
195.897902
 51
213.690068
  0
LINE
  8
1
  6
CONTINUOUS
 62
     1
  5
30D
 10
50181.811187
 20
8842.695693
 30
0.0
 11
50182.567957
 21
8841.560713
 31
0.0
  0
LINE
  8
1
  6
CONTINUOUS
 62
     1
  5
30E
 10
50182.567957
 20
8841.560713
 30
0.0
 11
50182.782367
 21
8852.442633
 31
0.0
  0
ARC
  8
1
  6
CONTINUOUS
 62
     1
  5
30F
 10
50182.643207
 20
8856.398753
 30
0.0
 40
1.00002
 50
146.309932
 51
164.102097
  0
LINE
  8
1
  6
CONTINUOUS
 62
     1
  5
310
 10
50182.856147
 20
8855.624553
 30
0.0
 11
50182.725247
 21
8855.624553
 31
0.0
  0
LINE
  8
1
  6
CONTINUOUS
 62
     1
  5
311
 10
50182.725247
 20
8858.324593
 30
0.0
 11
50181.811187
 21
8856.953433
 31
0.0
  0
ARC
  8
1
  6
CONTINUOUS
 62
     1
  5
312
 10
52182.274897
 20
8807.589573
 30
0.0
 40
1999.99562
 50
174.949359
 51
178.714944
  0
LINE
  8
1
  6
CONTINUOUS
 62
     1
  5
313
 10
50635.316827
 20
8908.324613
 30
0.0
 11
50704.017067
 21
8908.324613
 31
0.0
  0
LINE
  8
1
  6
CONTINUOUS
 62
     1
  5
314
 10
50635.797307
 20
8901.324613
 30
0.0
 11
50704.017067
 21
8901.324613
 31
0.0
  0
LINE
  8
1
  6
CONTINUOUS
 62
     1
  5
315
 10
50674.839597
 20
8819.824593
 30
0.0
 11
50651.004317
 21
8819.824593
 31
0.0
  0
ARC
  8
1
  6
CONTINUOUS
 62
     1
  5
316
 10
50770.316867
 20
8921.324593
 30
0.0
 40
19.99998
 50
270.0
 51
0.0
  0
LINE
  8
1
  6
CONTINUOUS
 62
     1
  5
317
 10
50741.816507
 20
8819.824593
 30
0.0
 11
50724.616807
 21
8819.824593
 31
0.0
  0
LINE
  8
1
  6
CONTINUOUS
 62
     1
  5
318
 10
50741.816367
 20
8821.824493
 30
0.0
 11
50741.816507
 21
8819.824593
 31
0.0
  0
LINE
  8
1
  6
CONTINUOUS
 62
     1
  5
319
 10
50704.017067
 20
8819.824593
 30
0.0
 11
50686.816667
 21
8819.824593
 31
0.0
  0
LINE
  8
1
  6
CONTINUOUS
 62
     1
  5
31A
 10
50724.616807
 20
8819.824593
 30
0.0
 11
50704.017067
 21
8819.824593
 31
0.0
  0
LINE
  8
2
  6
CONTINUOUS
 62
     1
  5
31B
 10
50704.316807
 20
8819.824593
 30
0.0
 11
50724.316787
 21
8819.824593
 31
0.0
  0
LINE
  8
2
  6
CONTINUOUS
 62
     1
  5
31C
 10
50714.316867
 20
8829.824513
 30
0.0
 11
50714.316867
 21
8809.824533
 31
0.0
  0
LINE
  8
1
  6
CONTINUOUS
 62
     1
  5
31D
 10
50686.816667
 20
8821.824493
 30
0.0
 11
50686.816667
 21
8819.824593
 31
0.0
  0
LINE
  8
1
  6
CONTINUOUS
 62
     1
  5
31E
 10
50724.616807
 20
8901.324613
 30
0.0
 11
50751.616927
 21
8901.324613
 31
0.0
  0
LINE
  8
1
  6
CONTINUOUS
 62
     1
  5
31F
 10
50724.616807
 20
8908.324613
 30
0.0
 11
50748.378867
 21
8908.324613
 31
0.0
  0
ARC
  8
1
  6
CONTINUOUS
 62
     1
  5
320
 10
50770.316867
 20
8921.324593
 30
0.0
 40
12.99998
 50
270.0
 51
0.0
  0
LINE
  8
1
  6
CONTINUOUS
 62
     1
  5
321
 10
50748.226827
 20
8905.825193
 30
0.0
 11
50748.016827
 21
8907.924773
 31
0.0
  0
LINE
  8
1
  6
CONTINUOUS
 62
     1
  5
322
 10
50759.406947
 20
8905.825193
 30
0.0
 11
50759.616947
 21
8907.924773
 31
0.0
  0
LINE
  8
1
  6
CONTINUOUS
 62
     1
  5
323
 10
50756.016847
 20
8901.324613
 30
0.0
 11
50770.316867
 21
8901.324613
 31
0.0
  0
LINE
  8
1
  6
CONTINUOUS
 62
     1
  5
324
 10
50756.016847
 20
8904.924713
 30
0.0
 11
50758.411827
 21
8904.924713
 31
0.0
  0
ARC
  8
1
  6
CONTINUOUS
 62
     1
  5
325
 10
50758.411827
 20
8905.924733
 30
0.0
 40
1.00002
 50
270.0
 51
354.289407
  0
LINE
  8
1
  6
CONTINUOUS
 62
     1
  5
326
 10
50749.221807
 20
8904.924713
 30
0.0
 11
50751.616927
 21
8904.924713
 31
0.0
  0
LINE
  8
1
  6
CONTINUOUS
 62
     1
  5
327
 10
50751.616927
 20
8904.924713
 30
0.0
 11
50756.016847
 21
8904.924713
 31
0.0
  0
ARC
  8
1
  6
CONTINUOUS
 62
     1
  5
328
 10
50749.221807
 20
8905.924733
 30
0.0
 40
1.00002
 50
185.710593
 51
270.0
  0
LINE
  8
1
  6
CONTINUOUS
 62
     1
  5
329
 10
50762.316847
 20
8923.824713
 30
0.0
 11
50754.816907
 21
8923.824713
 31
0.0
  0
LINE
  8
1
  6
CONTINUOUS
 62
     1
  5
32A
 10
50746.816887
 20
8919.924733
 30
0.0
 11
50760.816887
 21
8919.924733
 31
0.0
  0
LINE
  8
1
  6
CONTINUOUS
 62
     1
  5
32B
 10
50759.254907
 20
8908.324613
 30
0.0
 11
50770.316867
 21
8908.324613
 31
0.0
  0
ARC
  8
1
  6
CONTINUOUS
 62
     1
  5
32C
 10
50760.008387
 20
8908.643113
 30
0.0
 40
0.81816
 50
107.172158
 51
241.406656
  0
ARC
  8
1
  6
CONTINUOUS
 62
     1
  5
32D
 10
50760.358457
 20
8912.143113
 30
0.0
 40
0.81816
 50
107.172158
 51
241.406656
  0
ARC
  8
1
  6
CONTINUOUS
 62
     1
  5
32E
 10
50760.708387
 20
8915.643113
 30
0.0
 40
0.81816
 50
107.172158
 51
241.406656
  0
ARC
  8
1
  6
CONTINUOUS
 62
     1
  5
32F
 10
50761.058457
 20
8919.143113
 30
0.0
 40
0.81816
 50
107.172158
 51
241.406656
  0
ARC
  8
1
  6
CONTINUOUS
 62
     1
  5
330
 10
50761.316827
 20
8920.924753
 30
0.0
 40
1.00002
 50
270.0
 51
0.0
  0
LINE
  8
1
  6
CONTINUOUS
 62
     1
  5
331
 10
50759.766817
 20
8909.424733
 30
0.0
 11
50759.966947
 21
8911.424773
 31
0.0
  0
LINE
  8
1
  6
CONTINUOUS
 62
     1
  5
332
 10
50760.116957
 20
8912.924733
 30
0.0
 11
50760.316947
 21
8914.924773
 31
0.0
  0
LINE
  8
1
  6
CONTINUOUS
 62
     1
  5
333
 10
50760.466887
 20
8916.424733
 30
0.0
 11
50760.666877
 21
8918.424773
 31
0.0
  0
LINE
  8
1
  6
CONTINUOUS
 62
     1
  5
334
 10
50763.316867
 20
8923.824713
 30
0.0
 11
50762.316847
 21
8923.824713
 31
0.0
  0
LINE
  8
1
  6
CONTINUOUS
 62
     1
  5
335
 10
50762.316847
 20
8920.924753
 30
0.0
 11
50762.316847
 21
8923.824713
 31
0.0
  0
LINE
  8
1
  6
CONTINUOUS
 62
     1
  5
336
 10
50760.816887
 20
8919.924733
 30
0.0
 11
50761.316827
 21
8919.924733
 31
0.0
  0
LINE
  8
1
  6
CONTINUOUS
 62
     1
  5
337
 10
50754.816907
 20
8923.824713
 30
0.0
 11
50754.816907
 21
8924.324793
 31
0.0
  0
LINE
  8
1
  6
CONTINUOUS
 62
     1
  5
338
 10
50745.316927
 20
8920.924753
 30
0.0
 11
50745.316927
 21
8924.324793
 31
0.0
  0
ARC
  8
1
  6
CONTINUOUS
 62
     1
  5
339
 10
50747.625457
 20
8908.643113
 30
0.0
 40
0.81816
 50
298.593344
 51
72.82784
  0
ARC
  8
1
  6
CONTINUOUS
 62
     1
  5
33A
 10
50747.275387
 20
8912.143113
 30
0.0
 40
0.81816
 50
298.593344
 51
72.82784
  0
ARC
  8
1
  6
CONTINUOUS
 62
     1
  5
33B
 10
50746.925387
 20
8915.643113
 30
0.0
 40
0.81816
 50
298.593344
 51
72.82784
  0
ARC
  8
1
  6
CONTINUOUS
 62
     1
  5
33C
 10
50746.575457
 20
8919.143113
 30
0.0
 40
0.81816
 50
298.593344
 51
72.82784
  0
ARC
  8
1
  6
CONTINUOUS
 62
     1
  5
33D
 10
50746.316947
 20
8920.924753
 30
0.0
 40
1.00002
 50
180.0
 51
270.0
  0
LINE
  8
1
  6
CONTINUOUS
 62
     1
  5
33E
 10
50747.866957
 20
8909.424733
 30
0.0
 11
50747.666827
 21
8911.424773
 31
0.0
  0
LINE
  8
1
  6
CONTINUOUS
 62
     1
  5
33F
 10
50747.516817
 20
8912.924733
 30
0.0
 11
50747.316827
 21
8914.924773
 31
0.0
  0
LINE
  8
1
  6
CONTINUOUS
 62
     1
  5
340
 10
50747.166887
 20
8916.424733
 30
0.0
 11
50746.966897
 21
8918.424773
 31
0.0
  0
LINE
  8
1
  6
CONTINUOUS
 62
     1
  5
341
 10
50746.316947
 20
8919.924733
 30
0.0
 11
50746.816887
 21
8919.924733
 31
0.0
  0
LINE
  8
1
  6
CONTINUOUS
 62
     1
  5
342
 10
50754.816907
 20
8924.324793
 30
0.0
 11
50745.316927
 21
8924.324793
 31
0.0
  0
LINE
  8
2
  6
CONTINUOUS
 62
     1
  5
343
 10
50602.245747
 20
8826.895573
 30
0.0
 11
50616.387987
 21
8812.753473
 31
0.0
  0
LINE
  8
2
  6
CONTINUOUS
 62
     1
  5
344
 10
50616.387987
 20
8826.895573
 30
0.0
 11
50602.245747
 21
8812.753473
 31
0.0
  0
LINE
  8
1
  6
CONTINUOUS
 62
     1
  5
345
 10
50651.004317
 20
8819.824593
 30
0.0
 11
50609.316867
 21
8819.824593
 31
0.0
  0
LINE
  8
1
  6
CONTINUOUS
 62
     1
  5
346
 10
50597.816847
 20
8901.324613
 30
0.0
 11
50635.797307
 21
8901.324613
 31
0.0
  0
LINE
  8
1
  6
CONTINUOUS
 62
     1
  5
347
 10
50597.816847
 20
8908.324613
 30
0.0
 11
50635.316827
 21
8908.324613
 31
0.0
  0
LINE
  8
1
  6
CONTINUOUS
 62
     1
  5
348
 10
50647.280807
 20
8896.636573
 30
0.0
 11
50637.325827
 21
8900.121593
 31
0.0
  0
LINE
  8
1
  6
CONTINUOUS
 62
     1
  5
349
 10
50647.280807
 20
8896.636573
 30
0.0
 11
50637.325827
 21
8900.121593
 31
0.0
  0
ARC
  8
1
  6
CONTINUOUS
 62
     1
  5
34A
 10
50638.316607
 20
8902.952953
 30
0.0
 40
2.99978
 50
212.87778
 51
250.714782
  0
ARC
  8
1
  6
CONTINUOUS
 62
     1
  5
34B
 10
50638.316607
 20
8902.952953
 30
0.0
 40
2.99978
 50
212.87778
 51
250.714782
  0
LINE
  8
1
  6
CONTINUOUS
 62
     1
  5
34C
 10
50637.325827
 20
8918.527533
 30
0.0
 11
50647.280807
 21
8922.011573
 31
0.0
  0
LINE
  8
1
  6
CONTINUOUS
 62
     1
  5
34D
 10
50637.325827
 20
8918.527533
 30
0.0
 11
50647.280807
 21
8922.011573
 31
0.0
  0
ARC
  8
1
  6
CONTINUOUS
 62
     1
  5
34E
 10
50638.317097
 20
8915.695753
 30
0.0
 40
3.0002
 50
109.291609
 51
180.00517
  0
ARC
  8
1
  6
CONTINUOUS
 62
     1
  5
34F
 10
50638.317097
 20
8915.695753
 30
0.0
 40
3.0002
 50
109.291609
 51
180.00517
  0
LINE
  8
1
  6
CONTINUOUS
 62
     1
  5
350
 10
50635.316827
 20
8915.695613
 30
0.0
 11
50635.316827
 21
8908.324613
 31
0.0
  0
LINE
  8
1
  6
CONTINUOUS
 62
     1
  5
351
 10
50635.316827
 20
8915.695613
 30
0.0
 11
50635.316827
 21
8908.324613
 31
0.0
  0
LINE
  8
1
  6
CONTINUOUS
 62
     1
  5
352
 10
50597.816847
 20
8908.324613
 30
0.0
 11
50597.816847
 21
8901.324613
 31
0.0
  0
LINE
  8
1
  6
CONTINUOUS
 62
     1
  5
353
 10
50597.816847
 20
8901.324613
 30
0.0
 11
50597.816847
 21
8896.254793
 31
0.0
  0
ARC
  8
1
  6
CONTINUOUS
 62
     1
  5
354
 10
50587.816787
 20
8913.394293
 30
0.0
 40
10.00006
 50
359.999992
 51
47.932935
  0
LINE
  8
1
  6
CONTINUOUS
 62
     1
  5
355
 10
50597.816847
 20
8913.394293
 30
0.0
 11
50597.816847
 21
8908.324613
 31
0.0
  0
LINE
  8
1
  6
CONTINUOUS
 62
     1
  5
356
 10
50790.316847
 20
8950.824973
 30
0.0
 11
50783.316847
 21
8950.824973
 31
0.0
  0
LINE
  8
1
  6
CONTINUOUS
 62
     1
  5
357
 10
50790.316847
 20
8921.324593
 30
0.0
 11
50790.316847
 21
8950.824973
 31
0.0
  0
ARC
  8
1
  6
CONTINUOUS
 62
     1
  5
358
 10
50792.345447
 20
8951.324913
 30
0.0
 40
0.50008
 50
270.002117
 51
356.630945
  0
LINE
  8
1
  6
CONTINUOUS
 62
     1
  5
359
 10
50792.345447
 20
8950.824973
 30
0.0
 11
50790.316847
 21
8950.824973
 31
0.0
  0
LINE
  8
1
  6
CONTINUOUS
 62
     1
  5
35A
 10
50783.316847
 20
8921.324593
 30
0.0
 11
50783.316847
 21
8950.824973
 31
0.0
  0
LINE
  8
1
  6
CONTINUOUS
 62
     1
  5
35B
 10
50763.316867
 20
8950.824693
 30
0.0
 11
50763.316867
 21
8923.824713
 31
0.0
  0
ARC
  8
1
  6
CONTINUOUS
 62
     1
  5
35C
 10
50771.316887
 20
8951.824713
 30
0.0
 40
1.00002
 50
270.0
 51
0.0
  0
LINE
  8
1
  6
CONTINUOUS
 62
     1
  5
35D
 10
50772.316907
 20
8951.824713
 30
0.0
 11
50774.316947
 21
8951.824713
 31
0.0
  0
ARC
  8
1
  6
CONTINUOUS
 62
     1
  5
35E
 10
50781.288387
 20
8951.324913
 30
0.0
 40
0.50008
 50
183.374448
 51
270.00395
  0
LINE
  8
1
  6
CONTINUOUS
 62
     1
  5
35F
 10
50783.316847
 20
8950.824973
 30
0.0
 11
50781.288387
 21
8950.824973
 31
0.0
  0
ARC
  8
1
  6
CONTINUOUS
 62
     1
  5
360
 10
50774.316947
 20
8952.824733
 30
0.0
 40
1.00002
 50
270.0
 51
0.0
  0
LINE
  8
1
  6
CONTINUOUS
 62
     1
  5
361
 10
50771.316887
 20
8950.824693
 30
0.0
 11
50763.316867
 21
8950.824693
 31
0.0
  0
LINE
  8
1
  6
CONTINUOUS
 62
     1
  5
362
 10
50744.316907
 20
8946.574713
 30
0.0
 11
50744.316907
 21
8925.324813
 31
0.0
  0
LINE
  8
1
  6
CONTINUOUS
 62
     1
  5
363
 10
50754.816907
 20
8924.324793
 30
0.0
 11
50754.816907
 21
8944.824713
 31
0.0
  0
ARC
  8
1
  6
CONTINUOUS
 62
     1
  5
364
 10
50745.316927
 20
8925.324813
 30
0.0
 40
1.00002
 50
180.0
 51
270.0
  0
LINE
  8
1
  6
CONTINUOUS
 62
     1
  5
365
 10
50744.316907
 20
8946.574713
 30
0.0
 11
50754.816907
 21
8944.824713
 31
0.0
  0
ARC
  8
1
  6
CONTINUOUS
 62
     1
  5
366
 10
50743.816827
 20
8947.671893
 30
0.0
 40
1.00002
 50
180.0
 51
260.537672
  0
LINE
  8
1
  6
CONTINUOUS
 62
     1
  5
367
 10
50743.652467
 20
8946.685453
 30
0.0
 11
50744.316907
 21
8946.574713
 31
0.0
  0
LINE
  8
1
  6
CONTINUOUS
 62
     1
  5
368
 10
50718.278237
 20
8946.929333
 30
0.0
 11
50715.545647
 21
8945.465213
 31
0.0
  0
ARC
  8
1
  6
CONTINUOUS
 62
     1
  5
369
 10
50643.316567
 20
8933.338133
 30
0.0
 40
12.00038
 50
289.290013
 51
0.001994
  0
ARC
  8
1
  6
CONTINUOUS
 62
     1
  5
36A
 10
50643.316567
 20
8933.338133
 30
0.0
 40
12.00038
 50
289.290013
 51
0.001994
  0
LINE
  8
1
  6
CONTINUOUS
 62
     1
  5
36B
 10
50655.316807
 20
8933.338553
 30
0.0
 11
50655.316807
 21
8940.602593
 31
0.0
  0
LINE
  8
1
  6
CONTINUOUS
 62
     1
  5
36C
 10
50655.316807
 20
8933.338553
 30
0.0
 11
50655.316807
 21
8940.602593
 31
0.0
  0
LINE
  8
1
  6
CONTINUOUS
 62
     1
  5
36D
 10
50658.239937
 20
8883.824613
 30
0.0
 11
50678.911847
 21
8883.824613
 31
0.0
  0
LINE
  8
1
  6
CONTINUOUS
 62
     1
  5
36E
 10
50658.239937
 20
8883.824613
 30
0.0
 11
50678.911847
 21
8883.824613
 31
0.0
  0
LINE
  8
1
  6
CONTINUOUS
 62
     1
  5
36F
 10
50733.816907
 20
8848.224293
 30
0.0
 11
50612.316787
 21
8848.224293
 31
0.0
  0
LINE
  8
1
  6
CONTINUOUS
 62
     1
  5
370
 10
50733.816907
 20
8843.824233
 30
0.0
 11
50612.316787
 21
8843.824233
 31
0.0
  0
LINE
  8
1
  6
CONTINUOUS
 62
     1
  5
371
 10
50704.017067
 20
8843.824233
 30
0.0
 11
50704.017067
 21
8835.824493
 31
0.0
  0
LINE
  8
1
  6
CONTINUOUS
 62
     1
  5
372
 10
50724.616807
 20
8843.824233
 30
0.0
 11
50724.616807
 21
8835.824493
 31
0.0
  0
LINE
  8
1
  6
CONTINUOUS
 62
     1
  5
373
 10
50693.191357
 20
8843.824233
 30
0.0
 11
50693.685487
 21
8833.288113
 31
0.0
  0
LINE
  8
1
  6
CONTINUOUS
 62
     1
  5
374
 10
50730.348197
 20
8834.919673
 30
0.0
 11
50726.731577
 21
8835.776193
 31
0.0
  0
ARC
  8
1
  6
CONTINUOUS
 62
     1
  5
375
 10
50728.816387
 20
8821.824493
 30
0.0
 40
13.00026
 50
0.0
 51
69.537063
  0
ARC
  8
1
  6
CONTINUOUS
 62
     1
  5
376
 10
50724.516847
 20
8810.300813
 30
0.0
 40
25.29996
 50
69.538209
 51
76.674298
  0
ARC
  8
1
  6
CONTINUOUS
 62
     1
  5
377
 10
50704.116607
 20
8810.300813
 30
0.0
 40
25.29996
 50
103.326143
 51
110.463222
  0
LINE
  8
1
  6
CONTINUOUS
 62
     1
  5
378
 10
50724.616807
 20
8835.824493
 30
0.0
 11
50704.017067
 21
8835.824493
 31
0.0
  0
ARC
  8
1
  6
CONTINUOUS
 62
     1
  5
379
 10
50726.316407
 20
8834.024793
 30
0.0
 40
1.7997
 50
76.666339
 51
90.0
  0
LINE
  8
1
  6
CONTINUOUS
 62
     1
  5
37A
 10
50726.316407
 20
8835.824493
 30
0.0
 11
50724.616807
 21
8835.824493
 31
0.0
  0
ARC
  8
1
  6
CONTINUOUS
 62
     1
  5
37B
 10
50702.316417
 20
8834.024793
 30
0.0
 40
1.79984
 50
90.0
 51
103.324368
  0
LINE
  8
1
  6
CONTINUOUS
 62
     1
  5
37C
 10
50704.017067
 20
8835.824493
 30
0.0
 11
50702.316417
 21
8835.824773
 31
0.0
  0
LINE
  8
1
  6
CONTINUOUS
 62
     1
  5
37D
 10
50698.285187
 20
8834.919673
 30
0.0
 11
50701.901527
 21
8835.776193
 31
0.0
  0
ARC
  8
1
  6
CONTINUOUS
 62
     1
  5
37E
 10
50699.816367
 20
8821.824493
 30
0.0
 40
12.9997
 50
110.462419
 51
180.0
  0
ARC
  8
1
  6
CONTINUOUS
 62
     1
  5
37F
 10
50733.816907
 20
8866.024313
 30
0.0
 40
22.20008
 50
270.0
 51
0.0
  0
LINE
  8
1
  6
CONTINUOUS
 62
     1
  5
380
 10
50751.616927
 20
8904.924713
 30
0.0
 11
50751.616927
 21
8866.024313
 31
0.0
  0
LINE
  8
1
  6
CONTINUOUS
 62
     1
  5
381
 10
50756.016847
 20
8904.924713
 30
0.0
 11
50756.016847
 21
8866.024313
 31
0.0
  0
ARC
  8
1
  6
CONTINUOUS
 62
     1
  5
382
 10
50733.816907
 20
8866.024313
 30
0.0
 40
17.80002
 50
270.0
 51
0.0
  0
ARC
  8
1
  6
CONTINUOUS
 62
     1
  5
383
 10
50678.911427
 20
8870.824913
 30
0.0
 40
12.9997
 50
2.67903
 51
89.998215
  0
LINE
  8
1
  6
CONTINUOUS
 62
     1
  5
384
 10
50691.896847
 20
8871.432513
 30
0.0
 11
50692.985067
 21
8848.224293
 31
0.0
  0
ARC
  8
1
  6
CONTINUOUS
 62
     1
  5
385
 10
50689.327637
 20
8840.824873
 30
0.0
 40
3.99966
 50
2.675277
 51
48.582187
  0
ARC
  8
1
  6
CONTINUOUS
 62
     1
  5
386
 10
50612.316787
 20
8866.024313
 30
0.0
 40
17.80002
 50
180.0
 51
270.0
  0
ARC
  8
1
  6
CONTINUOUS
 62
     1
  5
387
 10
50612.316787
 20
8866.024313
 30
0.0
 40
22.20008
 50
180.0
 51
270.0
  0
ARC
  8
1
  6
CONTINUOUS
 62
     1
  5
388
 10
50629.316847
 20
8856.824493
 30
0.0
 40
11.00022
 50
30.602871
 51
149.397129
  0
ARC
  8
1
  6
CONTINUOUS
 62
     1
  5
389
 10
50604.419807
 20
8841.953553
 30
0.0
 40
40.00024
 50
9.019282
 51
30.781972
  0
ARC
  8
1
  6
CONTINUOUS
 62
     1
  5
38A
 10
50643.316987
 20
8885.310293
 30
0.0
 40
11.99982
 50
5.516036
 51
70.711587
  0
ARC
  8
1
  6
CONTINUOUS
 62
     1
  5
38B
 10
50643.316987
 20
8885.310293
 30
0.0
 40
11.99982
 50
5.516036
 51
70.711587
  0
ARC
  8
1
  6
CONTINUOUS
 62
     1
  5
38C
 10
50658.239657
 20
8886.824673
 30
0.0
 40
3.0002
 50
186.908681
 51
270.004754
  0
ARC
  8
1
  6
CONTINUOUS
 62
     1
  5
38D
 10
50658.239657
 20
8886.824673
 30
0.0
 40
3.0002
 50
186.908681
 51
270.004754
  0
ARC
  8
1
  6
CONTINUOUS
 62
     1
  5
38E
 10
50654.214867
 20
8841.953553
 30
0.0
 40
40.00108
 50
149.21876
 51
170.980918
  0
ARC
  8
1
  6
CONTINUOUS
 62
     1
  5
38F
 10
50587.816787
 20
8896.254793
 30
0.0
 40
10.00006
 50
312.067081
 51
0.000061
  0
LINE
  8
1
  6
CONTINUOUS
 62
     1
  5
390
 10
50809.316807
 20
8819.824593
 30
0.0
 11
50809.316807
 21
10015.824503
 31
0.0
  0
LINE
  8
40
  6
CONTINUOUS
 62
     1
  5
391
 10
50907.316807
 20
10040.824513
 30
0.0
 11
50799.316817
 21
10040.824513
 31
0.0
  0
LINE
  8
40
  6
CONTINUOUS
 62
     1
  5
392
 10
50907.316807
 20
10020.824533
 30
0.0
 11
50799.316817
 21
10020.824533
 31
0.0
  0
LINE
  8
40
  6
CONTINUOUS
 62
     3
  5
393
 10
50809.316807
 20
10015.824503
 30
0.0
 11
50907.316807
 21
10015.824503
 31
0.0
  0
LINE
  8
1
  6
CONTINUOUS
 62
     1
  5
394
 10
50799.316817
 20
10020.824533
 30
0.0
 11
50799.316817
 21
10040.824513
 31
0.0
  0
LINE
  8
40
  6
CONTINUOUS
 62
     3
  5
395
 10
50809.316807
 20
9915.824603
 30
0.0
 11
50907.316807
 21
9915.824603
 31
0.0
  0
LINE
  8
40
  6
CONTINUOUS
 62
     3
  5
396
 10
50809.316807
 20
9815.824563
 30
0.0
 11
50907.316807
 21
9815.824563
 31
0.0
  0
LINE
  8
40
  6
CONTINUOUS
 62
     3
  5
397
 10
50809.316807
 20
9717.824563
 30
0.0
 11
50907.316807
 21
9717.824563
 31
0.0
  0
LINE
  8
40
  6
CONTINUOUS
 62
     3
  5
398
 10
50809.316807
 20
9715.824663
 30
0.0
 11
50907.316807
 21
9715.824663
 31
0.0
  0
LINE
  8
20
  6
CONTINUOUS
 62
     3
  5
399
 10
50809.316807
 20
9617.824663
 30
0.0
 11
50907.316807
 21
9617.824663
 31
0.0
  0
LINE
  8
40
  6
CONTINUOUS
 62
     3
  5
39A
 10
50809.316807
 20
9615.824623
 30
0.0
 11
50907.316807
 21
9615.824623
 31
0.0
  0
LINE
  8
40
  6
CONTINUOUS
 62
     3
  5
39B
 10
50809.316807
 20
9515.824583
 30
0.0
 11
50907.316807
 21
9515.824583
 31
0.0
  0
LINE
  8
40
  6
CONTINUOUS
 62
     3
  5
39C
 10
50809.316807
 20
9415.824683
 30
0.0
 11
50907.316807
 21
9415.824683
 31
0.0
  0
LINE
  8
40
  6
CONTINUOUS
 62
     3
  5
39D
 10
50809.316807
 20
9317.824543
 30
0.0
 11
50907.316807
 21
9317.824543
 31
0.0
  0
LINE
  8
40
  6
CONTINUOUS
 62
     3
  5
39E
 10
50809.316807
 20
9315.824643
 30
0.0
 11
50907.316807
 21
9315.824643
 31
0.0
  0
LINE
  8
40
  6
CONTINUOUS
 62
     3
  5
39F
 10
50809.316807
 20
9217.824643
 30
0.0
 11
50907.316807
 21
9217.824643
 31
0.0
  0
LINE
  8
40
  6
CONTINUOUS
 62
     3
  5
3A0
 10
50809.316807
 20
9215.824603
 30
0.0
 11
50907.316807
 21
9215.824603
 31
0.0
  0
LINE
  8
40
  6
CONTINUOUS
 62
     3
  5
3A1
 10
50809.316807
 20
9115.824563
 30
0.0
 11
50907.316807
 21
9115.824563
 31
0.0
  0
LINE
  8
40
  6
CONTINUOUS
 62
     3
  5
3A2
 10
50809.316807
 20
9117.824603
 30
0.0
 11
50907.316807
 21
9117.824603
 31
0.0
  0
LINE
  8
40
  6
CONTINUOUS
 62
     3
  5
3A3
 10
50809.316807
 20
9015.824663
 30
0.0
 11
50907.316807
 21
9015.824663
 31
0.0
  0
LINE
  8
40
  6
CONTINUOUS
 62
     3
  5
3A4
 10
50809.316807
 20
8915.824623
 30
0.0
 11
50907.316807
 21
8915.824623
 31
0.0
  0
LINE
  8
40
  6
CONTINUOUS
 62
     3
  5
3A5
 10
50809.316807
 20
8917.824523
 30
0.0
 11
50907.316807
 21
8917.824523
 31
0.0
  0
LINE
  8
40
  6
CONTINUOUS
 62
     3
  5
3A6
 10
50809.316807
 20
9917.824503
 30
0.0
 11
50907.316807
 21
9917.824503
 31
0.0
  0
LINE
  8
40
  6
CONTINUOUS
 62
     3
  5
3A7
 10
50809.316807
 20
9817.824603
 30
0.0
 11
50907.316807
 21
9817.824603
 31
0.0
  0
LINE
  8
40
  6
CONTINUOUS
 62
     3
  5
3A8
 10
50809.316807
 20
9617.824523
 30
0.0
 11
50907.316807
 21
9617.824523
 31
0.0
  0
LINE
  8
40
  6
CONTINUOUS
 62
     3
  5
3A9
 10
50809.316807
 20
9417.824583
 30
0.0
 11
50907.316807
 21
9417.824583
 31
0.0
  0
LINE
  8
40
  6
CONTINUOUS
 62
     3
  5
3AA
 10
50809.316807
 20
9517.824623
 30
0.0
 11
50907.316807
 21
9517.824623
 31
0.0
  0
LINE
  8
40
  6
CONTINUOUS
 62
     3
  5
3AB
 10
50751.616927
 20
8894.824623
 30
0.0
 11
50724.616807
 21
8894.824623
 31
0.0
  0
LINE
  8
70
  6
CONTINUOUS
 62
     1
  5
3AC
 10
49925.654447
 20
9313.824533
 30
0.0
 11
49925.654447
 21
9331.399153
 31
0.0
  0
LINE
  8
70
  6
CONTINUOUS
 62
     1
  5
3AD
 10
49925.654447
 20
9398.824553
 30
0.0
 11
49925.654447
 21
9313.824533
 31
0.0
  0
LINE
  8
70
  6
CONTINUOUS
 62
     1
  5
3AE
 10
49774.215397
 20
9313.824533
 30
0.0
 11
49774.215397
 21
9398.824553
 31
0.0
  0
LINE
  8
70
  6
CONTINUOUS
 62
     1
  5
3AF
 10
49925.215337
 20
9313.824533
 30
0.0
 11
49925.215337
 21
9331.399153
 31
0.0
  0
LINE
  8
70
  6
CONTINUOUS
 62
     1
  5
3B0
 10
49948.215377
 20
9313.824533
 30
0.0
 11
49948.215377
 21
9331.399153
 31
0.0
  0
LINE
  8
70
  6
CONTINUOUS
 62
     1
  5
3B1
 10
49925.215337
 20
9398.824553
 30
0.0
 11
49925.215337
 21
9313.824533
 31
0.0
  0
LINE
  8
70
  6
CONTINUOUS
 62
     1
  5
3B2
 10
49948.215377
 20
9398.824553
 30
0.0
 11
49948.215377
 21
9313.824533
 31
0.0
  0
LINE
  8
70
  6
CONTINUOUS
 62
     1
  5
3B3
 10
49797.215297
 20
9398.824553
 30
0.0
 11
49797.215297
 21
9313.824533
 31
0.0
  0
LINE
  8
70
  6
CONTINUOUS
 62
     1
  5
3B4
 10
49948.215377
 20
9313.824533
 30
0.0
 11
49774.215397
 21
9313.824533
 31
0.0
  0
LINE
  8
70
  6
CONTINUOUS
 62
     1
  5
3B5
 10
49948.215377
 20
9398.824553
 30
0.0
 11
49774.215397
 21
9398.824553
 31
0.0
  0
LINE
  8
8
  6
CONTINUOUS
 62
     1
  5
3B6
 10
49797.215297
 20
9313.824533
 30
0.0
 11
49797.215297
 21
9331.399153
 31
0.0
  0
LINE
  8
40
  6
CONTINUOUS
 62
     4
  5
3B7
 10
49209.816807
 20
8819.824593
 30
0.0
 11
50907.316807
 21
8819.824593
 31
0.0
  0
LINE
  8
40
  6
CONTINUOUS
 62
     4
  5
3B8
 10
50809.316807
 20
8819.824593
 30
0.0
 11
49209.816807
 21
8819.824593
 31
0.0
  0
LINE
  8
5
  6
CONTINUOUS
 62
     3
  5
3B9
 10
48979.816807
 20
8819.824593
 30
0.0
 11
49179.816807
 21
8819.824593
 31
0.0
  0
LINE
  8
40
  6
CONTINUOUS
 62
     4
  5
3BA
 10
49209.316807
 20
11219.824573
 30
0.0
 11
50907.316807
 21
11219.824573
 31
0.0
  0
CIRCLE
  8
5
  6
CONTINUOUS
 62
     3
  5
3BB
 10
48979.316807
 20
11219.824573
 30
0.0
 40
7.5
  0
LINE
  8
5
  6
CONTINUOUS
 62
     3
  5
3BC
 10
48979.316807
 20
11219.824573
 30
0.0
 11
49179.316807
 21
11219.824573
 31
0.0
  0
LINE
  8
5
  6
CONTINUOUS
 62
     3
  5
3BD
 10
49707.316807
 20
10343.396573
 30
0.0
 11
49707.316807
 21
10143.396573
 31
0.0
  0
LINE
  8
5
  6
CONTINUOUS
 62
     3
  5
3BE
 10
50157.316707
 20
10243.396573
 30
0.0
 11
50157.316707
 21
10143.396573
 31
0.0
  0
CIRCLE
  8
5
  6
CONTINUOUS
 62
     3
  5
3BF
 10
49707.316807
 20
10343.396573
 30
0.0
 40
7.5
  0
CIRCLE
  8
5
  6
CONTINUOUS
 62
     3
  5
3C0
 10
49707.316807
 20
10243.396573
 30
0.0
 40
7.5
  0
CIRCLE
  8
5
  6
CONTINUOUS
 62
     3
  5
3C1
 10
50157.316707
 20
10243.396573
 30
0.0
 40
7.5
  0
LINE
  8
5
  6
CONTINUOUS
 62
     3
  5
3C2
 10
49707.316807
 20
10243.396573
 30
0.0
 11
50157.316707
 21
10243.396573
 31
0.0
  0
CIRCLE
  8
5
  6
CONTINUOUS
 62
     3
  5
3C3
 10
50807.316807
 20
10343.396573
 30
0.0
 40
7.5
  0
CIRCLE
  8
5
  6
CONTINUOUS
 62
     3
  5
3C4
 10
50807.316807
 20
10243.396573
 30
0.0
 40
7.5
  0
LINE
  8
5
  6
CONTINUOUS
 62
     3
  5
3C5
 10
50907.316807
 20
10343.396573
 30
0.0
 11
50907.316807
 21
10143.396573
 31
0.0
  0
CIRCLE
  8
5
  6
CONTINUOUS
 62
     3
  5
3C6
 10
50807.316807
 20
10343.396573
 30
0.0
 40
7.5
  0
CIRCLE
  8
5
  6
CONTINUOUS
 62
     3
  5
3C7
 10
50907.316807
 20
10343.396573
 30
0.0
 40
7.5
  0
LINE
  8
5
  6
CONTINUOUS
 62
     3
  5
3C8
 10
50807.316807
 20
10343.396573
 30
0.0
 11
50907.316807
 21
10343.396573
 31
0.0
  0
LINE
  8
5
  6
CONTINUOUS
 62
     3
  5
3C9
 10
50807.316807
 20
10243.396573
 30
0.0
 11
50807.316807
 21
10143.396573
 31
0.0
  0
LINE
  8
5
  6
CONTINUOUS
 62
     3
  5
3CA
 10
50157.316707
 20
10243.396573
 30
0.0
 11
50807.316807
 21
10243.396573
 31
0.0
  0
LINE
  8
5
  6
CONTINUOUS
 62
     3
  5
3CB
 10
50807.316807
 20
10343.396573
 30
0.0
 11
50807.316807
 21
10143.396573
 31
0.0
  0
LINE
  8
5
  6
CONTINUOUS
 62
     3
  5
3CC
 10
49707.316807
 20
10343.396573
 30
0.0
 11
50807.316807
 21
10343.396573
 31
0.0
  0
LINE
  8
5
  6
CONTINUOUS
 62
     6
  5
3CD
 10
50343.910677
 20
12719.893401
 30
0.0
 11
50314.816717
 21
12719.893401
 31
0.0
  0
LINE
  8
5
  6
CONTINUOUS
 62
     6
  5
3CE
 10
50314.816717
 20
13619.893271
 30
0.0
 11
50914.816817
 21
13619.893271
 31
0.0
  0
LINE
  8
5
  6
CONTINUOUS
 62
     6
  5
3CF
 10
50332.330857
 20
13488.738751
 30
0.0
 11
50314.816717
 21
13619.893271
 31
0.0
  0
LINE
  8
5
  6
CONTINUOUS
 62
     6
  5
3D0
 10
50352.619097
 20
12960.364191
 30
0.0
 11
50345.729697
 21
12928.213681
 31
0.0
  0
LINE
  8
5
  6
CONTINUOUS
 62
     6
  5
3D1
 10
50345.729697
 20
12928.213681
 30
0.0
 11
50352.619097
 21
12960.364191
 31
0.0
  0
LINE
  8
5
  6
CONTINUOUS
 62
     6
  5
3D2
 10
50355.507717
 20
12926.118371
 30
0.0
 11
50362.397117
 21
12958.268951
 31
0.0
  0
ARC
  8
5
  6
CONTINUOUS
 62
     6
  5
3D3
 10
51323.532257
 20
12718.684571
 30
0.0
 40
990.00006
 50
167.90524
 51
172.393816
  0
ARC
  8
5
  6
CONTINUOUS
 62
     6
  5
3D4
 10
51323.532257
 20
12718.684571
 30
0.0
 40
990.00006
 50
167.905242
 51
172.393824
  0
ARC
  8
5
  6
CONTINUOUS
 62
     6
  5
3D5
 10
50454.120357
 20
12908.306311
 30
0.0
 40
100.00004
 50
171.265247
 51
286.074804
  0
LINE
  8
5
  6
CONTINUOUS
 62
     6
  5
3D6
 10
50332.330857
 20
12851.047921
 30
0.0
 11
50314.816717
 21
12719.893401
 31
0.0
  0
LINE
  8
5
  6
CONTINUOUS
 62
     6
  5
3D7
 10
50342.242857
 20
12849.724361
 30
0.0
 11
50324.728717
 21
12718.569701
 31
0.0
  0
LINE
  8
5
  6
CONTINUOUS
 62
     6
  5
3D8
 10
50362.397117
 20
12958.268951
 30
0.0
 11
50355.507717
 21
12926.118371
 31
0.0
  0
ARC
  8
5
  6
CONTINUOUS
 62
     6
  5
3D9
 10
51323.532257
 20
12718.684571
 30
0.0
 40
999.99998
 50
167.905242
 51
172.39382
  0
ARC
  8
5
  6
CONTINUOUS
 62
     6
  5
3DA
 10
51323.532257
 20
13621.102101
 30
0.0
 40
990.00006
 50
187.606175
 51
192.094757
  0
LINE
  8
5
  6
CONTINUOUS
 62
     6
  5
3DB
 10
50345.729697
 20
13411.572991
 30
0.0
 11
50352.619097
 21
13379.422481
 31
0.0
  0
LINE
  8
5
  6
CONTINUOUS
 62
     6
  5
3DC
 10
50355.507717
 20
13413.668301
 30
0.0
 11
50362.397117
 21
13381.517721
 31
0.0
  0
ARC
  8
5
  6
CONTINUOUS
 62
     6
  5
3DD
 10
51323.532257
 20
13621.102101
 30
0.0
 40
999.99998
 50
187.606179
 51
192.094757
  0
ARC
  8
5
  6
CONTINUOUS
 62
     6
  5
3DE
 10
50455.702637
 20
13431.193851
 30
0.0
 40
100.00004
 50
73.925191
 51
188.734752
  0
ARC
  8
5
  6
CONTINUOUS
 62
     6
  5
3DF
 10
49374.816677
 20
13169.893231
 30
0.0
 40
1010.00004
 50
347.905242
 51
12.094753
  0
ARC
  8
5
  6
CONTINUOUS
 62
     6
  5
3E0
 10
49374.816677
 20
13169.893231
 30
0.0
 40
999.99998
 50
347.905242
 51
12.094757
  0
ARC
  8
5
  6
CONTINUOUS
 62
     6
  5
3E1
 10
50587.774297
 20
13109.265391
 30
0.0
 40
225.00002
 50
306.38061
 51
337.039818
  0
ARC
  8
5
  6
CONTINUOUS
 62
     6
  5
3E2
 10
50393.500077
 20
13304.355951
 30
0.0
 40
500.00006
 50
280.172894
 51
315.928025
  0
ARC
  8
5
  6
CONTINUOUS
 62
     6
  5
3E3
 10
50587.770237
 20
13230.201171
 30
0.0
 40
225.00002
 50
22.960219
 51
42.550806
  0
ARC
  8
5
  6
CONTINUOUS
 62
     6
  5
3E4
 10
50393.500077
 20
13035.430861
 30
0.0
 40
500.00006
 50
44.07197
 51
79.642834
  0
ARC
  8
5
  6
CONTINUOUS
 62
     6
  5
3E5
 10
50445.050177
 20
13169.729851
 30
0.0
 40
380.00004
 50
337.03971
 51
22.960219
  0
LINE
  8
5
  6
CONTINUOUS
 62
     6
  5
3E6
 10
50342.242857
 20
13490.062451
 30
0.0
 11
50324.905537
 21
13619.893271
 31
0.0
  0
ARC
  8
5
  6
CONTINUOUS
 62
     6
  5
3E7
 10
50477.813817
 20
14373.028801
 30
0.0
 40
995.5001
 50
95.265899
 51
104.019358
  0
ARC
  8
5
  6
CONTINUOUS
 62
     6
  5
3E8
 10
50477.042837
 20
14372.748801
 30
0.0
 40
999.99998
 50
95.488555
 51
104.37327
  0
ARC
  8
5
  6
CONTINUOUS
 62
     6
  5
3E9
 10
50664.817837
 20
15414.393391
 30
0.0
 40
299.99998
 50
177.104008
 51
182.89596
  0
ARC
  8
5
  6
CONTINUOUS
 62
     6
  5
3EA
 10
50378.182677
 20
15428.893541
 30
0.0
 40
12.99998
 50
90.0
 51
177.104008
  0
ARC
  8
5
  6
CONTINUOUS
 62
     6
  5
3EB
 10
50378.182677
 20
15399.893171
 30
0.0
 40
12.99998
 50
182.89596
 51
270.0
  0
ARC
  8
5
  6
CONTINUOUS
 62
     6
  5
3EC
 10
50309.330677
 20
15047.812211
 30
0.0
 40
299.99998
 50
104.019358
 51
137.5811
  0
ARC
  8
5
  6
CONTINUOUS
 62
     6
  5
3ED
 10
50303.276797
 20
15050.837541
 30
0.0
 40
299.99998
 50
104.37327
 51
136.96829
  0
LINE
  8
5
  6
CONTINUOUS
 62
     6
  5
3EE
 10
50336.801757
 20
14945.739471
 30
0.0
 11
50361.000757
 21
14942.553281
 31
0.0
  0
ARC
  8
5
  6
CONTINUOUS
 62
     6
  5
3EF
 10
50337.845737
 20
14953.671241
 30
0.0
 40
8.00002
 50
198.11744
 51
262.5
  0
ARC
  8
5
  6
CONTINUOUS
 62
     6
  5
3F0
 10
50362.045717
 20
14950.484841
 30
0.0
 40
8.00002
 50
262.5
 51
327.081019
  0
LINE
  8
5
  6
CONTINUOUS
 62
     6
  5
3F1
 10
50330.241777
 20
14951.183161
 30
0.0
 11
50323.258717
 21
14972.529941
 31
0.0
  0
ARC
  8
5
  6
CONTINUOUS
 62
     6
  5
3F2
 10
50477.813817
 20
15964.758031
 30
0.0
 40
995.5001
 50
255.98062
 51
264.73408
  0
ARC
  8
5
  6
CONTINUOUS
 62
     6
  5
3F3
 10
50303.276797
 20
15286.949291
 30
0.0
 40
299.99998
 50
223.031689
 51
255.6267
  0
ARC
  8
5
  6
CONTINUOUS
 62
     6
  5
3F4
 10
50477.042837
 20
15965.038871
 30
0.0
 40
999.99998
 50
255.6267
 51
260.78688
  0
ARC
  8
5
  6
CONTINUOUS
 62
     6
  5
3F5
 10
50309.330677
 20
15289.974621
 30
0.0
 40
299.99998
 50
222.41888
 51
255.98062
  0
ARC
  8
5
  6
CONTINUOUS
 62
     6
  5
3F6
 10
50315.653777
 20
14970.041861
 30
0.0
 40
8.00002
 50
18.117446
 51
80.78688
  0
ARC
  8
5
  6
CONTINUOUS
 62
     6
  5
3F7
 10
50176.816757
 20
15168.893451
 30
0.0
 40
127.00002
 50
136.96829
 51
223.031689
  0
ARC
  8
5
  6
CONTINUOUS
 62
     6
  5
3F8
 10
50176.816757
 20
15168.893451
 30
0.0
 40
120.5001
 50
137.5811
 51
222.41888
  0
LINE
  8
5
  6
CONTINUOUS
 62
     6
  5
3F9
 10
50577.569837
 20
15418.893691
 30
0.0
 11
50577.569837
 21
15419.393281
 31
0.0
  0
LINE
  8
5
  6
CONTINUOUS
 62
     6
  5
3FA
 10
50426.978697
 20
15320.150921
 30
0.0
 11
50400.784697
 21
15360.498291
 31
0.0
  0
LINE
  8
5
  6
CONTINUOUS
 62
     6
  5
3FB
 10
50427.345777
 20
15310.223661
 30
0.0
 11
50393.304777
 21
15364.121211
 31
0.0
  0
LINE
  8
5
  6
CONTINUOUS
 62
     6
  5
3FC
 10
50385.136757
 20
15366.355681
 30
0.0
 11
50386.448697
 21
15364.326871
 31
0.0
  0
LINE
  8
5
  6
CONTINUOUS
 62
     6
  5
3FD
 10
50576.816777
 20
15417.893741
 30
0.0
 11
50577.569837
 21
15418.893691
 31
0.0
  0
LINE
  8
5
  6
CONTINUOUS
 62
     6
  5
3FE
 10
50386.816757
 20
15440.036841
 30
0.0
 11
50552.817837
 21
15440.036841
 31
0.0
  0
LINE
  8
5
  6
CONTINUOUS
 62
     6
  5
3FF
 10
50555.069737
 20
15441.893311
 30
0.0
 11
50378.182677
 21
15441.893311
 31
0.0
  0
LINE
  8
5
  6
CONTINUOUS
 62
     6
  5
400
 10
50378.182677
 20
15386.893401
 30
0.0
 11
50395.816797
 21
15386.893401
 31
0.0
  0
LINE
  8
5
  6
CONTINUOUS
 62
     6
  5
401
 10
50399.816737
 20
15382.893391
 30
0.0
 11
50399.816737
 21
15363.766871
 31
0.0
  0
LINE
  8
5
  6
CONTINUOUS
 62
     6
  5
402
 10
50576.816777
 20
15417.893741
 30
0.0
 11
50576.816777
 21
15409.643681
 31
0.0
  0
LINE
  8
5
  6
CONTINUOUS
 62
     6
  5
403
 10
50386.816757
 20
15401.393551
 30
0.0
 11
50386.816757
 21
15440.036841
 31
0.0
  0
LINE
  8
5
  6
CONTINUOUS
 62
     6
  5
404
 10
50574.179737
 20
15400.893261
 30
0.0
 11
50387.316697
 21
15400.893261
 31
0.0
  0
LINE
  8
5
  6
CONTINUOUS
 62
     6
  5
405
 10
50391.906737
 20
15364.815051
 30
0.0
 11
50386.448697
 21
15364.326871
 31
0.0
  0
ARC
  8
5
  6
CONTINUOUS
 62
     6
  5
406
 10
50552.678817
 20
15417.534991
 30
0.0
 40
22.50262
 50
359.430348
 51
89.649625
  0
ARC
  8
5
  6
CONTINUOUS
 62
     6
  5
407
 10
50405.818677
 20
15363.766871
 30
0.0
 40
6.00222
 50
180.0
 51
212.992469
  0
ARC
  8
5
  6
CONTINUOUS
 62
     6
  5
408
 10
50392.035677
 20
15363.320691
 30
0.0
 40
1.5001
 50
32.275634
 51
94.950561
  0
ARC
  8
5
  6
CONTINUOUS
 62
     6
  5
409
 10
50555.069737
 20
15419.393281
 30
0.0
 40
22.5001
 50
0.0
 51
41.160552
  0
ARC
  8
5
  6
CONTINUOUS
 62
     6
  5
40A
 10
50381.778717
 20
15364.182461
 30
0.0
 40
4.00008
 50
32.91896
 51
95.488555
  0
ARC
  8
5
  6
CONTINUOUS
 62
     6
  5
40B
 10
50387.316697
 20
15401.393551
 30
0.0
 40
0.50008
 50
180.0
 51
270.0
  0
ARC
  8
5
  6
CONTINUOUS
 62
     6
  5
40C
 10
50395.816797
 20
15382.893391
 30
0.0
 40
4.00008
 50
0.0
 51
90.0
  0
ARC
  8
5
  6
CONTINUOUS
 62
     6
  5
40D
 10
50555.069737
 20
15419.393281
 30
0.0
 40
22.5001
 50
41.160552
 51
90.0
  0
LINE
  8
5
  6
CONTINUOUS
 62
     6
  5
40E
 10
50576.816777
 20
15367.393291
 30
0.0
 11
50576.816777
 21
14992.893571
 31
0.0
  0
LINE
  8
5
  6
CONTINUOUS
 62
     6
  5
40F
 10
50480.816817
 20
15307.893711
 30
0.0
 11
50431.573777
 21
15307.893711
 31
0.0
  0
LINE
  8
5
  6
CONTINUOUS
 62
     6
  5
410
 10
50413.781737
 20
15340.479411
 30
0.0
 11
50407.675777
 21
15341.367501
 31
0.0
  0
LINE
  8
5
  6
CONTINUOUS
 62
     6
  5
411
 10
50431.538777
 20
15307.893711
 30
0.0
 11
50431.573777
 21
15307.893711
 31
0.0
  0
ARC
  8
5
  6
CONTINUOUS
 62
     6
  5
412
 10
50401.816777
 20
15303.815091
 30
0.0
 40
30.00004
 50
7.813034
 51
32.992477
  0
ARC
  8
5
  6
CONTINUOUS
 62
     6
  5
413
 10
50480.816817
 20
15306.893831
 30
0.0
 40
1.00002
 50
0.0
 51
90.0
  0
ARC
  8
5
  6
CONTINUOUS
 62
     6
  5
414
 10
50431.573777
 20
15312.893741
 30
0.0
 40
5.0001
 50
212.27563
 51
269.60652
  0
LINE
  8
5
  6
CONTINUOUS
 62
     6
  5
415
 10
50504.816737
 20
14960.393691
 30
0.0
 11
50502.317737
 21
14960.393691
 31
0.0
  0
LINE
  8
5
  6
CONTINUOUS
 62
     6
  5
416
 10
50517.816857
 20
14960.393691
 30
0.0
 11
50504.816737
 21
14960.393691
 31
0.0
  0
LINE
  8
5
  6
CONTINUOUS
 62
     6
  5
417
 10
50373.911697
 20
14954.092851
 30
0.0
 11
50378.454697
 21
14961.111191
 31
0.0
  0
LINE
  8
5
  6
CONTINUOUS
 62
     6
  5
418
 10
50368.760677
 20
14946.137491
 30
0.0
 11
50373.911697
 21
14954.092851
 31
0.0
  0
LINE
  8
5
  6
CONTINUOUS
 62
     6
  5
419
 10
50395.872797
 20
14950.889931
 30
0.0
 11
50373.911697
 21
14954.092851
 31
0.0
  0
LINE
  8
5
  6
CONTINUOUS
 62
     6
  5
41A
 10
50398.214717
 20
14958.247701
 30
0.0
 11
50378.454697
 21
14961.111191
 31
0.0
  0
LINE
  8
5
  6
CONTINUOUS
 62
     6
  5
41B
 10
50555.303817
 20
14960.893281
 30
0.0
 11
50554.316817
 21
14960.893281
 31
0.0
  0
LINE
  8
5
  6
CONTINUOUS
 62
     6
  5
41C
 10
50517.816857
 20
14960.393691
 30
0.0
 11
50517.816857
 21
14951.893451
 31
0.0
  0
LINE
  8
5
  6
CONTINUOUS
 62
     6
  5
41D
 10
50504.816737
 20
14960.393691
 30
0.0
 11
50504.816737
 21
14949.469141
 31
0.0
  0
LINE
  8
5
  6
CONTINUOUS
 62
     6
  5
41E
 10
50501.316737
 20
14961.393571
 30
0.0
 11
50501.316737
 21
14962.417321
 31
0.0
  0
LINE
  8
5
  6
CONTINUOUS
 62
     6
  5
41F
 10
50520.317817
 20
14960.393691
 30
0.0
 11
50517.816857
 21
14960.393691
 31
0.0
  0
LINE
  8
5
  6
CONTINUOUS
 62
     6
  5
420
 10
50521.316857
 20
14961.393571
 30
0.0
 11
50521.316857
 21
14962.067391
 31
0.0
  0
LINE
  8
5
  6
CONTINUOUS
 62
     6
  5
421
 10
50398.214717
 20
14958.247701
 30
0.0
 11
50414.476697
 21
14955.954641
 31
0.0
  0
LINE
  8
5
  6
CONTINUOUS
 62
     6
  5
422
 10
50414.873737
 20
14948.138371
 30
0.0
 11
50395.872797
 21
14950.889931
 31
0.0
  0
LINE
  8
5
  6
CONTINUOUS
 62
     6
  5
423
 10
50500.838777
 20
14962.916771
 30
0.0
 11
50521.316857
 21
14962.067391
 31
0.0
  0
LINE
  8
5
  6
CONTINUOUS
 62
     6
  5
424
 10
50521.316857
 20
14962.067391
 30
0.0
 11
50553.583777
 21
14960.905531
 31
0.0
  0
ARC
  8
5
  6
CONTINUOUS
 62
     6
  5
425
 10
50498.508757
 20
14949.469141
 30
0.0
 40
6.30882
 50
302.94621
 51
0.0
  0
ARC
  8
5
  6
CONTINUOUS
 62
     6
  5
426
 10
50710.140737
 20
19758.351261
 30
0.0
 40
4799.99996
 50
266.36039
 51
267.50083
  0
ARC
  8
5
  6
CONTINUOUS
 62
     6
  5
427
 10
50505.853857
 20
14938.133341
 30
0.0
 40
7.19894
 50
122.946208
 51
172.64929
  0
ARC
  8
5
  6
CONTINUOUS
 62
     6
  5
428
 10
50504.779777
 20
14937.527071
 30
0.0
 40
6.13172
 50
176.571878
 51
246.54925
  0
ARC
  8
5
  6
CONTINUOUS
 62
     6
  5
429
 10
50554.316817
 20
14983.393311
 30
0.0
 40
22.5001
 50
268.13088
 51
270.0
  0
ARC
  8
5
  6
CONTINUOUS
 62
     6
  5
42A
 10
50504.779777
 20
14937.527071
 30
0.0
 40
6.13172
 50
246.54925
 51
301.160618
  0
ARC
  8
5
  6
CONTINUOUS
 62
     6
  5
42B
 10
50496.754837
 20
14950.198751
 30
0.0
 40
21.12964
 50
302.001438
 51
4.600951
  0
ARC
  8
5
  6
CONTINUOUS
 62
     6
  5
42C
 10
50505.853857
 20
14938.133341
 30
0.0
 40
7.19894
 50
172.64929
 51
181.91317
  0
ARC
  8
5
  6
CONTINUOUS
 62
     6
  5
42D
 10
50405.454677
 20
14883.133361
 30
0.0
 40
73.3775
 50
62.491363
 51
82.937911
  0
ARC
  8
5
  6
CONTINUOUS
 62
     6
  5
42E
 10
50405.454677
 20
14883.133361
 30
0.0
 40
65.68352
 50
60.993988
 51
81.755752
  0
ARC
  8
5
  6
CONTINUOUS
 62
     6
  5
42F
 10
50484.394797
 20
15043.206771
 30
0.0
 40
105.1323
 50
244.62867
 51
277.828468
  0
ARC
  8
5
  6
CONTINUOUS
 62
     6
  5
430
 10
50484.312757
 20
15044.844631
 30
0.0
 40
114.37286
 50
245.73258
 51
279.068859
  0
ARC
  8
5
  6
CONTINUOUS
 62
     6
  5
431
 10
50500.816797
 20
14962.417321
 30
0.0
 40
0.50008
 50
0.0
 51
87.500838
  0
ARC
  8
5
  6
CONTINUOUS
 62
     6
  5
432
 10
50520.317817
 20
14961.393571
 30
0.0
 40
1.00002
 50
270.0
 51
0.0
  0
ARC
  8
5
  6
CONTINUOUS
 62
     6
  5
433
 10
50502.317737
 20
14961.393571
 30
0.0
 40
1.00002
 50
180.0
 51
270.0
  0
LINE
  8
5
  6
CONTINUOUS
 62
     6
  5
434
 10
50378.454697
 20
14961.111191
 30
0.0
 11
50386.448697
 21
14973.459961
 31
0.0
  0
LINE
  8
5
  6
CONTINUOUS
 62
     6
  5
435
 10
50481.817817
 20
15283.893301
 30
0.0
 11
50479.817777
 21
15283.893301
 31
0.0
  0
LINE
  8
5
  6
CONTINUOUS
 62
     6
  5
436
 10
50481.817817
 20
15053.893531
 30
0.0
 11
50479.817777
 21
15053.893531
 31
0.0
  0
LINE
  8
5
  6
CONTINUOUS
 62
     6
  5
437
 10
50481.817817
 20
15030.893141
 30
0.0
 11
50481.817817
 21
15053.893531
 31
0.0
  0
LINE
  8
5
  6
CONTINUOUS
 62
     6
  5
438
 10
50431.573777
 20
15029.893121
 30
0.0
 11
50480.816817
 21
15029.893121
 31
0.0
  0
LINE
  8
5
  6
CONTINUOUS
 62
     6
  5
439
 10
50393.304777
 20
14973.665621
 30
0.0
 11
50395.223757
 21
14976.704041
 31
0.0
  0
LINE
  8
5
  6
CONTINUOUS
 62
     6
  5
43A
 10
50481.817817
 20
15306.893831
 30
0.0
 11
50481.817817
 21
15283.893301
 31
0.0
  0
LINE
  8
5
  6
CONTINUOUS
 62
     6
  5
43B
 10
50479.817777
 20
15053.893531
 30
0.0
 11
50479.817777
 21
15283.893301
 31
0.0
  0
LINE
  8
5
  6
CONTINUOUS
 62
     6
  5
43C
 10
50395.223757
 20
14976.704041
 30
0.0
 11
50397.571697
 21
14980.423071
 31
0.0
  0
LINE
  8
5
  6
CONTINUOUS
 62
     6
  5
43D
 10
50397.571697
 20
14980.423071
 30
0.0
 11
50427.345777
 21
15027.563171
 31
0.0
  0
LINE
  8
5
  6
CONTINUOUS
 62
     6
  5
43E
 10
50577.803777
 20
14991.454371
 30
0.0
 11
50577.803777
 21
14983.393311
 31
0.0
  0
LINE
  8
5
  6
CONTINUOUS
 62
     6
  5
43F
 10
50576.816777
 20
14992.893571
 30
0.0
 11
50577.803777
 21
14991.454371
 31
0.0
  0
LINE
  8
5
  6
CONTINUOUS
 62
     6
  5
440
 10
50426.978697
 20
15017.636051
 30
0.0
 11
50400.784697
 21
14977.287561
 31
0.0
  0
LINE
  8
5
  6
CONTINUOUS
 62
     6
  5
441
 10
50407.680677
 20
14996.427241
 30
0.0
 11
50413.785797
 21
14997.314351
 31
0.0
  0
LINE
  8
5
  6
CONTINUOUS
 62
     6
  5
442
 10
50431.573777
 20
15029.893121
 30
0.0
 11
50431.538777
 21
15029.893121
 31
0.0
  0
LINE
  8
5
  6
CONTINUOUS
 62
     6
  5
443
 10
50386.448697
 20
14973.459961
 30
0.0
 11
50391.906737
 21
14972.971921
 31
0.0
  0
ARC
  8
5
  6
CONTINUOUS
 62
     6
  5
444
 10
50401.816777
 20
15033.971741
 30
0.0
 40
30.00004
 50
327.0075
 51
352.18695
  0
ARC
  8
5
  6
CONTINUOUS
 62
     6
  5
445
 10
50405.816717
 20
14974.020731
 30
0.0
 40
5.99998
 50
147.0075
 51
266.36039
  0
ARC
  8
5
  6
CONTINUOUS
 62
     6
  5
446
 10
50431.573777
 20
15024.893161
 30
0.0
 40
5.0001
 50
90.393463
 51
147.724339
  0
ARC
  8
5
  6
CONTINUOUS
 62
     6
  5
447
 10
50480.816817
 20
15030.893141
 30
0.0
 40
1.00002
 50
270.0
 51
0.0
  0
ARC
  8
5
  6
CONTINUOUS
 62
     6
  5
448
 10
50392.035677
 20
14974.466141
 30
0.0
 40
1.5001
 50
265.04942
 51
327.72434
  0
ARC
  8
5
  6
CONTINUOUS
 62
     6
  5
449
 10
50555.303817
 20
14983.393311
 30
0.0
 40
22.5001
 50
270.0
 51
0.0
  0
ARC
  8
5
  6
CONTINUOUS
 62
     6
  5
44A
 10
50431.573777
 20
15024.893161
 30
0.0
 40
5.0001
 50
90.0
 51
147.724339
  0
LINE
  8
5
  6
CONTINUOUS
 62
     6
  5
44B
 10
50590.197837
 20
15311.499971
 30
0.0
 11
50576.816777
 21
15313.926101
 31
0.0
  0
LINE
  8
5
  6
CONTINUOUS
 62
     6
  5
44C
 10
50576.816777
 20
15023.867801
 30
0.0
 11
50590.197837
 21
15026.293021
 31
0.0
  0
ARC
  8
5
  6
CONTINUOUS
 62
     6
  5
44D
 10
50750.817737
 20
15168.892541
 30
0.0
 40
34.00026
 50
125.950418
 51
234.04956
  0
ARC
  8
5
  6
CONTINUOUS
 62
     6
  5
44E
 10
50279.817697
 20
15168.893451
 30
0.0
 40
499.9988
 50
351.66778
 51
8.332061
  0
ARC
  8
5
  6
CONTINUOUS
 62
     6
  5
44F
 10
50754.749777
 20
15238.451331
 30
0.0
 40
20.00068
 50
305.95028
 51
8.328612
  0
ARC
  8
5
  6
CONTINUOUS
 62
     6
  5
450
 10
50754.749777
 20
15099.334661
 30
0.0
 40
19.999
 50
351.670949
 51
54.052017
  0
LINE
  8
5
  6
CONTINUOUS
 62
     6
  5
451
 10
50730.856817
 20
15196.416191
 30
0.0
 11
50766.491857
 21
15222.260961
 31
0.0
  0
LINE
  8
5
  6
CONTINUOUS
 62
     6
  5
452
 10
50766.489757
 20
15115.525031
 30
0.0
 11
50730.856817
 21
15141.368051
 31
0.0
  0
LINE
  8
5
  6
CONTINUOUS
 62
     6
  5
453
 10
50814.816777
 20
15346.392381
 30
0.0
 11
50814.816777
 21
14991.393681
 31
0.0
  0
ARC
  8
5
  6
CONTINUOUS
 62
     6
  5
454
 10
50736.766357
 20
15293.392301
 30
0.0
 40
39.99828
 50
20.733077
 51
90.001419
  0
ARC
  8
5
  6
CONTINUOUS
 62
     6
  5
455
 10
50736.496157
 20
15044.392711
 30
0.0
 40
39.99898
 50
270.0
 51
339.26875
  0
LINE
  8
5
  6
CONTINUOUS
 62
     6
  5
456
 10
50814.816777
 20
15346.392381
 30
0.0
 11
50615.563457
 21
15346.392381
 31
0.0
  0
ARC
  8
5
  6
CONTINUOUS
 62
     6
  5
457
 10
50615.565417
 20
15321.392861
 30
0.0
 40
25.00008
 50
90.002288
 51
176.06182
  0
ARC
  8
5
  6
CONTINUOUS
 62
     6
  5
458
 10
50615.565417
 20
15321.392861
 30
0.0
 40
12.0001
 50
90.0
 51
176.057912
  0
LINE
  8
5
  6
CONTINUOUS
 62
     6
  5
459
 10
50736.766357
 20
15333.392541
 30
0.0
 11
50615.565417
 21
15333.392541
 31
0.0
  0
ARC
  8
5
  6
CONTINUOUS
 62
     6
  5
45A
 10
50615.743777
 20
15016.392291
 30
0.0
 40
24.99994
 50
183.93588
 51
269.99769
  0
LINE
  8
5
  6
CONTINUOUS
 62
     6
  5
45B
 10
50814.816777
 20
14991.393681
 30
0.0
 11
50615.741817
 21
14991.393681
 31
0.0
  0
ARC
  8
5
  6
CONTINUOUS
 62
     6
  5
45C
 10
50615.743777
 20
15016.392291
 30
0.0
 40
12.00038
 50
183.9373
 51
270.0
  0
LINE
  8
5
  6
CONTINUOUS
 62
     6
  5
45D
 10
50736.496157
 20
15004.393451
 30
0.0
 11
50615.743777
 21
15004.393451
 31
0.0
  0
ARC
  8
5
  6
CONTINUOUS
 62
     6
  5
45E
 10
53596.799757
 20
15168.892541
 30
0.0
 40
2996.98378
 50
177.067616
 51
182.932534
  0
ARC
  8
5
  6
CONTINUOUS
 62
     6
  5
45F
 10
53596.799757
 20
15168.892541
 30
0.0
 40
3009.98348
 50
177.063293
 51
182.936859
  0
ARC
  8
5
  6
CONTINUOUS
 62
     6
  5
460
 10
50251.815737
 20
15168.893451
 30
0.0
 40
539.99862
 50
345.126393
 51
14.866182
  0
LINE
  8
8
  6
CONTINUOUS
 62
     6
  5
461
 10
50814.816777
 20
15346.393011
 30
0.0
 11
50615.563457
 21
15346.393011
 31
0.0
  0
LINE
  8
8
  6
CONTINUOUS
 62
     6
  5
462
 10
50814.816777
 20
14991.393121
 30
0.0
 11
50615.741817
 21
14991.393121
 31
0.0
  0
LINE
  8
5
  6
CONTINUOUS
 62
     6
  5
463
 10
50576.816777
 20
15409.643681
 30
0.0
 11
50576.816777
 21
15397.393681
 31
0.0
  0
LINE
  8
5
  6
CONTINUOUS
 62
     6
  5
464
 10
50576.816777
 20
15397.393681
 30
0.0
 11
50576.816777
 21
15367.393291
 31
0.0
  0
LINE
  8
5
  6
CONTINUOUS
 62
     6
  5
465
 10
50575.180737
 20
15401.893141
 30
0.0
 11
50575.180737
 21
15417.311061
 31
0.0
  0
ARC
  8
5
  6
CONTINUOUS
 62
     6
  5
466
 10
50574.179737
 20
15401.893141
 30
0.0
 40
1.00002
 50
270.0
 51
0.0
  0
LINE
  8
5
  6
CONTINUOUS
 62
     6
  5
467
 10
50810.505757
 20
14074.168071
 30
0.0
 11
50810.505757
 21
14461.297821
 31
0.0
  0
LINE
  8
5
  6
CONTINUOUS
 62
     6
  5
468
 10
50655.625577
 20
14313.017731
 30
0.0
 11
50642.091217
 21
14318.764101
 31
0.0
  0
LINE
  8
5
  6
CONTINUOUS
 62
     6
  5
469
 10
50655.625577
 20
14222.448161
 30
0.0
 11
50642.091217
 21
14216.701721
 31
0.0
  0
LINE
  8
5
  6
CONTINUOUS
 62
     6
  5
46A
 10
50655.625577
 20
14214.941781
 30
0.0
 11
50655.625577
 21
14320.260071
 31
0.0
  0
LINE
  8
5
  6
CONTINUOUS
 62
     6
  5
46B
 10
50814.025637
 20
14074.141821
 30
0.0
 11
50814.025637
 21
14461.324141
 31
0.0
  0
ARC
  8
5
  6
CONTINUOUS
 62
     6
  5
46C
 10
50625.424077
 20
14364.365741
 30
0.0
 40
91.42322
 50
245.52
 51
289.279999
  0
ARC
  8
5
  6
CONTINUOUS
 62
     6
  5
46D
 10
50625.362477
 20
14172.631331
 30
0.0
 40
89.9976
 50
70.34
 51
114.84
  0
ARC
  8
5
  6
CONTINUOUS
 62
     6
  5
46E
 10
50668.658457
 20
14086.347301
 30
0.0
 40
3.5112
 50
172.12
 51
263.609998
  0
ARC
  8
5
  6
CONTINUOUS
 62
     6
  5
46F
 10
50668.658457
 20
14449.118521
 30
0.0
 40
3.5112
 50
96.39
 51
187.9
  0
ARC
  8
5
  6
CONTINUOUS
 62
     6
  5
470
 10
50682.025657
 20
14236.941801
 30
0.0
 40
167.19122
 50
106.72
 51
134.98
  0
ARC
  8
5
  6
CONTINUOUS
 62
     6
  5
471
 10
50712.825657
 20
14128.868941
 30
0.0
 40
263.99128
 50
105.76
 51
137.94
  0
ARC
  8
5
  6
CONTINUOUS
 62
     6
  5
472
 10
50682.025657
 20
14298.532981
 30
0.0
 40
167.20004
 50
225.01
 51
253.27
  0
ARC
  8
5
  6
CONTINUOUS
 62
     6
  5
473
 10
50712.825657
 20
14406.597021
 30
0.0
 40
264.0001
 50
222.05
 51
254.229998
  0
ARC
  8
5
  6
CONTINUOUS
 62
     6
  5
474
 10
50620.425657
 20
14267.732981
 30
0.0
 40
55.44
 50
66.989998
 51
293.0
  0
LINE
  8
5
  6
CONTINUOUS
 62
     6
  5
475
 10
50563.841577
 20
14355.196091
 30
0.0
 11
50496.512777
 21
14282.657821
 31
0.0
  0
LINE
  8
5
  6
CONTINUOUS
 62
     6
  5
476
 10
50496.512777
 20
14252.808141
 30
0.0
 11
50563.841577
 21
14180.269731
 31
0.0
  0
ARC
  8
5
  6
CONTINUOUS
 62
     6
  5
477
 10
50513.857657
 20
14267.732981
 30
0.0
 40
22.88006
 50
139.28
 51
220.72
  0
ARC
  8
5
  6
CONTINUOUS
 62
     6
  5
478
 10
50622.185597
 20
14431.896911
 30
0.0
 40
10.56006
 50
109.97
 51
220.74
  0
ARC
  8
5
  6
CONTINUOUS
 62
     6
  5
479
 10
50480.892837
 20
14310.096071
 30
0.0
 40
176.00002
 50
13.72
 51
40.759999
  0
ARC
  8
5
  6
CONTINUOUS
 62
     6
  5
47A
 10
50660.914497
 20
14447.340871
 30
0.0
 40
4.39124
 50
7.81
 51
96.7
  0
ARC
  8
5
  6
CONTINUOUS
 62
     6
  5
47B
 10
50480.892837
 20
14225.378431
 30
0.0
 40
175.9912
 50
319.23
 51
346.27
  0
ARC
  8
5
  6
CONTINUOUS
 62
     6
  5
47C
 10
50523.634417
 20
14214.941781
 30
0.0
 40
131.99998
 50
346.27
 51
0.0
  0
ARC
  8
5
  6
CONTINUOUS
 62
     6
  5
47D
 10
50660.914497
 20
14088.124951
 30
0.0
 40
4.40006
 50
263.37
 51
352.16
  0
LINE
  8
5
  6
CONTINUOUS
 62
     6
  5
47E
 10
50660.078417
 20
14083.786561
 30
0.0
 11
50814.025637
 21
14074.141821
 31
0.0
  0
ARC
  8
5
  6
CONTINUOUS
 62
     6
  5
47F
 10
50622.185597
 20
14103.568981
 30
0.0
 40
10.56006
 50
139.23
 51
250.02
  0
ARC
  8
5
  6
CONTINUOUS
 62
     6
  5
480
 10
50681.726477
 20
14267.319421
 30
0.0
 40
184.8
 50
227.46
 51
263.27
  0
LINE
  8
5
  6
CONTINUOUS
 62
     6
  5
481
 10
50814.034457
 20
14461.324141
 30
0.0
 11
50660.078417
 21
14451.679401
 31
0.0
  0
ARC
  8
5
  6
CONTINUOUS
 62
     6
  5
482
 10
50681.726477
 20
14268.146471
 30
0.0
 40
184.79118
 50
96.72
 51
132.53
  0
LINE
  8
5
  6
CONTINUOUS
 62
     6
  5
483
 10
50665.270457
 20
14087.526451
 30
0.0
 11
50665.270457
 21
14447.939231
 31
0.0
  0
ARC
  8
5
  6
CONTINUOUS
 62
     6
  5
484
 10
50523.634417
 20
14320.532931
 30
0.0
 40
131.99998
 50
0.0
 51
13.72
  0
LINE
  8
5
  6
CONTINUOUS
 62
     6
  5
485
 10
50506.826437
 20
14189.923361
 30
0.0
 11
50583.500797
 21
14123.404111
 31
0.0
  0
LINE
  8
5
  6
CONTINUOUS
 62
     6
  5
486
 10
50583.500797
 20
14412.061781
 30
0.0
 11
50506.826437
 21
14345.542601
 31
0.0
  0
ARC
  8
5
  6
CONTINUOUS
 62
     6
  5
487
 10
50681.726477
 20
14267.319421
 30
0.0
 40
174.23126
 50
235.68
 51
246.539998
  0
ARC
  8
5
  6
CONTINUOUS
 62
     6
  5
488
 10
50681.726477
 20
14268.146471
 30
0.0
 40
174.23126
 50
113.45
 51
124.31
  0
LINE
  8
5
  6
CONTINUOUS
 62
     6
  5
489
 10
50506.826437
 20
14345.542601
 30
0.0
 11
50456.534377
 21
14285.324121
 31
0.0
  0
LINE
  8
5
  6
CONTINUOUS
 62
     6
  5
48A
 10
50456.534377
 20
14250.141701
 30
0.0
 11
50506.826437
 21
14189.923361
 31
0.0
  0
LINE
  8
2
  6
CONTINUOUS
 62
     5
  5
48B
 10
49085.816777
 20
12929.893261
 30
0.0
 11
49095.816837
 21
12929.893261
 31
0.0
  0
LINE
  8
4
  6
CONTINUOUS
 62
     6
  5
48C
 10
49670.304177
 20
12532.903311
 30
0.0
 11
49701.079537
 21
12563.678811
 31
0.0
  0
LINE
  8
4
  6
CONTINUOUS
 62
     6
  5
48D
 10
49701.079537
 20
12563.678811
 30
0.0
 11
49683.401877
 21
12581.356541
 31
0.0
  0
LINE
  8
4
  6
CONTINUOUS
 62
     2
  5
48E
 10
50302.065517
 20
12501.644531
 30
0.0
 11
49952.316817
 21
12151.895691
 31
0.0
  0
LINE
  8
4
  6
CONTINUOUS
 62
     2
  5
48F
 10
49602.568117
 20
12501.644531
 30
0.0
 11
49952.316817
 21
12151.895691
 31
0.0
  0
LINE
  8
4
  6
CONTINUOUS
 62
     2
  5
490
 10
50252.568097
 20
12551.141951
 30
0.0
 11
49952.316817
 21
12250.890531
 31
0.0
  0
LINE
  8
4
  6
CONTINUOUS
 62
     2
  5
491
 10
49652.065537
 20
12551.141951
 30
0.0
 11
49952.316817
 21
12250.890531
 31
0.0
  0
LINE
  8
4
  6
CONTINUOUS
 62
     6
  5
492
 10
50203.553957
 20
12563.678811
 30
0.0
 11
50221.231617
 21
12581.356541
 31
0.0
  0
LINE
  8
4
  6
CONTINUOUS
 62
     6
  5
493
 10
49670.304177
 20
12532.903311
 30
0.0
 11
49701.079537
 21
12563.678811
 31
0.0
  0
LINE
  8
4
  6
CONTINUOUS
 62
     6
  5
494
 10
49701.079537
 20
12563.678811
 30
0.0
 11
49683.401877
 21
12581.356541
 31
0.0
  0
LINE
  8
12
  6
CONTINUOUS
 62
     6
  5
495
 10
50343.910677
 20
12669.217111
 30
0.0
 11
50343.910677
 21
12688.393261
 31
0.0
  0
LINE
  8
12
  6
CONTINUOUS
 62
     6
  5
496
 10
49560.722817
 20
12670.138521
 30
0.0
 11
49560.722817
 21
12688.393261
 31
0.0
  0
LINE
  8
5
  6
CONTINUOUS
 62
     6
  5
497
 10
50314.816717
 20
12719.893401
 30
0.0
 11
50914.816817
 21
12719.893401
 31
0.0
  0
LINE
  8
3
  6
CONTINUOUS
 62
     5
  5
498
 10
50907.316807
 20
15643.393421
 30
0.0
 11
50907.316807
 21
13688.303851
 31
0.0
  0
LINE
  8
150
  6
CONTINUOUS
 62
     6
  5
499
 10
50907.316807
 20
14730.393291
 30
0.0
 11
50806.816757
 21
14730.393291
 31
0.0
  0
LINE
  8
40
  6
CONTINUOUS
 62
     4
  5
49A
 10
50171.627727
 20
15585.928741
 30
0.0
 11
49693.316747
 21
15585.928741
 31
0.0
  0
LINE
  8
40
  6
CONTINUOUS
 62
     4
  5
49B
 10
49691.855847
 20
15615.928851
 30
0.0
 11
49722.678387
 21
15615.928851
 31
0.0
  0
LINE
  8
40
  6
CONTINUOUS
 62
     4
  5
49C
 10
49721.316747
 20
15585.928881
 30
0.0
 11
49693.316747
 21
15585.928881
 31
0.0
  0
LINE
  8
40
  6
CONTINUOUS
 62
     4
  5
49D
 10
49728.921827
 20
15617.928821
 30
0.0
 11
49685.640827
 21
15617.928821
 31
0.0
  0
LINE
  8
40
  6
CONTINUOUS
 62
     4
  5
49E
 10
49752.316667
 20
15635.928971
 30
0.0
 11
49752.316667
 21
15625.442061
 31
0.0
  0
LINE
  8
40
  6
CONTINUOUS
 62
     4
  5
49F
 10
49662.316687
 20
15635.928971
 30
0.0
 11
49662.316687
 21
15625.413431
 31
0.0
  0
LINE
  8
40
  6
CONTINUOUS
 62
     4
  5
4A0
 10
49663.062747
 20
15623.928871
 30
0.0
 11
49751.527207
 21
15623.928871
 31
0.0
  0
LINE
  8
8
  6
CONTINUOUS
 62
     3
  5
4A1
 10
49690.316267
 20
15616.722371
 30
0.0
 11
49663.820707
 21
15623.559761
 31
0.0
  0
LINE
  8
8
  6
CONTINUOUS
 62
     3
  5
4A2
 10
49724.128507
 20
15616.691921
 30
0.0
 11
49750.859547
 21
15623.590141
 31
0.0
  0
ARC
  8
40
  6
CONTINUOUS
 62
     4
  5
4A3
 10
49750.316767
 20
15625.544751
 30
0.0
 40
2.00004
 50
284.470295
 51
0.0
  0
ARC
  8
40
  6
CONTINUOUS
 62
     4
  5
4A4
 10
49664.318407
 20
15625.501561
 30
0.0
 40
2.00004
 50
180.0
 51
255.930352
  0
LINE
  8
12
  6
CONTINUOUS
 62
     6
  5
4A5
 10
49683.929747
 20
15630.929011
 30
0.0
 11
49662.316687
 21
15630.929011
 31
0.0
  0
LINE
  8
12
  6
CONTINUOUS
 62
     6
  5
4A6
 10
49749.816687
 20
15623.321131
 30
0.0
 11
49749.816687
 21
15630.929011
 31
0.0
  0
ARC
  8
8
  6
CONTINUOUS
 62
     3
  5
4A7
 10
49725.284487
 20
15612.893021
 30
0.0
 40
4.00008
 50
104.470294
 51
180.0
  0
LINE
  8
12
  6
CONTINUOUS
 62
     6
  5
4A8
 10
49728.967327
 20
15617.940651
 30
0.0
 11
49728.967327
 21
15617.911251
 31
0.0
  0
LINE
  8
12
  6
CONTINUOUS
 62
     6
  5
4A9
 10
49730.685267
 20
15618.384031
 30
0.0
 11
49730.685267
 21
15630.929011
 31
0.0
  0
LINE
  8
12
  6
CONTINUOUS
 62
     6
  5
4AA
 10
49728.973487
 20
15618.036271
 30
0.0
 11
49730.598187
 21
15631.034291
 31
0.0
  0
LINE
  8
12
  6
CONTINUOUS
 62
     6
  5
4AB
 10
49685.647547
 20
15617.835371
 30
0.0
 11
49685.647547
 21
15617.805901
 31
0.0
  0
LINE
  8
12
  6
CONTINUOUS
 62
     6
  5
4AC
 10
49683.929747
 20
15618.278681
 30
0.0
 11
49683.929747
 21
15630.823731
 31
0.0
  0
LINE
  8
12
  6
CONTINUOUS
 62
     6
  5
4AD
 10
49685.641387
 20
15617.930991
 30
0.0
 11
49684.016687
 21
15630.929011
 31
0.0
  0
LINE
  8
12
  6
CONTINUOUS
 62
     6
  5
4AE
 10
49730.585027
 20
15630.929011
 30
0.0
 11
49749.816687
 21
15630.929011
 31
0.0
  0
LINE
  8
12
  6
CONTINUOUS
 62
     6
  5
4AF
 10
49730.585027
 20
15629.928991
 30
0.0
 11
49749.816687
 21
15629.928991
 31
0.0
  0
LINE
  8
12
  6
CONTINUOUS
 62
     6
  5
4B0
 10
49683.929747
 20
15629.928991
 30
0.0
 11
49662.316687
 21
15629.928991
 31
0.0
  0
LINE
  8
12
  6
CONTINUOUS
 62
     6
  5
4B1
 10
49733.377607
 20
15629.928991
 30
0.0
 11
49741.877567
 21
15629.928991
 31
0.0
  0
LINE
  8
12
  6
CONTINUOUS
 62
     6
  5
4B2
 10
49741.877567
 20
15629.928991
 30
0.0
 11
49741.877567
 21
15626.928861
 31
0.0
  0
LINE
  8
12
  6
CONTINUOUS
 62
     6
  5
4B3
 10
49733.377607
 20
15629.928991
 30
0.0
 11
49733.377607
 21
15626.928861
 31
0.0
  0
LINE
  8
12
  6
CONTINUOUS
 62
     6
  5
4B4
 10
49733.377607
 20
15626.928861
 30
0.0
 11
49733.377607
 21
15629.928991
 31
0.0
  0
LINE
  8
12
  6
CONTINUOUS
 62
     6
  5
4B5
 10
49741.877567
 20
15626.928861
 30
0.0
 11
49741.877567
 21
15629.928991
 31
0.0
  0
LINE
  8
1
  6
CONTINUOUS
 62
     4
  5
4B6
 10
49739.627627
 20
15643.115031
 30
0.0
 11
49735.627547
 21
15643.809921
 31
0.0
  0
LINE
  8
1
  6
CONTINUOUS
 62
     4
  5
4B7
 10
49739.627627
 20
15646.151211
 30
0.0
 11
49735.627547
 21
15646.860451
 31
0.0
  0
LINE
  8
1
  6
CONTINUOUS
 62
     4
  5
4B8
 10
49739.627627
 20
15649.204331
 30
0.0
 11
49735.627547
 21
15649.913571
 31
0.0
  0
LINE
  8
1
  6
CONTINUOUS
 62
     4
  5
4B9
 10
49739.627627
 20
15652.257451
 30
0.0
 11
49735.627547
 21
15652.966691
 31
0.0
  0
LINE
  8
1
  6
CONTINUOUS
 62
     4
  5
4BA
 10
49739.627627
 20
15655.307911
 30
0.0
 11
49735.627547
 21
15656.003011
 31
0.0
  0
LINE
  8
1
  6
CONTINUOUS
 62
     4
  5
4BB
 10
49739.627627
 20
15658.344161
 30
0.0
 11
49735.627547
 21
15659.053261
 31
0.0
  0
LINE
  8
1
  6
CONTINUOUS
 62
     4
  5
4BC
 10
49736.022767
 20
15642.219731
 30
0.0
 11
49739.232407
 21
15641.652101
 31
0.0
  0
LINE
  8
1
  6
CONTINUOUS
 62
     4
  5
4BD
 10
49736.022767
 20
15645.253181
 30
0.0
 11
49739.232407
 21
15644.685621
 31
0.0
  0
LINE
  8
1
  6
CONTINUOUS
 62
     4
  5
4BE
 10
49736.022767
 20
15648.306301
 30
0.0
 11
49739.232407
 21
15647.738741
 31
0.0
  0
LINE
  8
1
  6
CONTINUOUS
 62
     4
  5
4BF
 10
49736.022767
 20
15651.359421
 30
0.0
 11
49739.232407
 21
15650.791861
 31
0.0
  0
LINE
  8
1
  6
CONTINUOUS
 62
     4
  5
4C0
 10
49736.022767
 20
15654.412541
 30
0.0
 11
49739.232407
 21
15653.845051
 31
0.0
  0
LINE
  8
1
  6
CONTINUOUS
 62
     4
  5
4C1
 10
49736.022767
 20
15657.446271
 30
0.0
 11
49739.232407
 21
15656.878711
 31
0.0
  0
LINE
  8
1
  6
CONTINUOUS
 62
     4
  5
4C2
 10
49736.022767
 20
15660.499391
 30
0.0
 11
49739.232407
 21
15659.931761
 31
0.0
  0
LINE
  8
1
  6
CONTINUOUS
 62
     4
  5
4C3
 10
49739.627627
 20
15640.063521
 30
0.0
 11
49735.627547
 21
15640.767721
 31
0.0
  0
LINE
  8
1
  6
CONTINUOUS
 62
     4
  5
4C4
 10
49737.627587
 20
15629.928991
 30
0.0
 11
49741.877567
 21
15629.928991
 31
0.0
  0
LINE
  8
1
  6
CONTINUOUS
 62
     4
  5
4C5
 10
49739.627627
 20
15634.016991
 30
0.0
 11
49735.627547
 21
15634.726231
 31
0.0
  0
LINE
  8
1
  6
CONTINUOUS
 62
     4
  5
4C6
 10
49739.627627
 20
15637.030981
 30
0.0
 11
49735.627547
 21
15637.740221
 31
0.0
  0
LINE
  8
1
  6
CONTINUOUS
 62
     4
  5
4C7
 10
49736.022767
 20
15633.138561
 30
0.0
 11
49739.232407
 21
15632.571001
 31
0.0
  0
LINE
  8
1
  6
CONTINUOUS
 62
     4
  5
4C8
 10
49736.022767
 20
15636.152621
 30
0.0
 11
49739.232407
 21
15635.585061
 31
0.0
  0
LINE
  8
1
  6
CONTINUOUS
 62
     4
  5
4C9
 10
49736.022767
 20
15639.186211
 30
0.0
 11
49739.232407
 21
15638.618651
 31
0.0
  0
LINE
  8
1
  6
CONTINUOUS
 62
     4
  5
4CA
 10
49740.230607
 20
15629.928991
 30
0.0
 11
49739.027587
 21
15631.131941
 31
0.0
  0
LINE
  8
1
  6
CONTINUOUS
 62
     4
  5
4CB
 10
49740.230607
 20
15629.928991
 30
0.0
 11
49741.877567
 21
15629.928991
 31
0.0
  0
LINE
  8
1
  6
CONTINUOUS
 62
     4
  5
4CC
 10
49735.024567
 20
15629.928991
 30
0.0
 11
49736.227587
 21
15631.131941
 31
0.0
  0
LINE
  8
1
  6
CONTINUOUS
 62
     4
  5
4CD
 10
49735.024567
 20
15629.928991
 30
0.0
 11
49733.377607
 21
15629.928991
 31
0.0
  0
LINE
  8
1
  6
CONTINUOUS
 62
     4
  5
4CE
 10
49736.022767
 20
15631.612001
 30
0.0
 11
49739.232407
 21
15631.044511
 31
0.0
  0
LINE
  8
12
  6
CONTINUOUS
 62
     6
  5
4CF
 10
49741.877567
 20
15626.928861
 30
0.0
 11
49733.377607
 21
15626.928861
 31
0.0
  0
ARC
  8
12
  6
CONTINUOUS
 62
     6
  5
4D0
 10
49737.627587
 20
15635.460251
 30
0.0
 40
9.53134
 50
243.51896
 51
296.48104
  0
LINE
  8
1
  6
CONTINUOUS
 62
     4
  5
4D1
 10
49738.234347
 20
15626.437741
 30
0.0
 11
49737.020827
 21
15626.437741
 31
0.0
  0
LINE
  8
1
  6
CONTINUOUS
 62
     4
  5
4D2
 10
49738.234347
 20
15625.928841
 30
0.0
 11
49738.234347
 21
15626.437741
 31
0.0
  0
LINE
  8
1
  6
CONTINUOUS
 62
     4
  5
4D3
 10
49737.020827
 20
15625.928841
 30
0.0
 11
49737.020827
 21
15626.437741
 31
0.0
  0
LINE
  8
1
  6
CONTINUOUS
 62
     4
  5
4D4
 10
49738.234347
 20
15625.928841
 30
0.0
 11
49737.020827
 21
15625.928841
 31
0.0
  0
LINE
  8
12
  6
CONTINUOUS
 62
     6
  5
4D5
 10
49736.227587
 20
15629.928991
 30
0.0
 11
49736.227587
 21
15660.928841
 31
0.0
  0
LINE
  8
12
  6
CONTINUOUS
 62
     6
  5
4D6
 10
49739.027587
 20
15629.928991
 30
0.0
 11
49739.027587
 21
15660.928841
 31
0.0
  0
LINE
  8
1
  6
CONTINUOUS
 62
     4
  5
4D7
 10
49739.627627
 20
15661.397281
 30
0.0
 11
49735.627547
 21
15662.106381
 31
0.0
  0
LINE
  8
1
  6
CONTINUOUS
 62
     4
  5
4D8
 10
49736.236267
 20
15665.051701
 30
0.0
 11
49739.121247
 21
15664.540141
 31
0.0
  0
LINE
  8
1
  6
CONTINUOUS
 62
     4
  5
4D9
 10
49736.022767
 20
15663.552441
 30
0.0
 11
49739.232407
 21
15662.984881
 31
0.0
  0
LINE
  8
1
  6
CONTINUOUS
 62
     4
  5
4DA
 10
49736.529147
 20
15666.515961
 30
0.0
 11
49738.806527
 21
15666.113181
 31
0.0
  0
LINE
  8
12
  6
CONTINUOUS
 62
     6
  5
4DB
 10
49736.227587
 20
15660.928841
 30
0.0
 11
49739.027587
 21
15660.928841
 31
0.0
  0
LINE
  8
12
  6
CONTINUOUS
 62
     6
  5
4DC
 10
49737.627587
 20
15667.928841
 30
0.0
 11
49739.027587
 21
15660.928841
 31
0.0
  0
LINE
  8
12
  6
CONTINUOUS
 62
     6
  5
4DD
 10
49737.627587
 20
15667.928841
 30
0.0
 11
49736.227587
 21
15660.928841
 31
0.0
  0
LINE
  8
12
  6
CENTER
 62
     6
  5
4DE
 10
49737.627587
 20
15626.928861
 30
0.0
 11
49737.627587
 21
15667.928841
 31
0.0
  0
LINE
  8
12
  6
CENTER
 62
     6
  5
4DF
 10
49737.627587
 20
15667.928841
 30
0.0
 11
49737.627587
 21
15628.421961
 31
0.0
  0
LINE
  8
12
  6
CONTINUOUS
 62
     6
  5
4E0
 10
49672.755787
 20
15629.928991
 30
0.0
 11
49681.255887
 21
15629.928991
 31
0.0
  0
LINE
  8
12
  6
CONTINUOUS
 62
     6
  5
4E1
 10
49681.255887
 20
15629.928991
 30
0.0
 11
49681.255887
 21
15626.928861
 31
0.0
  0
LINE
  8
12
  6
CONTINUOUS
 62
     6
  5
4E2
 10
49672.755787
 20
15629.928991
 30
0.0
 11
49672.755787
 21
15626.928861
 31
0.0
  0
LINE
  8
12
  6
CONTINUOUS
 62
     6
  5
4E3
 10
49672.755787
 20
15626.928861
 30
0.0
 11
49672.755787
 21
15629.928991
 31
0.0
  0
LINE
  8
12
  6
CONTINUOUS
 62
     6
  5
4E4
 10
49681.255887
 20
15626.928861
 30
0.0
 11
49681.255887
 21
15629.928991
 31
0.0
  0
LINE
  8
1
  6
CONTINUOUS
 62
     4
  5
4E5
 10
49679.005807
 20
15643.115031
 30
0.0
 11
49675.005867
 21
15643.809921
 31
0.0
  0
LINE
  8
1
  6
CONTINUOUS
 62
     4
  5
4E6
 10
49679.005807
 20
15646.151211
 30
0.0
 11
49675.005867
 21
15646.860451
 31
0.0
  0
LINE
  8
1
  6
CONTINUOUS
 62
     4
  5
4E7
 10
49679.005807
 20
15649.204331
 30
0.0
 11
49675.005867
 21
15649.913571
 31
0.0
  0
LINE
  8
1
  6
CONTINUOUS
 62
     4
  5
4E8
 10
49679.005807
 20
15652.257451
 30
0.0
 11
49675.005867
 21
15652.966691
 31
0.0
  0
LINE
  8
1
  6
CONTINUOUS
 62
     4
  5
4E9
 10
49679.005807
 20
15655.307911
 30
0.0
 11
49675.005867
 21
15656.003011
 31
0.0
  0
LINE
  8
1
  6
CONTINUOUS
 62
     4
  5
4EA
 10
49679.005807
 20
15658.344161
 30
0.0
 11
49675.005867
 21
15659.053261
 31
0.0
  0
LINE
  8
1
  6
CONTINUOUS
 62
     4
  5
4EB
 10
49675.400947
 20
15642.219731
 30
0.0
 11
49678.610727
 21
15641.652101
 31
0.0
  0
LINE
  8
1
  6
CONTINUOUS
 62
     4
  5
4EC
 10
49675.400947
 20
15645.253181
 30
0.0
 11
49678.610727
 21
15644.685621
 31
0.0
  0
LINE
  8
1
  6
CONTINUOUS
 62
     4
  5
4ED
 10
49675.400947
 20
15648.306301
 30
0.0
 11
49678.610727
 21
15647.738741
 31
0.0
  0
LINE
  8
1
  6
CONTINUOUS
 62
     4
  5
4EE
 10
49675.400947
 20
15651.359421
 30
0.0
 11
49678.610727
 21
15650.791861
 31
0.0
  0
LINE
  8
1
  6
CONTINUOUS
 62
     4
  5
4EF
 10
49675.400947
 20
15654.412541
 30
0.0
 11
49678.610727
 21
15653.845051
 31
0.0
  0
LINE
  8
1
  6
CONTINUOUS
 62
     4
  5
4F0
 10
49675.400947
 20
15657.446271
 30
0.0
 11
49678.610727
 21
15656.878711
 31
0.0
  0
LINE
  8
1
  6
CONTINUOUS
 62
     4
  5
4F1
 10
49675.400947
 20
15660.499391
 30
0.0
 11
49678.610727
 21
15659.931761
 31
0.0
  0
LINE
  8
1
  6
CONTINUOUS
 62
     4
  5
4F2
 10
49679.005807
 20
15640.063521
 30
0.0
 11
49675.005867
 21
15640.767721
 31
0.0
  0
LINE
  8
1
  6
CONTINUOUS
 62
     4
  5
4F3
 10
49677.005767
 20
15629.928991
 30
0.0
 11
49681.255887
 21
15629.928991
 31
0.0
  0
LINE
  8
1
  6
CONTINUOUS
 62
     4
  5
4F4
 10
49679.005807
 20
15634.016991
 30
0.0
 11
49675.005867
 21
15634.726231
 31
0.0
  0
LINE
  8
1
  6
CONTINUOUS
 62
     4
  5
4F5
 10
49679.005807
 20
15637.030981
 30
0.0
 11
49675.005867
 21
15637.740221
 31
0.0
  0
LINE
  8
1
  6
CONTINUOUS
 62
     4
  5
4F6
 10
49675.400947
 20
15633.138561
 30
0.0
 11
49678.610727
 21
15632.571001
 31
0.0
  0
LINE
  8
1
  6
CONTINUOUS
 62
     4
  5
4F7
 10
49675.400947
 20
15636.152621
 30
0.0
 11
49678.610727
 21
15635.585061
 31
0.0
  0
LINE
  8
1
  6
CONTINUOUS
 62
     4
  5
4F8
 10
49675.400947
 20
15639.186211
 30
0.0
 11
49678.610727
 21
15638.618651
 31
0.0
  0
LINE
  8
1
  6
CONTINUOUS
 62
     4
  5
4F9
 10
49679.608787
 20
15629.928991
 30
0.0
 11
49678.405767
 21
15631.131941
 31
0.0
  0
LINE
  8
1
  6
CONTINUOUS
 62
     4
  5
4FA
 10
49679.608787
 20
15629.928991
 30
0.0
 11
49681.255887
 21
15629.928991
 31
0.0
  0
LINE
  8
1
  6
CONTINUOUS
 62
     4
  5
4FB
 10
49674.402887
 20
15629.928991
 30
0.0
 11
49675.605767
 21
15631.131941
 31
0.0
  0
LINE
  8
1
  6
CONTINUOUS
 62
     4
  5
4FC
 10
49674.402887
 20
15629.928991
 30
0.0
 11
49672.755787
 21
15629.928991
 31
0.0
  0
LINE
  8
1
  6
CONTINUOUS
 62
     4
  5
4FD
 10
49675.400947
 20
15631.612001
 30
0.0
 11
49678.610727
 21
15631.044511
 31
0.0
  0
LINE
  8
12
  6
CONTINUOUS
 62
     6
  5
4FE
 10
49681.255887
 20
15626.928861
 30
0.0
 11
49672.755787
 21
15626.928861
 31
0.0
  0
ARC
  8
12
  6
CONTINUOUS
 62
     6
  5
4FF
 10
49677.005767
 20
15635.460251
 30
0.0
 40
9.53134
 50
243.51896
 51
296.48104
  0
LINE
  8
1
  6
CONTINUOUS
 62
     4
  5
500
 10
49677.612527
 20
15626.437741
 30
0.0
 11
49676.399147
 21
15626.437741
 31
0.0
  0
LINE
  8
1
  6
CONTINUOUS
 62
     4
  5
501
 10
49677.612527
 20
15625.928841
 30
0.0
 11
49677.612527
 21
15626.437741
 31
0.0
  0
LINE
  8
1
  6
CONTINUOUS
 62
     4
  5
502
 10
49676.399147
 20
15625.928841
 30
0.0
 11
49676.399147
 21
15626.437741
 31
0.0
  0
LINE
  8
1
  6
CONTINUOUS
 62
     4
  5
503
 10
49677.612527
 20
15625.928841
 30
0.0
 11
49676.399147
 21
15625.928841
 31
0.0
  0
LINE
  8
12
  6
CONTINUOUS
 62
     6
  5
504
 10
49675.605767
 20
15629.928991
 30
0.0
 11
49675.605767
 21
15660.928841
 31
0.0
  0
LINE
  8
12
  6
CONTINUOUS
 62
     6
  5
505
 10
49678.405767
 20
15629.928991
 30
0.0
 11
49678.405767
 21
15660.928841
 31
0.0
  0
LINE
  8
1
  6
CONTINUOUS
 62
     4
  5
506
 10
49679.005807
 20
15661.397281
 30
0.0
 11
49675.005867
 21
15662.106381
 31
0.0
  0
LINE
  8
1
  6
CONTINUOUS
 62
     4
  5
507
 10
49675.614587
 20
15665.051701
 30
0.0
 11
49678.499427
 21
15664.540141
 31
0.0
  0
LINE
  8
1
  6
CONTINUOUS
 62
     4
  5
508
 10
49675.400947
 20
15663.552441
 30
0.0
 11
49678.610727
 21
15662.984881
 31
0.0
  0
LINE
  8
1
  6
CONTINUOUS
 62
     4
  5
509
 10
49675.907327
 20
15666.515961
 30
0.0
 11
49678.184847
 21
15666.113181
 31
0.0
  0
LINE
  8
12
  6
CONTINUOUS
 62
     6
  5
50A
 10
49675.605767
 20
15660.928841
 30
0.0
 11
49678.405767
 21
15660.928841
 31
0.0
  0
LINE
  8
12
  6
CONTINUOUS
 62
     6
  5
50B
 10
49677.005767
 20
15667.928841
 30
0.0
 11
49678.405767
 21
15660.928841
 31
0.0
  0
LINE
  8
12
  6
CONTINUOUS
 62
     6
  5
50C
 10
49677.005767
 20
15667.928841
 30
0.0
 11
49675.605767
 21
15660.928841
 31
0.0
  0
LINE
  8
12
  6
CENTER
 62
     6
  5
50D
 10
49677.005767
 20
15626.928861
 30
0.0
 11
49677.005767
 21
15667.928841
 31
0.0
  0
LINE
  8
12
  6
CENTER
 62
     6
  5
50E
 10
49677.005767
 20
15667.928841
 30
0.0
 11
49677.005767
 21
15628.421961
 31
0.0
  0
LINE
  8
40
  6
CONTINUOUS
 62
     4
  5
50F
 10
49662.341747
 20
15635.928971
 30
0.0
 11
49662.341747
 21
15625.413431
 31
0.0
  0
LINE
  8
40
  6
CONTINUOUS
 62
     4
  5
510
 10
49664.841727
 20
15623.296351
 30
0.0
 11
49664.841727
 21
15630.929011
 31
0.0
  0
LINE
  8
12
  6
CONTINUOUS
 62
     6
  5
511
 10
49731.919087
 20
15630.176231
 30
0.0
 11
49743.419107
 21
15630.176231
 31
0.0
  0
LINE
  8
12
  6
CONTINUOUS
 62
     6
  5
512
 10
49731.919087
 20
15630.976121
 30
0.0
 11
49743.419107
 21
15630.976121
 31
0.0
  0
LINE
  8
12
  6
CONTINUOUS
 62
     6
  5
513
 10
49731.919087
 20
15630.176231
 30
0.0
 11
49731.919087
 21
15630.976121
 31
0.0
  0
LINE
  8
12
  6
CONTINUOUS
 62
     6
  5
514
 10
49734.919007
 20
15630.176231
 30
0.0
 11
49734.919007
 21
15630.976121
 31
0.0
  0
LINE
  8
12
  6
CONTINUOUS
 62
     6
  5
515
 10
49740.419047
 20
15630.176231
 30
0.0
 11
49740.419047
 21
15630.976121
 31
0.0
  0
LINE
  8
12
  6
CONTINUOUS
 62
     6
  5
516
 10
49743.419107
 20
15630.176231
 30
0.0
 11
49743.419107
 21
15630.976121
 31
0.0
  0
LINE
  8
50
  6
CENTER
 62
     3
  5
517
 10
49737.669027
 20
15630.176231
 30
0.0
 11
49737.669027
 21
15632.298071
 31
0.0
  0
LINE
  8
12
  6
CONTINUOUS
 62
     6
  5
518
 10
49671.300907
 20
15630.176231
 30
0.0
 11
49682.800927
 21
15630.176231
 31
0.0
  0
LINE
  8
12
  6
CONTINUOUS
 62
     6
  5
519
 10
49671.300907
 20
15630.976121
 30
0.0
 11
49682.800927
 21
15630.976121
 31
0.0
  0
LINE
  8
12
  6
CONTINUOUS
 62
     6
  5
51A
 10
49671.300907
 20
15630.176231
 30
0.0
 11
49671.300907
 21
15630.976121
 31
0.0
  0
LINE
  8
12
  6
CONTINUOUS
 62
     6
  5
51B
 10
49674.300967
 20
15630.176231
 30
0.0
 11
49674.300967
 21
15630.976121
 31
0.0
  0
LINE
  8
12
  6
CONTINUOUS
 62
     6
  5
51C
 10
49679.801007
 20
15630.176231
 30
0.0
 11
49679.801007
 21
15630.976121
 31
0.0
  0
LINE
  8
12
  6
CONTINUOUS
 62
     6
  5
51D
 10
49682.800927
 20
15630.176231
 30
0.0
 11
49682.800927
 21
15630.976121
 31
0.0
  0
LINE
  8
50
  6
CENTER
 62
     3
  5
51E
 10
49677.050987
 20
15630.176231
 30
0.0
 11
49677.050987
 21
15632.298071
 31
0.0
  0
LINE
  8
40
  6
CONTINUOUS
 62
     4
  5
51F
 10
49725.046767
 20
15616.928871
 30
0.0
 11
49689.515747
 21
15616.928871
 31
0.0
  0
LINE
  8
40
  6
CONTINUOUS
 62
     4
  5
520
 10
49721.316747
 20
15615.928851
 30
0.0
 11
49693.316747
 21
15615.928851
 31
0.0
  0
LINE
  8
40
  6
CONTINUOUS
 62
     4
  5
521
 10
49692.732387
 20
15614.928831
 30
0.0
 11
49721.832787
 21
15614.928831
 31
0.0
  0
LINE
  8
40
  6
CONTINUOUS
 62
     4
  5
522
 10
49693.170727
 20
15613.928881
 30
0.0
 11
49721.435887
 21
15613.928881
 31
0.0
  0
ARC
  8
8
  6
CONTINUOUS
 62
     3
  5
523
 10
49689.322267
 20
15612.842131
 30
0.0
 40
4.00008
 50
0.0
 51
75.529706
  0
LINE
  8
40
  6
CONTINUOUS
 62
     4
  5
524
 10
49721.316747
 20
15613.052551
 30
0.0
 11
49721.316747
 21
15585.928741
 31
0.0
  0
LINE
  8
40
  6
DOT
 62
     6
  5
525
 10
49699.816667
 20
15579.928831
 30
0.0
 11
49714.816687
 21
15579.928831
 31
0.0
  0
LINE
  8
40
  6
DOT
 62
     6
  5
526
 10
49699.816667
 20
15579.928831
 30
0.0
 11
49699.816667
 21
15585.928881
 31
0.0
  0
LINE
  8
40
  6
DOT
 62
     6
  5
527
 10
49714.816687
 20
15579.928831
 30
0.0
 11
49714.816687
 21
15585.928881
 31
0.0
  0
LINE
  8
40
  6
CONTINUOUS
 62
     4
  5
528
 10
50141.855887
 20
15615.928991
 30
0.0
 11
50172.678427
 21
15615.928991
 31
0.0
  0
LINE
  8
40
  6
CONTINUOUS
 62
     4
  5
529
 10
50171.316787
 20
15585.928881
 30
0.0
 11
50143.316787
 21
15585.928881
 31
0.0
  0
LINE
  8
40
  6
CONTINUOUS
 62
     4
  5
52A
 10
50178.921867
 20
15617.928961
 30
0.0
 11
50135.640867
 21
15617.928961
 31
0.0
  0
LINE
  8
40
  6
CONTINUOUS
 62
     4
  5
52B
 10
50202.316707
 20
15635.928971
 30
0.0
 11
50202.316707
 21
15625.442061
 31
0.0
  0
LINE
  8
40
  6
CONTINUOUS
 62
     4
  5
52C
 10
50112.316727
 20
15635.928971
 30
0.0
 11
50112.316727
 21
15625.413431
 31
0.0
  0
LINE
  8
40
  6
CONTINUOUS
 62
     4
  5
52D
 10
50113.062787
 20
15623.929011
 30
0.0
 11
50201.527247
 21
15623.929011
 31
0.0
  0
LINE
  8
8
  6
CONTINUOUS
 62
     3
  5
52E
 10
50174.128547
 20
15616.691921
 30
0.0
 11
50200.859587
 21
15623.590281
 31
0.0
  0
ARC
  8
40
  6
CONTINUOUS
 62
     4
  5
52F
 10
50200.316807
 20
15625.544751
 30
0.0
 40
2.00004
 50
284.470295
 51
0.0
  0
ARC
  8
40
  6
CONTINUOUS
 62
     4
  5
530
 10
50114.318447
 20
15625.501701
 30
0.0
 40
2.00004
 50
180.0
 51
255.930352
  0
LINE
  8
12
  6
CONTINUOUS
 62
     6
  5
531
 10
50133.929787
 20
15630.929011
 30
0.0
 11
50112.316727
 21
15630.929011
 31
0.0
  0
LINE
  8
12
  6
CONTINUOUS
 62
     6
  5
532
 10
50199.816727
 20
15623.321271
 30
0.0
 11
50199.816727
 21
15630.929011
 31
0.0
  0
ARC
  8
8
  6
CONTINUOUS
 62
     3
  5
533
 10
50175.284527
 20
15612.893021
 30
0.0
 40
4.00008
 50
104.470294
 51
180.0
  0
LINE
  8
12
  6
CONTINUOUS
 62
     6
  5
534
 10
50178.967367
 20
15617.940791
 30
0.0
 11
50178.967367
 21
15617.911251
 31
0.0
  0
LINE
  8
12
  6
CONTINUOUS
 62
     6
  5
535
 10
50180.685307
 20
15618.384031
 30
0.0
 11
50180.685307
 21
15630.929011
 31
0.0
  0
LINE
  8
12
  6
CONTINUOUS
 62
     6
  5
536
 10
50178.973527
 20
15618.036271
 30
0.0
 11
50180.598227
 21
15631.034291
 31
0.0
  0
LINE
  8
12
  6
CONTINUOUS
 62
     6
  5
537
 10
50135.647587
 20
15617.835371
 30
0.0
 11
50135.647587
 21
15617.805901
 31
0.0
  0
LINE
  8
12
  6
CONTINUOUS
 62
     6
  5
538
 10
50133.929787
 20
15618.278681
 30
0.0
 11
50133.929787
 21
15630.823731
 31
0.0
  0
LINE
  8
12
  6
CONTINUOUS
 62
     6
  5
539
 10
50135.641427
 20
15617.930991
 30
0.0
 11
50134.016727
 21
15630.929011
 31
0.0
  0
LINE
  8
12
  6
CONTINUOUS
 62
     6
  5
53A
 10
50180.585067
 20
15630.929011
 30
0.0
 11
50199.816727
 21
15630.929011
 31
0.0
  0
LINE
  8
12
  6
CONTINUOUS
 62
     6
  5
53B
 10
50180.585067
 20
15629.928991
 30
0.0
 11
50199.816727
 21
15629.928991
 31
0.0
  0
LINE
  8
12
  6
CONTINUOUS
 62
     6
  5
53C
 10
50133.929787
 20
15629.928991
 30
0.0
 11
50112.316727
 21
15629.928991
 31
0.0
  0
LINE
  8
12
  6
CONTINUOUS
 62
     6
  5
53D
 10
50183.377647
 20
15629.928991
 30
0.0
 11
50191.877607
 21
15629.928991
 31
0.0
  0
LINE
  8
12
  6
CONTINUOUS
 62
     6
  5
53E
 10
50191.877607
 20
15629.928991
 30
0.0
 11
50191.877607
 21
15626.929001
 31
0.0
  0
LINE
  8
12
  6
CONTINUOUS
 62
     6
  5
53F
 10
50183.377647
 20
15629.928991
 30
0.0
 11
50183.377647
 21
15626.929001
 31
0.0
  0
LINE
  8
12
  6
CONTINUOUS
 62
     6
  5
540
 10
50183.377647
 20
15626.929001
 30
0.0
 11
50183.377647
 21
15629.928991
 31
0.0
  0
LINE
  8
12
  6
CONTINUOUS
 62
     6
  5
541
 10
50191.877607
 20
15626.929001
 30
0.0
 11
50191.877607
 21
15629.928991
 31
0.0
  0
LINE
  8
1
  6
CONTINUOUS
 62
     4
  5
542
 10
50189.627667
 20
15643.115031
 30
0.0
 11
50185.627587
 21
15643.810061
 31
0.0
  0
LINE
  8
1
  6
CONTINUOUS
 62
     4
  5
543
 10
50189.627667
 20
15646.151351
 30
0.0
 11
50185.627587
 21
15646.860591
 31
0.0
  0
LINE
  8
1
  6
CONTINUOUS
 62
     4
  5
544
 10
50189.627667
 20
15649.204471
 30
0.0
 11
50185.627587
 21
15649.913711
 31
0.0
  0
LINE
  8
1
  6
CONTINUOUS
 62
     4
  5
545
 10
50189.627667
 20
15652.257591
 30
0.0
 11
50185.627587
 21
15652.966761
 31
0.0
  0
LINE
  8
1
  6
CONTINUOUS
 62
     4
  5
546
 10
50189.627667
 20
15655.308051
 30
0.0
 11
50185.627587
 21
15656.003011
 31
0.0
  0
LINE
  8
1
  6
CONTINUOUS
 62
     4
  5
547
 10
50189.627667
 20
15658.344161
 30
0.0
 11
50185.627587
 21
15659.053401
 31
0.0
  0
LINE
  8
1
  6
CONTINUOUS
 62
     4
  5
548
 10
50186.022807
 20
15642.219871
 30
0.0
 11
50189.232447
 21
15641.652241
 31
0.0
  0
LINE
  8
1
  6
CONTINUOUS
 62
     4
  5
549
 10
50186.022807
 20
15645.253321
 30
0.0
 11
50189.232447
 21
15644.685761
 31
0.0
  0
LINE
  8
1
  6
CONTINUOUS
 62
     4
  5
54A
 10
50186.022807
 20
15648.306441
 30
0.0
 11
50189.232447
 21
15647.738881
 31
0.0
  0
LINE
  8
1
  6
CONTINUOUS
 62
     4
  5
54B
 10
50186.022807
 20
15651.359561
 30
0.0
 11
50189.232447
 21
15650.792071
 31
0.0
  0
LINE
  8
1
  6
CONTINUOUS
 62
     4
  5
54C
 10
50186.022807
 20
15654.412751
 30
0.0
 11
50189.232447
 21
15653.845191
 31
0.0
  0
LINE
  8
1
  6
CONTINUOUS
 62
     4
  5
54D
 10
50186.022807
 20
15657.446271
 30
0.0
 11
50189.232447
 21
15656.878711
 31
0.0
  0
LINE
  8
1
  6
CONTINUOUS
 62
     4
  5
54E
 10
50186.022807
 20
15660.499391
 30
0.0
 11
50189.232447
 21
15659.931761
 31
0.0
  0
LINE
  8
1
  6
CONTINUOUS
 62
     4
  5
54F
 10
50189.627667
 20
15640.063661
 30
0.0
 11
50185.627587
 21
15640.767861
 31
0.0
  0
LINE
  8
1
  6
CONTINUOUS
 62
     4
  5
550
 10
50187.627627
 20
15629.928991
 30
0.0
 11
50191.877607
 21
15629.928991
 31
0.0
  0
LINE
  8
1
  6
CONTINUOUS
 62
     4
  5
551
 10
50189.627667
 20
15634.017131
 30
0.0
 11
50185.627587
 21
15634.726371
 31
0.0
  0
LINE
  8
1
  6
CONTINUOUS
 62
     4
  5
552
 10
50189.627667
 20
15637.030981
 30
0.0
 11
50185.627587
 21
15637.740221
 31
0.0
  0
LINE
  8
1
  6
CONTINUOUS
 62
     4
  5
553
 10
50186.022807
 20
15633.138701
 30
0.0
 11
50189.232447
 21
15632.571141
 31
0.0
  0
LINE
  8
1
  6
CONTINUOUS
 62
     4
  5
554
 10
50186.022807
 20
15636.152621
 30
0.0
 11
50189.232447
 21
15635.585061
 31
0.0
  0
LINE
  8
1
  6
CONTINUOUS
 62
     4
  5
555
 10
50186.022807
 20
15639.186211
 30
0.0
 11
50189.232447
 21
15638.618651
 31
0.0
  0
LINE
  8
1
  6
CONTINUOUS
 62
     4
  5
556
 10
50190.230647
 20
15629.928991
 30
0.0
 11
50189.027627
 21
15631.131941
 31
0.0
  0
LINE
  8
1
  6
CONTINUOUS
 62
     4
  5
557
 10
50190.230647
 20
15629.928991
 30
0.0
 11
50191.877607
 21
15629.928991
 31
0.0
  0
LINE
  8
1
  6
CONTINUOUS
 62
     4
  5
558
 10
50185.024607
 20
15629.928991
 30
0.0
 11
50186.227627
 21
15631.131941
 31
0.0
  0
LINE
  8
1
  6
CONTINUOUS
 62
     4
  5
559
 10
50185.024607
 20
15629.928991
 30
0.0
 11
50183.377647
 21
15629.928991
 31
0.0
  0
LINE
  8
1
  6
CONTINUOUS
 62
     4
  5
55A
 10
50186.022807
 20
15631.612141
 30
0.0
 11
50189.232447
 21
15631.044651
 31
0.0
  0
LINE
  8
12
  6
CONTINUOUS
 62
     6
  5
55B
 10
50191.877607
 20
15626.929001
 30
0.0
 11
50183.377647
 21
15626.929001
 31
0.0
  0
ARC
  8
12
  6
CONTINUOUS
 62
     6
  5
55C
 10
50187.627627
 20
15635.460251
 30
0.0
 40
9.53134
 50
243.51896
 51
296.48104
  0
LINE
  8
1
  6
CONTINUOUS
 62
     4
  5
55D
 10
50188.234387
 20
15626.437951
 30
0.0
 11
50187.020867
 21
15626.437951
 31
0.0
  0
LINE
  8
1
  6
CONTINUOUS
 62
     4
  5
55E
 10
50188.234387
 20
15625.928981
 30
0.0
 11
50188.234387
 21
15626.437951
 31
0.0
  0
LINE
  8
1
  6
CONTINUOUS
 62
     4
  5
55F
 10
50187.020867
 20
15625.928981
 30
0.0
 11
50187.020867
 21
15626.437951
 31
0.0
  0
LINE
  8
1
  6
CONTINUOUS
 62
     4
  5
560
 10
50188.234387
 20
15625.928981
 30
0.0
 11
50187.020867
 21
15625.928981
 31
0.0
  0
LINE
  8
12
  6
CONTINUOUS
 62
     6
  5
561
 10
50186.227627
 20
15629.928991
 30
0.0
 11
50186.227627
 21
15660.928981
 31
0.0
  0
LINE
  8
12
  6
CONTINUOUS
 62
     6
  5
562
 10
50189.027627
 20
15629.928991
 30
0.0
 11
50189.027627
 21
15660.928981
 31
0.0
  0
LINE
  8
1
  6
CONTINUOUS
 62
     4
  5
563
 10
50189.627667
 20
15661.397281
 30
0.0
 11
50185.627587
 21
15662.106521
 31
0.0
  0
LINE
  8
1
  6
CONTINUOUS
 62
     4
  5
564
 10
50186.236307
 20
15665.051701
 30
0.0
 11
50189.121287
 21
15664.540141
 31
0.0
  0
LINE
  8
1
  6
CONTINUOUS
 62
     4
  5
565
 10
50186.022807
 20
15663.552441
 30
0.0
 11
50189.232447
 21
15662.984881
 31
0.0
  0
LINE
  8
1
  6
CONTINUOUS
 62
     4
  5
566
 10
50186.529187
 20
15666.515961
 30
0.0
 11
50188.806567
 21
15666.113321
 31
0.0
  0
LINE
  8
12
  6
CONTINUOUS
 62
     6
  5
567
 10
50186.227627
 20
15660.928981
 30
0.0
 11
50189.027627
 21
15660.928981
 31
0.0
  0
LINE
  8
12
  6
CONTINUOUS
 62
     6
  5
568
 10
50187.627627
 20
15667.928981
 30
0.0
 11
50189.027627
 21
15660.928981
 31
0.0
  0
LINE
  8
12
  6
CONTINUOUS
 62
     6
  5
569
 10
50187.627627
 20
15667.928981
 30
0.0
 11
50186.227627
 21
15660.928981
 31
0.0
  0
LINE
  8
12
  6
CENTER
 62
     6
  5
56A
 10
50187.627627
 20
15626.929001
 30
0.0
 11
50187.627627
 21
15667.928981
 31
0.0
  0
LINE
  8
12
  6
CENTER
 62
     6
  5
56B
 10
50187.627627
 20
15667.928981
 30
0.0
 11
50187.627627
 21
15628.421961
 31
0.0
  0
LINE
  8
12
  6
CONTINUOUS
 62
     6
  5
56C
 10
50122.755827
 20
15629.928991
 30
0.0
 11
50131.255927
 21
15629.928991
 31
0.0
  0
LINE
  8
12
  6
CONTINUOUS
 62
     6
  5
56D
 10
50131.255927
 20
15629.928991
 30
0.0
 11
50131.255927
 21
15626.929001
 31
0.0
  0
LINE
  8
12
  6
CONTINUOUS
 62
     6
  5
56E
 10
50122.755827
 20
15629.928991
 30
0.0
 11
50122.755827
 21
15626.929001
 31
0.0
  0
LINE
  8
12
  6
CONTINUOUS
 62
     6
  5
56F
 10
50122.755827
 20
15626.929001
 30
0.0
 11
50122.755827
 21
15629.928991
 31
0.0
  0
LINE
  8
12
  6
CONTINUOUS
 62
     6
  5
570
 10
50131.255927
 20
15626.929001
 30
0.0
 11
50131.255927
 21
15629.928991
 31
0.0
  0
LINE
  8
1
  6
CONTINUOUS
 62
     4
  5
571
 10
50129.005847
 20
15643.115031
 30
0.0
 11
50125.005907
 21
15643.810061
 31
0.0
  0
LINE
  8
1
  6
CONTINUOUS
 62
     4
  5
572
 10
50129.005847
 20
15646.151351
 30
0.0
 11
50125.005907
 21
15646.860591
 31
0.0
  0
LINE
  8
1
  6
CONTINUOUS
 62
     4
  5
573
 10
50129.005847
 20
15649.204471
 30
0.0
 11
50125.005907
 21
15649.913711
 31
0.0
  0
LINE
  8
1
  6
CONTINUOUS
 62
     4
  5
574
 10
50129.005847
 20
15652.257591
 30
0.0
 11
50125.005907
 21
15652.966761
 31
0.0
  0
LINE
  8
1
  6
CONTINUOUS
 62
     4
  5
575
 10
50129.005847
 20
15655.308051
 30
0.0
 11
50125.005907
 21
15656.003011
 31
0.0
  0
LINE
  8
1
  6
CONTINUOUS
 62
     4
  5
576
 10
50129.005847
 20
15658.344161
 30
0.0
 11
50125.005907
 21
15659.053401
 31
0.0
  0
LINE
  8
1
  6
CONTINUOUS
 62
     4
  5
577
 10
50125.400987
 20
15642.219871
 30
0.0
 11
50128.610767
 21
15641.652241
 31
0.0
  0
LINE
  8
1
  6
CONTINUOUS
 62
     4
  5
578
 10
50125.400987
 20
15645.253321
 30
0.0
 11
50128.610767
 21
15644.685761
 31
0.0
  0
LINE
  8
1
  6
CONTINUOUS
 62
     4
  5
579
 10
50125.400987
 20
15648.306441
 30
0.0
 11
50128.610767
 21
15647.738881
 31
0.0
  0
LINE
  8
1
  6
CONTINUOUS
 62
     4
  5
57A
 10
50125.400987
 20
15651.359561
 30
0.0
 11
50128.610767
 21
15650.792071
 31
0.0
  0
LINE
  8
1
  6
CONTINUOUS
 62
     4
  5
57B
 10
50125.400987
 20
15654.412751
 30
0.0
 11
50128.610767
 21
15653.845191
 31
0.0
  0
LINE
  8
1
  6
CONTINUOUS
 62
     4
  5
57C
 10
50125.400987
 20
15657.446271
 30
0.0
 11
50128.610767
 21
15656.878711
 31
0.0
  0
LINE
  8
1
  6
CONTINUOUS
 62
     4
  5
57D
 10
50125.400987
 20
15660.499391
 30
0.0
 11
50128.610767
 21
15659.931761
 31
0.0
  0
LINE
  8
1
  6
CONTINUOUS
 62
     4
  5
57E
 10
50129.005847
 20
15640.063661
 30
0.0
 11
50125.005907
 21
15640.767861
 31
0.0
  0
LINE
  8
1
  6
CONTINUOUS
 62
     4
  5
57F
 10
50127.005807
 20
15629.928991
 30
0.0
 11
50131.255927
 21
15629.928991
 31
0.0
  0
LINE
  8
1
  6
CONTINUOUS
 62
     4
  5
580
 10
50129.005847
 20
15634.017131
 30
0.0
 11
50125.005907
 21
15634.726371
 31
0.0
  0
LINE
  8
1
  6
CONTINUOUS
 62
     4
  5
581
 10
50129.005847
 20
15637.030981
 30
0.0
 11
50125.005907
 21
15637.740221
 31
0.0
  0
LINE
  8
1
  6
CONTINUOUS
 62
     4
  5
582
 10
50125.400987
 20
15633.138701
 30
0.0
 11
50128.610767
 21
15632.571141
 31
0.0
  0
LINE
  8
1
  6
CONTINUOUS
 62
     4
  5
583
 10
50125.400987
 20
15636.152621
 30
0.0
 11
50128.610767
 21
15635.585061
 31
0.0
  0
LINE
  8
1
  6
CONTINUOUS
 62
     4
  5
584
 10
50125.400987
 20
15639.186211
 30
0.0
 11
50128.610767
 21
15638.618651
 31
0.0
  0
LINE
  8
1
  6
CONTINUOUS
 62
     4
  5
585
 10
50129.608827
 20
15629.928991
 30
0.0
 11
50128.405807
 21
15631.131941
 31
0.0
  0
LINE
  8
1
  6
CONTINUOUS
 62
     4
  5
586
 10
50129.608827
 20
15629.928991
 30
0.0
 11
50131.255927
 21
15629.928991
 31
0.0
  0
LINE
  8
1
  6
CONTINUOUS
 62
     4
  5
587
 10
50124.402927
 20
15629.928991
 30
0.0
 11
50125.605807
 21
15631.131941
 31
0.0
  0
LINE
  8
1
  6
CONTINUOUS
 62
     4
  5
588
 10
50124.402927
 20
15629.928991
 30
0.0
 11
50122.755827
 21
15629.928991
 31
0.0
  0
LINE
  8
1
  6
CONTINUOUS
 62
     4
  5
589
 10
50125.400987
 20
15631.612141
 30
0.0
 11
50128.610767
 21
15631.044651
 31
0.0
  0
LINE
  8
12
  6
CONTINUOUS
 62
     6
  5
58A
 10
50131.255927
 20
15626.929001
 30
0.0
 11
50122.755827
 21
15626.929001
 31
0.0
  0
ARC
  8
12
  6
CONTINUOUS
 62
     6
  5
58B
 10
50127.005807
 20
15635.460251
 30
0.0
 40
9.53134
 50
243.51896
 51
296.48104
  0
LINE
  8
1
  6
CONTINUOUS
 62
     4
  5
58C
 10
50127.612567
 20
15626.437951
 30
0.0
 11
50126.399187
 21
15626.437951
 31
0.0
  0
LINE
  8
1
  6
CONTINUOUS
 62
     4
  5
58D
 10
50127.612567
 20
15625.928981
 30
0.0
 11
50127.612567
 21
15626.437951
 31
0.0
  0
LINE
  8
1
  6
CONTINUOUS
 62
     4
  5
58E
 10
50126.399187
 20
15625.928981
 30
0.0
 11
50126.399187
 21
15626.437951
 31
0.0
  0
LINE
  8
1
  6
CONTINUOUS
 62
     4
  5
58F
 10
50127.612567
 20
15625.928981
 30
0.0
 11
50126.399187
 21
15625.928981
 31
0.0
  0
LINE
  8
12
  6
CONTINUOUS
 62
     6
  5
590
 10
50125.605807
 20
15629.928991
 30
0.0
 11
50125.605807
 21
15660.928981
 31
0.0
  0
LINE
  8
12
  6
CONTINUOUS
 62
     6
  5
591
 10
50128.405807
 20
15629.928991
 30
0.0
 11
50128.405807
 21
15660.928981
 31
0.0
  0
LINE
  8
1
  6
CONTINUOUS
 62
     4
  5
592
 10
50129.005847
 20
15661.397281
 30
0.0
 11
50125.005907
 21
15662.106521
 31
0.0
  0
LINE
  8
1
  6
CONTINUOUS
 62
     4
  5
593
 10
50125.614627
 20
15665.051701
 30
0.0
 11
50128.499467
 21
15664.540141
 31
0.0
  0
LINE
  8
1
  6
CONTINUOUS
 62
     4
  5
594
 10
50125.400987
 20
15663.552441
 30
0.0
 11
50128.610767
 21
15662.984881
 31
0.0
  0
LINE
  8
1
  6
CONTINUOUS
 62
     4
  5
595
 10
50125.907367
 20
15666.515961
 30
0.0
 11
50128.184887
 21
15666.113321
 31
0.0
  0
LINE
  8
12
  6
CONTINUOUS
 62
     6
  5
596
 10
50125.605807
 20
15660.928981
 30
0.0
 11
50128.405807
 21
15660.928981
 31
0.0
  0
LINE
  8
12
  6
CONTINUOUS
 62
     6
  5
597
 10
50127.005807
 20
15667.928981
 30
0.0
 11
50128.405807
 21
15660.928981
 31
0.0
  0
LINE
  8
12
  6
CONTINUOUS
 62
     6
  5
598
 10
50127.005807
 20
15667.928981
 30
0.0
 11
50125.605807
 21
15660.928981
 31
0.0
  0
LINE
  8
12
  6
CENTER
 62
     6
  5
599
 10
50127.005807
 20
15626.929001
 30
0.0
 11
50127.005807
 21
15667.928981
 31
0.0
  0
LINE
  8
12
  6
CENTER
 62
     6
  5
59A
 10
50127.005807
 20
15667.928981
 30
0.0
 11
50127.005807
 21
15628.421961
 31
0.0
  0
LINE
  8
40
  6
CONTINUOUS
 62
     4
  5
59B
 10
50112.341787
 20
15635.928971
 30
0.0
 11
50112.341787
 21
15625.413431
 31
0.0
  0
LINE
  8
40
  6
CONTINUOUS
 62
     4
  5
59C
 10
50114.841767
 20
15623.296491
 30
0.0
 11
50114.841767
 21
15630.929011
 31
0.0
  0
LINE
  8
12
  6
CONTINUOUS
 62
     6
  5
59D
 10
50181.919127
 20
15630.176231
 30
0.0
 11
50193.419147
 21
15630.176231
 31
0.0
  0
LINE
  8
12
  6
CONTINUOUS
 62
     6
  5
59E
 10
50181.919127
 20
15630.976121
 30
0.0
 11
50193.419147
 21
15630.976121
 31
0.0
  0
LINE
  8
12
  6
CONTINUOUS
 62
     6
  5
59F
 10
50181.919127
 20
15630.176231
 30
0.0
 11
50181.919127
 21
15630.976121
 31
0.0
  0
LINE
  8
12
  6
CONTINUOUS
 62
     6
  5
5A0
 10
50184.919047
 20
15630.176231
 30
0.0
 11
50184.919047
 21
15630.976121
 31
0.0
  0
LINE
  8
12
  6
CONTINUOUS
 62
     6
  5
5A1
 10
50190.419087
 20
15630.176231
 30
0.0
 11
50190.419087
 21
15630.976121
 31
0.0
  0
LINE
  8
12
  6
CONTINUOUS
 62
     6
  5
5A2
 10
50193.419147
 20
15630.176231
 30
0.0
 11
50193.419147
 21
15630.976121
 31
0.0
  0
LINE
  8
50
  6
CENTER
 62
     3
  5
5A3
 10
50187.669067
 20
15630.176231
 30
0.0
 11
50187.669067
 21
15632.298211
 31
0.0
  0
LINE
  8
12
  6
CONTINUOUS
 62
     6
  5
5A4
 10
50121.300947
 20
15630.176231
 30
0.0
 11
50132.800967
 21
15630.176231
 31
0.0
  0
LINE
  8
12
  6
CONTINUOUS
 62
     6
  5
5A5
 10
50121.300947
 20
15630.976121
 30
0.0
 11
50132.800967
 21
15630.976121
 31
0.0
  0
LINE
  8
12
  6
CONTINUOUS
 62
     6
  5
5A6
 10
50121.300947
 20
15630.176231
 30
0.0
 11
50121.300947
 21
15630.976121
 31
0.0
  0
LINE
  8
12
  6
CONTINUOUS
 62
     6
  5
5A7
 10
50124.301007
 20
15630.176231
 30
0.0
 11
50124.301007
 21
15630.976121
 31
0.0
  0
LINE
  8
12
  6
CONTINUOUS
 62
     6
  5
5A8
 10
50129.801047
 20
15630.176231
 30
0.0
 11
50129.801047
 21
15630.976121
 31
0.0
  0
LINE
  8
12
  6
CONTINUOUS
 62
     6
  5
5A9
 10
50132.800967
 20
15630.176231
 30
0.0
 11
50132.800967
 21
15630.976121
 31
0.0
  0
LINE
  8
50
  6
CENTER
 62
     3
  5
5AA
 10
50127.051027
 20
15630.176231
 30
0.0
 11
50127.051027
 21
15632.298211
 31
0.0
  0
LINE
  8
40
  6
CONTINUOUS
 62
     4
  5
5AB
 10
50175.046807
 20
15616.929011
 30
0.0
 11
50139.515787
 21
15616.929011
 31
0.0
  0
LINE
  8
40
  6
CONTINUOUS
 62
     4
  5
5AC
 10
50171.316787
 20
15615.928991
 30
0.0
 11
50143.316787
 21
15615.928991
 31
0.0
  0
LINE
  8
40
  6
CONTINUOUS
 62
     4
  5
5AD
 10
50142.732427
 20
15614.928971
 30
0.0
 11
50171.832827
 21
15614.928971
 31
0.0
  0
LINE
  8
40
  6
CONTINUOUS
 62
     4
  5
5AE
 10
50143.170767
 20
15613.928881
 30
0.0
 11
50171.435927
 21
15613.928881
 31
0.0
  0
ARC
  8
8
  6
CONTINUOUS
 62
     3
  5
5AF
 10
50139.322307
 20
15612.842131
 30
0.0
 40
4.00008
 50
0.0
 51
75.529706
  0
LINE
  8
40
  6
CONTINUOUS
 62
     4
  5
5B0
 10
50143.316787
 20
15613.143691
 30
0.0
 11
50143.316787
 21
15585.928881
 31
0.0
  0
LINE
  8
40
  6
CONTINUOUS
 62
     4
  5
5B1
 10
50171.316787
 20
15613.052691
 30
0.0
 11
50171.316787
 21
15585.928881
 31
0.0
  0
LINE
  8
40
  6
DOT
 62
     6
  5
5B2
 10
50149.816707
 20
15579.928971
 30
0.0
 11
50164.816727
 21
15579.928971
 31
0.0
  0
LINE
  8
40
  6
DOT
 62
     6
  5
5B3
 10
50149.816707
 20
15579.928971
 30
0.0
 11
50149.816707
 21
15585.928881
 31
0.0
  0
LINE
  8
40
  6
DOT
 62
     6
  5
5B4
 10
50164.816727
 20
15579.928971
 30
0.0
 11
50164.816727
 21
15585.928881
 31
0.0
  0
LINE
  8
10
  6
CONTINUOUS
 62
     1
  5
5B5
 10
50156.627567
 20
15635.928971
 30
0.0
 11
50156.627567
 21
15585.928881
 31
0.0
  0
LINE
  8
10
  6
CONTINUOUS
 62
     1
  5
5B6
 10
50158.627607
 20
15635.928971
 30
0.0
 11
50158.627607
 21
15585.928881
 31
0.0
  0
LINE
  8
12
  6
CONTINUOUS
 62
     6
  5
5B7
 10
50157.627587
 20
15635.928971
 30
0.0
 11
50157.627587
 21
15585.928881
 31
0.0
  0
LINE
  8
150
  6
CONTINUOUS
 62
     6
  5
5B8
 10
49707.316747
 20
15578.428871
 30
0.0
 11
49707.316747
 21
15635.893411
 31
0.0
  0
LINE
  8
150
  6
CONTINUOUS
 62
     6
  5
5B9
 10
50286.816787
 20
13778.393291
 30
0.0
 11
50300.316777
 21
13778.393291
 31
0.0
  0
LINE
  8
5
  6
CONTINUOUS
 62
     6
  5
5BA
 10
50451.632837
 20
14246.410561
 30
0.0
 11
50556.784037
 21
14131.148141
 31
0.0
  0
LINE
  8
5
  6
CONTINUOUS
 62
     6
  5
5BB
 10
50556.792857
 20
14404.317821
 30
0.0
 11
50451.632837
 21
14289.055401
 31
0.0
  0
ARC
  8
5
  6
CONTINUOUS
 62
     6
  5
5BC
 10
50479.634377
 20
14267.732981
 30
0.0
 40
35.19124
 50
140.35
 51
217.97
  0
ARC
  8
5
  6
CONTINUOUS
 62
     6
  5
5BD
 10
50479.634377
 20
14267.732981
 30
0.0
 40
29.03124
 50
140.35
 51
217.97
  0
LINE
  8
150
  6
CENTER
 62
     2
  5
5BE
 10
50977.316807
 20
15720.893291
 30
0.0
 11
50977.316807
 21
12488.393251
 31
0.0
  0
LINE
  8
150
  6
CENTER
 62
     2
  5
5BF
 10
51027.316897
 20
15688.393271
 30
0.0
 11
49092.316837
 21
15688.393271
 31
0.0
  0
CIRCLE
  8
1
  6
CONTINUOUS
 62
     3
  5
5C0
 10
48855.816777
 20
15688.393271
 30
0.0
 40
7.5
  0
CIRCLE
  8
1
  6
CONTINUOUS
 62
     3
  5
5C1
 10
48855.816777
 20
12588.393291
 30
0.0
 40
7.5
  0
CIRCLE
  8
1
  6
CONTINUOUS
 62
     3
  5
5C2
 10
48755.816777
 20
15688.393271
 30
0.0
 40
7.5
  0
CIRCLE
  8
1
  6
CONTINUOUS
 62
     3
  5
5C3
 10
48755.816777
 20
12588.393291
 30
0.0
 40
7.5
  0
LINE
  8
1
  6
CONTINUOUS
 62
     3
  5
5C4
 10
48755.816777
 20
15688.393271
 30
0.0
 11
48755.816777
 21
12588.393291
 31
0.0
  0
LINE
  8
1
  6
CONTINUOUS
 62
     3
  5
5C5
 10
48755.816777
 20
15688.393271
 30
0.0
 11
49055.816777
 21
15688.393271
 31
0.0
  0
LINE
  8
1
  6
CONTINUOUS
 62
     3
  5
5C6
 10
48755.816777
 20
12588.393291
 30
0.0
 11
49055.816777
 21
12588.393291
 31
0.0
  0
LINE
  8
2
  6
CONTINUOUS
 62
     5
  5
5C7
 10
49095.816837
 20
12957.893271
 30
0.0
 11
49085.816777
 21
12957.893271
 31
0.0
  0
LINE
  8
3
  6
CONTINUOUS
 62
     5
  5
5C8
 10
49182.316817
 20
13883.826601
 30
0.0
 11
49182.316817
 21
14683.393411
 31
0.0
  0
LINE
  8
4
  6
CONTINUOUS
 62
     6
  5
5C9
 10
49229.816857
 20
12957.893271
 30
0.0
 11
49229.816857
 21
14677.893301
 31
0.0
  0
ARC
  8
4
  6
CONTINUOUS
 62
     6
  5
5CA
 10
49126.538577
 20
13806.326451
 30
0.0
 40
12.50004
 50
180.0
 51
270.0
  0
ARC
  8
4
  6
CONTINUOUS
 62
     6
  5
5CB
 10
49126.538577
 20
13806.326591
 30
0.0
 40
12.50004
 50
90.0
 51
180.0
  0
LINE
  8
4
  6
HIDDEN
 62
     6
  5
5CC
 10
49189.038637
 20
12957.893271
 30
0.0
 11
49189.038637
 21
13754.886041
 31
0.0
  0
LINE
  8
12
  6
CONTINUOUS
 62
     6
  5
5CD
 10
49189.038637
 20
13758.826621
 30
0.0
 11
49225.038657
 21
13758.826621
 31
0.0
  0
LINE
  8
4
  6
HIDDEN
 62
     6
  5
5CE
 10
49189.038637
 20
13758.826621
 30
0.0
 11
49224.535637
 21
13758.826621
 31
0.0
  0
LINE
  8
4
  6
HIDDEN
 62
     6
  5
5CF
 10
49225.038657
 20
12957.893271
 30
0.0
 11
49225.038657
 21
13754.886041
 31
0.0
  0
LINE
  8
4
  6
CONTINUOUS
 62
     6
  5
5D0
 10
49189.038637
 20
13758.826621
 30
0.0
 11
49189.038637
 21
14677.893301
 31
0.0
  0
LINE
  8
4
  6
CONTINUOUS
 62
     6
  5
5D1
 10
49225.038657
 20
13758.826621
 30
0.0
 11
49225.038657
 21
13887.940361
 31
0.0
  0
LINE
  8
4
  6
CONTINUOUS
 62
     6
  5
5D2
 10
49189.038637
 20
13793.826621
 30
0.0
 11
49126.538577
 21
13793.826621
 31
0.0
  0
LINE
  8
4
  6
CONTINUOUS
 62
     6
  5
5D3
 10
49189.038637
 20
13818.826491
 30
0.0
 11
49126.538577
 21
13818.826491
 31
0.0
  0
LINE
  8
2
  6
CONTINUOUS
 62
     5
  5
5D4
 10
49085.816777
 20
12957.893271
 30
0.0
 11
49085.816777
 21
12929.893261
 31
0.0
  0
LINE
  8
2
  6
CONTINUOUS
 62
     5
  5
5D5
 10
49252.316817
 20
12957.893271
 30
0.0
 11
49095.816837
 21
12957.893271
 31
0.0
  0
CIRCLE
  8
1
  6
CONTINUOUS
 62
     3
  5
5D6
 10
48855.816777
 20
12958.393271
 30
0.0
 40
7.5
  0
CIRCLE
  8
1
  6
CONTINUOUS
 62
     3
  5
5D7
 10
48955.816777
 20
12958.393271
 30
0.0
 40
7.5
  0
CIRCLE
  8
1
  6
CONTINUOUS
 62
     3
  5
5D8
 10
48855.816777
 20
14678.393411
 30
0.0
 40
7.5
  0
CIRCLE
  8
1
  6
CONTINUOUS
 62
     3
  5
5D9
 10
48955.816777
 20
14678.393411
 30
0.0
 40
7.5
  0
LINE
  8
1
  6
CONTINUOUS
 62
     3
  5
5DA
 10
48855.816777
 20
12958.393271
 30
0.0
 11
48855.816777
 21
14678.393411
 31
0.0
  0
CIRCLE
  8
1
  6
CONTINUOUS
 62
     3
  5
5DB
 10
48955.816777
 20
13758.396621
 30
0.0
 40
7.5
  0
LINE
  8
1
  6
CONTINUOUS
 62
     3
  5
5DC
 10
48955.816777
 20
14678.393411
 30
0.0
 11
48955.816777
 21
13758.396621
 31
0.0
  0
LINE
  8
1
  6
CONTINUOUS
 62
     3
  5
5DD
 10
48955.816777
 20
13758.396621
 30
0.0
 11
49055.816777
 21
13758.396621
 31
0.0
  0
LINE
  8
1
  6
CONTINUOUS
 62
     3
  5
5DE
 10
48955.816777
 20
13758.396621
 30
0.0
 11
48955.816777
 21
12958.393271
 31
0.0
  0
CIRCLE
  8
1
  6
CONTINUOUS
 62
     3
  5
5DF
 10
48855.816777
 20
14678.393411
 30
0.0
 40
7.5
  0
CIRCLE
  8
1
  6
CONTINUOUS
 62
     3
  5
5E0
 10
48855.816777
 20
12958.393271
 30
0.0
 40
7.5
  0
LINE
  8
1
  6
CONTINUOUS
 62
     3
  5
5E1
 10
48855.816777
 20
12958.393271
 30
0.0
 11
49055.816777
 21
12958.393271
 31
0.0
  0
LINE
  8
1
  6
CONTINUOUS
 62
     3
  5
5E2
 10
48855.816777
 20
12958.393271
 30
0.0
 11
48855.816777
 21
12588.393291
 31
0.0
  0
LINE
  8
1
  6
CONTINUOUS
 62
     3
  5
5E3
 10
48855.816777
 20
15688.393271
 30
0.0
 11
48855.816777
 21
14678.393411
 31
0.0
  0
LINE
  8
1
  6
CONTINUOUS
 62
     3
  5
5E4
 10
48855.816777
 20
14678.393411
 30
0.0
 11
49055.816777
 21
14678.393411
 31
0.0
  0
LINE
  8
100
  6
CENTER
 62
     2
  5
5E5
 10
49177.316807
 20
12488.393251
 30
0.0
 11
49177.316807
 21
15720.893291
 31
0.0
  0
LINE
  8
150
  6
CONTINUOUS
 62
     5
  5
5E6
 10
51027.316897
 20
12488.393251
 30
0.0
 11
51027.316897
 21
15720.893291
 31
0.0
  0
LINE
  8
3
  6
CONTINUOUS
 62
     5
  5
5E7
 10
49092.316837
 20
15720.893291
 30
0.0
 11
49092.316837
 21
13883.826601
 31
0.0
  0
LINE
  8
150
  6
CONTINUOUS
 62
     3
  5
5E8
 10
50216.816787
 20
13848.393291
 30
0.0
 11
50286.816787
 21
13778.393291
 31
0.0
  0
LINE
  8
150
  6
CONTINUOUS
 62
     3
  5
5E9
 10
50216.816787
 20
14658.393321
 30
0.0
 11
50286.933057
 21
14728.509591
 31
0.0
  0
LINE
  8
150
  6
CONTINUOUS
 62
     3
  5
5EA
 10
50216.816787
 20
14658.393321
 30
0.0
 11
50216.816787
 21
13848.393291
 31
0.0
  0
LINE
  8
150
  6
CONTINUOUS
 62
     3
  5
5EB
 10
50286.933057
 20
14728.509591
 30
0.0
 11
50806.816757
 21
14728.509591
 31
0.0
  0
LINE
  8
3
  6
CONTINUOUS
 62
     6
  5
5EC
 10
49560.722817
 20
12688.393261
 30
0.0
 11
50343.910677
 21
12688.393261
 31
0.0
  0
LINE
  8
2
  6
CONTINUOUS
 62
     6
  5
5ED
 10
50277.316737
 20
12526.393241
 30
0.0
 11
49952.316817
 21
12201.393111
 31
0.0
  0
LINE
  8
2
  6
CONTINUOUS
 62
     6
  5
5EE
 10
49627.316757
 20
12526.393241
 30
0.0
 11
49952.316817
 21
12201.393111
 31
0.0
  0
LINE
  8
4
  6
CONTINUOUS
 62
     6
  5
5EF
 10
49952.316817
 20
12312.441531
 30
0.0
 11
49683.401877
 21
12581.356541
 31
0.0
  0
LINE
  8
150
  6
CENTER
 62
     2
  5
5F0
 10
51027.316897
 20
12588.393291
 30
0.0
 11
49095.816837
 21
12588.393291
 31
0.0
  0
LINE
  8
3
  6
CONTINUOUS
 62
     5
  5
5F1
 10
49580.722937
 20
12669.893241
 30
0.0
 11
49676.330843
 21
12574.285475
 31
0.0
  0
LINE
  8
4
  6
CONTINUOUS
 62
     6
  5
5F2
 10
50234.329457
 20
12532.903311
 30
0.0
 11
50203.553957
 21
12563.678811
 31
0.0
  0
LINE
  8
4
  6
CONTINUOUS
 62
     6
  5
5F3
 10
50221.231688
 20
12581.356471
 30
0.0
 11
49952.316817
 21
12312.441531
 31
0.0
  0
LINE
  8
4
  6
CONTINUOUS
 62
     6
  5
5F4
 10
50228.302737
 20
12574.285421
 30
0.0
 11
50221.231688
 21
12581.356471
 31
0.0
  0
LINE
  8
4
  6
CONTINUOUS
 62
     6
  5
5F5
 10
49652.626517
 20
12550.581041
 30
0.0
 11
49683.401877
 21
12581.356541
 31
0.0
  0
LINE
  8
2
  6
CONTINUOUS
 62
     6
  5
5F6
 10
49652.626517
 20
12550.581041
 30
0.0
 11
49675.923357
 21
12527.284131
 31
0.0
  0
LINE
  8
2
  6
CONTINUOUS
 62
     6
  5
5F7
 10
49652.626517
 20
12550.581041
 30
0.0
 11
49638.484417
 21
12536.438941
 31
0.0
  0
LINE
  8
2
  6
CONTINUOUS
 62
     6
  5
5F8
 10
49603.128957
 20
12501.083621
 30
0.0
 11
49626.425937
 21
12477.786571
 31
0.0
  0
LINE
  8
2
  6
CONTINUOUS
 62
     6
  5
5F9
 10
49603.128957
 20
12501.083621
 30
0.0
 11
49617.271197
 21
12515.225651
 31
0.0
  0
LINE
  8
2
  6
CONTINUOUS
 62
     6
  5
5FA
 10
49675.923357
 20
12527.284131
 30
0.0
 11
49626.425937
 21
12477.786571
 31
0.0
  0
LINE
  8
2
  6
CONTINUOUS
 62
     6
  5
5FB
 10
49652.626517
 20
12550.581041
 30
0.0
 11
49675.923357
 21
12527.284131
 31
0.0
  0
LINE
  8
2
  6
CONTINUOUS
 62
     6
  5
5FC
 10
49652.626517
 20
12550.581041
 30
0.0
 11
49638.484417
 21
12536.438941
 31
0.0
  0
LINE
  8
2
  6
CONTINUOUS
 62
     6
  5
5FD
 10
49603.128957
 20
12501.083621
 30
0.0
 11
49626.425937
 21
12477.786571
 31
0.0
  0
LINE
  8
2
  6
CONTINUOUS
 62
     6
  5
5FE
 10
49603.128957
 20
12501.083621
 30
0.0
 11
49617.271197
 21
12515.225651
 31
0.0
  0
LINE
  8
2
  6
CONTINUOUS
 62
     6
  5
5FF
 10
49675.923357
 20
12527.284131
 30
0.0
 11
49626.425937
 21
12477.786571
 31
0.0
  0
LINE
  8
2
  6
CONTINUOUS
 62
     6
  5
600
 10
50252.007117
 20
12550.581041
 30
0.0
 11
50228.710137
 21
12527.284131
 31
0.0
  0
LINE
  8
2
  6
CONTINUOUS
 62
     6
  5
601
 10
50252.007117
 20
12550.581041
 30
0.0
 11
50266.149217
 21
12536.438941
 31
0.0
  0
LINE
  8
2
  6
CONTINUOUS
 62
     6
  5
602
 10
50301.504537
 20
12501.083621
 30
0.0
 11
50278.207697
 21
12477.786571
 31
0.0
  0
LINE
  8
2
  6
CONTINUOUS
 62
     6
  5
603
 10
50301.504537
 20
12501.083621
 30
0.0
 11
50287.362437
 21
12515.225651
 31
0.0
  0
LINE
  8
2
  6
CONTINUOUS
 62
     6
  5
604
 10
50228.710137
 20
12527.284131
 30
0.0
 11
50278.207697
 21
12477.786571
 31
0.0
  0
LINE
  8
3
  6
CONTINUOUS
 62
     5
  5
605
 10
49095.816837
 20
12488.393251
 30
0.0
 11
49615.819392
 21
12488.393251
 31
0.0
  0
LINE
  8
3
  6
CONTINUOUS
 62
     5
  5
606
 10
51027.316897
 20
12488.393251
 30
0.0
 11
50288.814243
 21
12488.393251
 31
0.0
  0
LINE
  8
4
  6
CONTINUOUS
 62
     5
  5
607
 10
50288.814243
 20
12488.393251
 30
0.0
 11
50301.504572
 21
12501.083586
 31
0.0
  0
LINE
  8
4
  6
CONTINUOUS
 62
     5
  5
608
 10
50228.302737
 20
12574.285421
 30
0.0
 11
50301.504537
 21
12501.083621
 31
0.0
  0
LINE
  8
4
  6
CONTINUOUS
 62
     5
  5
609
 10
49615.819289
 20
12488.393251
 30
0.0
 11
49603.12914
 21
12501.083439
 31
0.0
  0
LINE
  8
4
  6
CONTINUOUS
 62
     5
  5
60A
 10
49676.330843
 20
12574.285475
 30
0.0
 11
49603.129175
 21
12501.083474
 31
0.0
  0
LINE
  8
2
  6
CONTINUOUS
 62
     5
  5
60B
 10
50228.302737
 20
12574.285421
 30
0.0
 11
50321.734327
 21
12667.717011
 31
0.0
  0
LINE
  8
3
  6
CONTINUOUS
 62
     5
  5
60C
 10
50907.316807
 20
12667.717011
 30
0.0
 11
50907.316807
 21
13680.393151
 31
0.0
  0
LINE
  8
3
  6
CONTINUOUS
 62
     5
  5
60D
 10
50907.316807
 20
12667.717011
 30
0.0
 11
50321.734327
 21
12667.717011
 31
0.0
  0
LINE
  8
2
  6
CONTINUOUS
 62
     5
  5
60E
 10
49229.816857
 20
14708.393281
 30
0.0
 11
49169.816777
 21
14708.393281
 31
0.0
  0
LINE
  8
2
  6
CONTINUOUS
 62
     5
  5
60F
 10
49229.816857
 20
14683.393411
 30
0.0
 11
49169.816777
 21
14683.393411
 31
0.0
  0
LINE
  8
2
  6
CONTINUOUS
 62
     5
  5
610
 10
49169.816777
 20
14708.393281
 30
0.0
 11
49169.816777
 21
14683.393411
 31
0.0
  0
LINE
  8
2
  6
CONTINUOUS
 62
     5
  5
611
 10
49229.816857
 20
14708.393281
 30
0.0
 11
49229.816857
 21
14683.393411
 31
0.0
  0
LINE
  8
4
  6
CONTINUOUS
 62
     6
  5
612
 10
49189.038637
 20
14677.893301
 30
0.0
 11
49229.816857
 21
14677.893301
 31
0.0
  0
LINE
  8
2
  6
CONTINUOUS
 62
     5
  5
613
 10
49085.816777
 20
13858.826451
 30
0.0
 11
49085.816777
 21
13883.826601
 31
0.0
  0
LINE
  8
2
  6
CONTINUOUS
 62
     5
  5
614
 10
49187.316777
 20
13858.826451
 30
0.0
 11
49187.316777
 21
13883.826601
 31
0.0
  0
LINE
  8
2
  6
CONTINUOUS
 62
     5
  5
615
 10
49187.316777
 20
13858.826451
 30
0.0
 11
49085.816777
 21
13858.826451
 31
0.0
  0
LINE
  8
2
  6
CONTINUOUS
 62
     5
  5
616
 10
49187.316777
 20
13883.826601
 30
0.0
 11
49085.816777
 21
13883.826601
 31
0.0
  0
LINE
  8
4
  6
HIDDEN
 62
     6
  5
617
 10
49189.038637
 20
13887.940361
 30
0.0
 11
49225.038657
 21
13887.940361
 31
0.0
  0
CIRCLE
  8
5
  6
CONTINUOUS
 62
     3
  5
618
 10
49177.316807
 20
12058.393251
 30
0.0
 40
7.5
  0
CIRCLE
  8
5
  6
CONTINUOUS
 62
     3
  5
619
 10
50977.316807
 20
12058.393251
 30
0.0
 40
7.5
  0
LINE
  8
5
  6
CONTINUOUS
 62
     3
  5
61A
 10
49177.316807
 20
12058.393251
 30
0.0
 11
49177.316807
 21
12458.393251
 31
0.0
  0
LINE
  8
5
  6
CONTINUOUS
 62
     3
  5
61B
 10
49177.316807
 20
12058.393251
 30
0.0
 11
50977.316807
 21
12058.393251
 31
0.0
  0
LINE
  8
5
  6
CONTINUOUS
 62
     3
  5
61C
 10
50977.316807
 20
12058.393251
 30
0.0
 11
50977.316807
 21
12458.393251
 31
0.0
  0
TEXT
  8
5
  6
CONTINUOUS
 62
     3
  5
61D
 10
49842.316757
 20
10243.396573
 30
0.0
 40
90.0
  1
450
 41
0.666667
  7

 72
     5
 11
50022.316757
 21
10243.396573
 31
0.0
  0
TEXT
  8
5
  6
CONTINUOUS
 62
     3
  5
61E
 10
50767.316807
 20
10343.396573
 30
0.0
 40
90.0
  1
100
 41
0.666667
  7

 72
     5
 11
50947.316807
 21
10343.396573
 31
0.0
  0
TEXT
  8
5
  6
CONTINUOUS
 62
     3
  5
61F
 10
50122.316807
 20
10343.396573
 30
0.0
 40
90.0
  1
1,100
 41
0.6
  7

 72
     5
 11
50392.316807
 21
10343.396573
 31
0.0
  0
TEXT
  8
5
  6
CONTINUOUS
 62
     3
  5
620
 10
48979.191807
 20
9884.824583
 30
0.0
 40
90.0
  1
2,400
 50
90.0
 41
0.6
  7

 72
     5
 11
48979.191807
 21
10154.824583
 31
0.0
  0
TEXT
  8
1
  6
CONTINUOUS
 62
     3
  5
621
 10
48755.816777
 20
14003.393281
 30
0.0
 40
90.0
  1
3,100
 50
90.0
 41
0.6
  7

 72
     5
 11
48755.816777
 21
14273.393281
 31
0.0
  0
TEXT
  8
1
  6
CONTINUOUS
 62
     3
  5
622
 10
48955.816777
 20
13267.929946
 30
0.0
 40
90.0
  1
800
 50
90.0
 41
0.666667
  7

 72
     5
 11
48955.816777
 21
13447.929946
 31
0.0
  0
TEXT
  8
1
  6
CONTINUOUS
 62
     3
  5
623
 10
48855.816777
 20
13680.643341
 30
0.0
 40
90.0
  1
1,720
 50
90.0
 41
0.6
  7

 72
     5
 11
48855.816777
 21
13950.643341
 31
0.0
  0
TEXT
  8
1
  6
CONTINUOUS
 62
     3
  5
624
 10
48955.816777
 20
14125.180016
 30
0.0
 40
90.0
  1
920
 50
90.0
 41
0.666667
  7

 72
     5
 11
48955.816777
 21
14305.180016
 31
0.0
  0
TEXT
  8
1
  6
CONTINUOUS
 62
     3
  5
625
 10
48855.816777
 20
12682.143281
 30
0.0
 40
90.0
  1
370
 50
90.0
 41
0.666667
  7

 72
     5
 11
48855.816777
 21
12862.143281
 31
0.0
  0
TEXT
  8
1
  6
CONTINUOUS
 62
     3
  5
626
 10
48855.816777
 20
15047.143341
 30
0.0
 40
90.0
  1
1,010
 50
90.0
 41
0.6
  7

 72
     5
 11
48855.816777
 21
15317.143341
 31
0.0
  0
TEXT
  8
5
  6
CONTINUOUS
 62
     3
  5
627
 10
49942.316807
 20
12058.393251
 30
0.0
 40
90.0
  1
1,800
 41
0.6
  7

 72
     5
 11
50212.316807
 21
12058.393251
 31
0.0
  0
TEXT
  8
5
  6
CONTINUOUS
 62
     3
  5
628
 10
49827.98353
 20
11813.29245
 30
0.0
 40
125.0
  1
平面図
 41
0.837
  7

 72
     5
 11
50202.98353
 21
11813.29245
 31
0.0
  0
TEXT
  8
5
  6
CONTINUOUS
 62
     3
  5
629
 10
49613.082842
 20
8548.770056
 30
0.0
 40
125.0
  1
テスリックス
 41
0.837
  7

 72
     5
 11
50363.082842
 21
8548.770056
 31
0.0
  0
TEXT
  8
5
  6
CONTINUOUS
 62
     3
  5
62A
 10
49613.082842
 20
8423.770056
 30
0.0
 40
125.0
  1
取付側展開図
 41
0.837
  7

 72
     5
 11
50363.082842
 21
8423.770056
 31
0.0
  0
LINE
  8
40
  6
CONTINUOUS
 62
     3
  5
62B
 10
50809.316807
 20
8894.824623
 30
0.0
 11
50756.016847
 21
8894.824623
 31
0.0
  0
LINE
  8
40
  6
CONTINUOUS
 62
     3
  5
62C
 10
50650.629525
 20
8894.824623
 30
0.0
 11
50704.017067
 21
8894.824623
 31
0.0
  0
LINE
  8
40
  6
CONTINUOUS
 62
     3
  5
62D
 10
50809.316807
 20
10015.824503
 30
0.0
 11
50907.316807
 21
10015.824503
 31
0.0
  0
LINE
  8
40
  6
CONTINUOUS
 62
     4
  5
62E
 10
49693.316747
 20
15613.143691
 30
0.0
 11
49693.316747
 21
15573.928721
 31
0.0
  0
ARC
  8
40
  6
CONTINUOUS
 62
     4
  5
62F
 10
49703.316747
 20
15573.928721
 30
0.0
 40
10.0
 50
180.0
 51
270.0
  0
LINE
  8
40
  6
CONTINUOUS
 62
     4
  5
630
 10
50161.627727
 20
15563.928721
 30
0.0
 11
49703.316747
 21
15563.928721
 31
0.0
  0
ARC
  8
40
  6
CONTINUOUS
 62
     4
  5
631
 10
50161.627727
 20
15573.928721
 30
0.0
 40
10.0
 50
270.0
 51
0.0
  0
LINE
  8
40
  6
CONTINUOUS
 62
     4
  5
632
 10
50171.627727
 20
15585.928741
 30
0.0
 11
50171.627727
 21
15573.928721
 31
0.0
  0
LINE
  8
8
  6
CONTINUOUS
 62
     3
  5
633
 10
50140.316307
 20
15616.722371
 30
0.0
 11
50113.820747
 21
15623.559901
 31
0.0
  0
LINE
  8
12
  6
CONTINUOUS
 62
     5
  5
634
 10
49092.316837
 20
15720.893291
 30
0.0
 11
51027.316897
 21
15720.893291
 31
0.0
  0
LINE
  8
3
  6
CONTINUOUS
 62
     5
  5
635
 10
49217.316817
 20
15635.893411
 30
0.0
 11
50907.316807
 21
15635.893411
 31
0.0
  0
LINE
  8
40
  6
CONTINUOUS
 62
     3
  5
636
 10
50184.182676
 20
8894.824623
 30
0.0
 11
49209.801182
 21
8894.824623
 31
0.0
  0
LINE
  8
5
  6
CONTINUOUS
 62
     3
  5
637
 10
48979.316807
 20
8819.824593
 30
0.0
 11
48979.316807
 21
11219.824573
 31
0.0
  0
CIRCLE
  8
5
  6
CONTINUOUS
 62
     3
  5
638
 10
48979.316807
 20
8819.824593
 30
0.0
 40
7.5
  0
LINE
  8
40
  6
CONTINUOUS
 62
     4
  5
639
 10
49209.316807
 20
8819.824593
 30
0.0
 11
49209.316807
 21
11219.824573
 31
0.0
  0
LINE
  8
3
  6
CONTINUOUS
 62
     5
  5
63A
 10
49217.316817
 20
14683.393271
 30
0.0
 11
49217.316817
 21
15635.893411
 31
0.0
  0
LINE
  8
2
  6
CONTINUOUS
 62
     5
  5
63B
 10
49095.816837
 20
12929.893261
 30
0.0
 11
49252.316817
 21
12929.893261
 31
0.0
  0
LINE
  8
2
  6
CONTINUOUS
 62
     5
  5
63C
 10
49252.316817
 20
12957.893271
 30
0.0
 11
49252.316817
 21
12929.893261
 31
0.0
  0
LINE
  8
3
  6
CONTINUOUS
 62
     5
  5
63D
 10
49095.816837
 20
12929.893261
 30
0.0
 11
49095.816837
 21
12488.393251
 31
0.0
  0
LINE
  8
3
  6
CONTINUOUS
 62
     5
  5
63E
 10
49242.316757
 20
12669.893241
 30
0.0
 11
49242.316757
 21
12929.893261
 31
0.0
  0
LINE
  8
3
  6
CONTINUOUS
 62
     5
  5
63F
 10
49242.316757
 20
12669.893241
 30
0.0
 11
49580.722937
 21
12669.893241
 31
0.0
  0
TEXT
  8
8
  6
CONTINUOUS
 62
     2
  5
640
 10
49866.868562
 20
12482.464264
 30
0.0
 40
90.0
  1
出窓
 50
360.0
 41
0.837
  7

 72
     5
 11
50046.868562
 21
12482.464264
 31
0.0
  0
TEXT
  8
8
  6
CONTINUOUS
 62
     2
  5
641
 10
49258.213585
 20
13361.632564
 30
0.0
 40
90.0
  1
引戸
 50
360.0
 41
0.837
  7

 72
     5
 11
49438.213585
 21
13361.632564
 31
0.0
  0
LINE
  8
2
  6
DOT
 62
     3
  5
642
 10
49352.495262
 20
13604.355191
 30
0.0
 11
49352.495262
 21
14099.354495
 31
0.0
  0
LINE
  8
2
  6
DOT
 62
     3
  5
643
 10
49464.725034
 20
14171.807458
 30
0.0
 11
49462.093884
 21
13929.032298
 31
0.0
  0
LINE
  8
2
  6
DOT
 62
     3
  5
644
 10
49374.995331
 20
13559.355052
 30
0.0
 11
49374.995331
 21
14144.354634
 31
0.0
  0
LINE
  8
2
  6
DOT
 62
     3
  5
645
 10
49486.205157
 20
13931.608888
 30
0.0
 11
49502.252616
 21
14021.475549
 31
0.0
  0
LINE
  8
2
  6
DOT
 62
     3
  5
646
 10
49502.252616
 20
14021.475549
 30
0.0
 11
49519.922414
 21
14076.038245
 31
0.0
  0
LINE
  8
2
  6
DOT
 62
     3
  5
647
 10
49535.747177
 20
14304.488499
 30
0.0
 11
49558.811781
 21
14477.288187
 31
0.0
  0
LINE
  8
2
  6
DOT
 62
     3
  5
648
 10
49558.811781
 20
14477.288187
 30
0.0
 11
49562.020827
 21
14496.545806
 31
0.0
  0
LINE
  8
2
  6
DOT
 62
     3
  5
649
 10
49562.020827
 20
14496.545806
 30
0.0
 11
49545.973368
 21
14573.575168
 31
0.0
  0
LINE
  8
2
  6
DOT
 62
     3
  5
64A
 10
49545.973368
 20
14573.575168
 30
0.0
 11
49545.973368
 21
14596.041833
 31
0.0
  0
LINE
  8
2
  6
DOT
 62
     3
  5
64B
 10
49545.973368
 20
14596.041833
 30
0.0
 11
49558.811781
 21
14608.880246
 31
0.0
  0
LINE
  8
2
  6
DOT
 62
     3
  5
64C
 10
49558.811781
 20
14608.880246
 30
0.0
 11
49594.116858
 21
14608.880246
 31
0.0
  0
LINE
  8
2
  6
DOT
 62
     3
  5
64D
 10
49594.116858
 20
14608.880246
 30
0.0
 11
49610.164317
 21
14605.670086
 31
0.0
  0
LINE
  8
2
  6
DOT
 62
     3
  5
64E
 10
49610.164317
 20
14605.670086
 30
0.0
 11
49616.583524
 21
14599.25088
 31
0.0
  0
LINE
  8
2
  6
DOT
 62
     3
  5
64F
 10
49616.583524
 20
14599.25088
 30
0.0
 11
49613.374477
 21
14576.784214
 31
0.0
  0
LINE
  8
2
  6
DOT
 62
     3
  5
650
 10
49613.374477
 20
14576.784214
 30
0.0
 11
49610.164317
 21
14525.431678
 31
0.0
  0
LINE
  8
2
  6
DOT
 62
     3
  5
651
 10
49610.164317
 20
14525.431678
 30
0.0
 11
49603.745111
 21
14480.497234
 31
0.0
  0
LINE
  8
2
  6
DOT
 62
     3
  5
652
 10
49603.745111
 20
14480.497234
 30
0.0
 11
49606.075623
 21
14411.733226
 31
0.0
  0
LINE
  8
2
  6
DOT
 62
     3
  5
653
 10
49645.55736
 20
14188.428359
 30
0.0
 11
49654.359411
 21
14149.913121
 31
0.0
  0
LINE
  8
2
  6
DOT
 62
     3
  5
654
 10
49654.359411
 20
14149.913121
 30
0.0
 11
49663.987664
 21
14082.512012
 31
0.0
  0
LINE
  8
2
  6
DOT
 62
     3
  5
655
 10
49663.987664
 20
14082.512012
 30
0.0
 11
49689.995192
 21
14065.541479
 31
0.0
  0
LINE
  8
2
  6
DOT
 62
     3
  5
656
 10
49519.922414
 20
14076.038245
 30
0.0
 11
49510.293048
 21
14172.324113
 31
0.0
  0
LINE
  8
2
  6
DOT
 62
     3
  5
657
 10
49510.293048
 20
14172.324113
 30
0.0
 11
49535.747177
 21
14304.488499
 31
0.0
  0
LINE
  8
2
  6
DOT
 62
     3
  5
658
 10
49606.075623
 20
14411.733226
 30
0.0
 11
49614.608212
 21
14371.786055
 31
0.0
  0
LINE
  8
2
  6
DOT
 62
     3
  5
659
 10
49614.608212
 20
14371.786055
 30
0.0
 11
49614.291984
 21
14302.477556
 31
0.0
  0
LINE
  8
2
  6
DOT
 62
     3
  5
65A
 10
49614.291984
 20
14302.477556
 30
0.0
 11
49619.595484
 21
14250.510379
 31
0.0
  0
LINE
  8
2
  6
DOT
 62
     3
  5
65B
 10
49619.595484
 20
14250.510379
 30
0.0
 11
49643.732368
 21
14217.168365
 31
0.0
  0
LINE
  8
2
  6
DOT
 62
     3
  5
65C
 10
49643.732368
 20
14217.168365
 30
0.0
 11
49645.55736
 21
14188.428359
 31
0.0
  0
LINE
  8
2
  6
DOT
 62
     3
  5
65D
 10
49493.230096
 20
13803.545444
 30
0.0
 11
49409.608939
 21
13843.356771
 31
0.0
  0
LINE
  8
2
  6
DOT
 62
     3
  5
65E
 10
49409.608939
 20
13843.356771
 30
0.0
 11
49385.928581
 21
13871.592371
 31
0.0
  0
LINE
  8
2
  6
DOT
 62
     3
  5
65F
 10
49385.928581
 20
13871.592371
 30
0.0
 11
49375.909498
 21
13892.541365
 31
0.0
  0
LINE
  8
2
  6
DOT
 62
     3
  5
660
 10
49375.909498
 20
13892.541365
 30
0.0
 11
49375.909498
 21
13929.885222
 31
0.0
  0
LINE
  8
2
  6
DOT
 62
     3
  5
661
 10
49407.341896
 20
13988.00103
 30
0.0
 11
49406.154927
 21
14025.985139
 31
0.0
  0
LINE
  8
2
  6
DOT
 62
     3
  5
662
 10
49406.154927
 20
14025.985139
 30
0.0
 11
49415.315519
 21
14178.356942
 31
0.0
  0
LINE
  8
2
  6
DOT
 62
     3
  5
663
 10
49375.909498
 20
13929.885222
 30
0.0
 11
49381.228587
 21
13964.261659
 31
0.0
  0
LINE
  8
2
  6
DOT
 62
     3
  5
664
 10
49381.228587
 20
13964.261659
 30
0.0
 11
49388.350398
 21
13973.757407
 31
0.0
  0
LINE
  8
2
  6
DOT
 62
     3
  5
665
 10
49388.350398
 20
13973.757407
 30
0.0
 11
49407.341896
 21
13988.00103
 31
0.0
  0
LINE
  8
2
  6
DOT
 62
     3
  5
666
 10
49603.438904
 20
13767.592322
 30
0.0
 11
49493.230096
 21
13803.545444
 31
0.0
  0
LINE
  8
2
  6
DOT
 62
     3
  5
667
 10
49915.26535
 20
14171.807458
 30
0.0
 11
49917.896501
 21
13929.032298
 31
0.0
  0
LINE
  8
2
  6
DOT
 62
     3
  5
668
 10
49893.785227
 20
13931.608888
 30
0.0
 11
49887.332617
 21
14018.266502
 31
0.0
  0
LINE
  8
2
  6
DOT
 62
     3
  5
669
 10
49887.332617
 20
14018.266502
 30
0.0
 11
49880.912297
 21
14072.829199
 31
0.0
  0
LINE
  8
2
  6
DOT
 62
     3
  5
66A
 10
49844.243207
 20
14304.488499
 30
0.0
 11
49821.178604
 21
14477.288187
 31
0.0
  0
LINE
  8
2
  6
DOT
 62
     3
  5
66B
 10
49821.178604
 20
14477.288187
 30
0.0
 11
49817.969558
 21
14496.545806
 31
0.0
  0
LINE
  8
2
  6
DOT
 62
     3
  5
66C
 10
49817.969558
 20
14496.545806
 30
0.0
 11
49834.017016
 21
14573.575168
 31
0.0
  0
LINE
  8
2
  6
DOT
 62
     3
  5
66D
 10
49834.017016
 20
14573.575168
 30
0.0
 11
49834.017016
 21
14596.041833
 31
0.0
  0
LINE
  8
2
  6
DOT
 62
     3
  5
66E
 10
49834.017016
 20
14596.041833
 30
0.0
 11
49821.178604
 21
14608.880246
 31
0.0
  0
LINE
  8
2
  6
DOT
 62
     3
  5
66F
 10
49821.178604
 20
14608.880246
 30
0.0
 11
49785.873526
 21
14608.880246
 31
0.0
  0
LINE
  8
2
  6
DOT
 62
     3
  5
670
 10
49785.873526
 20
14608.880246
 30
0.0
 11
49769.826067
 21
14605.670086
 31
0.0
  0
LINE
  8
2
  6
DOT
 62
     3
  5
671
 10
49769.826067
 20
14605.670086
 30
0.0
 11
49763.406861
 21
14599.25088
 31
0.0
  0
LINE
  8
2
  6
DOT
 62
     3
  5
672
 10
49763.406861
 20
14599.25088
 30
0.0
 11
49766.615907
 21
14576.784214
 31
0.0
  0
LINE
  8
2
  6
DOT
 62
     3
  5
673
 10
49766.615907
 20
14576.784214
 30
0.0
 11
49769.826067
 21
14525.431678
 31
0.0
  0
LINE
  8
2
  6
DOT
 62
     3
  5
674
 10
49769.826067
 20
14525.431678
 30
0.0
 11
49776.245273
 21
14480.497234
 31
0.0
  0
LINE
  8
2
  6
DOT
 62
     3
  5
675
 10
49776.245273
 20
14480.497234
 30
0.0
 11
49773.914762
 21
14411.733226
 31
0.0
  0
LINE
  8
2
  6
DOT
 62
     3
  5
676
 10
49734.433025
 20
14188.428359
 30
0.0
 11
49725.630973
 21
14149.913121
 31
0.0
  0
LINE
  8
2
  6
DOT
 62
     3
  5
677
 10
49725.630973
 20
14149.913121
 30
0.0
 11
49716.002721
 21
14082.512012
 31
0.0
  0
LINE
  8
2
  6
DOT
 62
     3
  5
678
 10
49716.002721
 20
14082.512012
 30
0.0
 11
49689.995192
 21
14065.541479
 31
0.0
  0
LINE
  8
2
  6
DOT
 62
     3
  5
679
 10
49880.912297
 20
14072.829199
 30
0.0
 11
49845.608333
 21
14149.857447
 31
0.0
  0
LINE
  8
2
  6
DOT
 62
     3
  5
67A
 10
49845.608333
 20
14149.857447
 30
0.0
 11
49844.243207
 21
14304.488499
 31
0.0
  0
LINE
  8
2
  6
DOT
 62
     3
  5
67B
 10
49773.914762
 20
14411.733226
 30
0.0
 11
49765.382173
 21
14371.786055
 31
0.0
  0
LINE
  8
2
  6
DOT
 62
     3
  5
67C
 10
49765.382173
 20
14371.786055
 30
0.0
 11
49765.698401
 21
14302.477556
 31
0.0
  0
LINE
  8
2
  6
DOT
 62
     3
  5
67D
 10
49765.698401
 20
14302.477556
 30
0.0
 11
49760.3949
 21
14250.510379
 31
0.0
  0
LINE
  8
2
  6
DOT
 62
     3
  5
67E
 10
49760.3949
 20
14250.510379
 30
0.0
 11
49736.258017
 21
14217.168365
 31
0.0
  0
LINE
  8
2
  6
DOT
 62
     3
  5
67F
 10
49736.258017
 20
14217.168365
 30
0.0
 11
49734.433025
 21
14188.428359
 31
0.0
  0
LINE
  8
2
  6
DOT
 62
     3
  5
680
 10
49886.760288
 20
13803.545444
 30
0.0
 11
49970.381446
 21
13843.356771
 31
0.0
  0
LINE
  8
2
  6
DOT
 62
     3
  5
681
 10
49970.381446
 20
13843.356771
 30
0.0
 11
49994.061803
 21
13871.592371
 31
0.0
  0
LINE
  8
2
  6
DOT
 62
     3
  5
682
 10
49994.061803
 20
13871.592371
 30
0.0
 11
50004.080887
 21
13892.541365
 31
0.0
  0
LINE
  8
2
  6
DOT
 62
     3
  5
683
 10
50004.080887
 20
13892.541365
 30
0.0
 11
50004.080887
 21
13929.885222
 31
0.0
  0
LINE
  8
2
  6
DOT
 62
     3
  5
684
 10
49972.648489
 20
13988.00103
 30
0.0
 11
49973.835458
 21
14025.985139
 31
0.0
  0
LINE
  8
2
  6
DOT
 62
     3
  5
685
 10
49973.835458
 20
14025.985139
 30
0.0
 11
49964.674866
 21
14178.356942
 31
0.0
  0
LINE
  8
2
  6
DOT
 62
     3
  5
686
 10
50004.080887
 20
13929.885222
 30
0.0
 11
49998.761798
 21
13964.261659
 31
0.0
  0
LINE
  8
2
  6
DOT
 62
     3
  5
687
 10
49998.761798
 20
13964.261659
 30
0.0
 11
49991.639986
 21
13973.757407
 31
0.0
  0
LINE
  8
2
  6
DOT
 62
     3
  5
688
 10
49991.639986
 20
13973.757407
 30
0.0
 11
49972.648489
 21
13988.00103
 31
0.0
  0
LINE
  8
2
  6
DOT
 62
     3
  5
689
 10
49768.90188
 20
13765.097015
 30
0.0
 11
49886.760288
 21
13803.545444
 31
0.0
  0
LINE
  8
2
  6
DOT
 62
     3
  5
68A
 10
49374.995331
 20
13559.355052
 30
0.0
 11
49419.995471
 21
13559.355052
 31
0.0
  0
LINE
  8
2
  6
DOT
 62
     3
  5
68B
 10
49352.495262
 20
13604.355191
 30
0.0
 11
49374.995331
 21
13604.355191
 31
0.0
  0
LINE
  8
2
  6
DOT
 62
     3
  5
68C
 10
49352.495262
 20
14099.354495
 30
0.0
 11
49374.995331
 21
14099.354495
 31
0.0
  0
LINE
  8
2
  6
DOT
 62
     3
  5
68D
 10
49374.995331
 20
14144.354634
 30
0.0
 11
49413.271171
 21
14144.354634
 31
0.0
  0
LINE
  8
2
  6
DOT
 62
     3
  5
68E
 10
49419.995471
 20
13559.355052
 30
0.0
 11
49419.995471
 21
13838.411811
 31
0.0
  0
LINE
  8
2
  6
DOT
 62
     3
  5
68F
 10
49530.906884
 20
14279.355052
 30
0.0
 11
49442.49554
 21
14279.355052
 31
0.0
  0
LINE
  8
2
  6
DOT
 62
     3
  5
690
 10
49442.49554
 20
14369.35533
 30
0.0
 11
49464.99561
 21
14369.35533
 31
0.0
  0
LINE
  8
2
  6
DOT
 62
     3
  5
691
 10
49442.49554
 20
14436.855539
 30
0.0
 11
49464.99561
 21
14436.855539
 31
0.0
  0
LINE
  8
2
  6
DOT
 62
     3
  5
692
 10
49442.49554
 20
14190.493862
 30
0.0
 11
49442.49554
 21
14391.8554
 31
0.0
  0
LINE
  8
2
  6
DOT
 62
     3
  5
693
 10
49428.995721
 20
14391.8554
 30
0.0
 11
49464.99561
 21
14391.8554
 31
0.0
  0
LINE
  8
2
  6
DOT
 62
     3
  5
694
 10
49428.995721
 20
14391.8554
 30
0.0
 11
49428.995721
 21
14414.355469
 31
0.0
  0
LINE
  8
2
  6
DOT
 62
     3
  5
695
 10
49428.995721
 20
14414.355469
 30
0.0
 11
49464.99561
 21
14414.355469
 31
0.0
  0
LINE
  8
2
  6
DOT
 62
     3
  5
696
 10
49442.49554
 20
14414.355469
 30
0.0
 11
49442.49554
 21
14436.855539
 31
0.0
  0
LINE
  8
2
  6
DOT
 62
     3
  5
697
 10
49464.99561
 20
14594.354913
 30
0.0
 11
49464.99561
 21
14171.807458
 31
0.0
  0
LINE
  8
2
  6
DOT
 62
     3
  5
698
 10
49473.99586
 20
14279.355052
 30
0.0
 11
49473.99586
 21
14459.354495
 31
0.0
  0
LINE
  8
2
  6
DOT
 62
     3
  5
699
 10
49482.996111
 20
14459.354495
 30
0.0
 11
49482.996111
 21
14594.354913
 31
0.0
  0
LINE
  8
2
  6
DOT
 62
     3
  5
69A
 10
49464.99561
 20
14594.354913
 30
0.0
 11
49545.973368
 21
14594.354913
 31
0.0
  0
LINE
  8
2
  6
DOT
 62
     3
  5
69B
 10
49834.017016
 20
14594.354913
 30
0.0
 11
49914.995331
 21
14594.354913
 31
0.0
  0
LINE
  8
2
  6
DOT
 62
     3
  5
69C
 10
49464.99561
 20
13816.987362
 30
0.0
 11
49464.99561
 21
13739.354495
 31
0.0
  0
LINE
  8
2
  6
DOT
 62
     3
  5
69D
 10
49476.245088
 20
13671.854286
 30
0.0
 11
49453.746132
 21
13671.854286
 31
0.0
  0
LINE
  8
2
  6
DOT
 62
     3
  5
69E
 10
49453.746132
 20
13671.854286
 30
0.0
 11
49453.746132
 21
13739.354495
 31
0.0
  0
LINE
  8
2
  6
DOT
 62
     3
  5
69F
 10
49453.746132
 20
13739.354495
 30
0.0
 11
49476.245088
 21
13739.354495
 31
0.0
  0
LINE
  8
2
  6
DOT
 62
     3
  5
6A0
 10
49476.245088
 20
13739.354495
 30
0.0
 11
49476.245088
 21
13671.854286
 31
0.0
  0
LINE
  8
2
  6
DOT
 62
     3
  5
6A1
 10
49849.0835
 20
14279.355052
 30
0.0
 11
49937.494844
 21
14279.355052
 31
0.0
  0
LINE
  8
2
  6
DOT
 62
     3
  5
6A2
 10
49937.494844
 20
14369.35533
 30
0.0
 11
49914.994775
 21
14369.35533
 31
0.0
  0
LINE
  8
2
  6
DOT
 62
     3
  5
6A3
 10
49937.494844
 20
14436.855539
 30
0.0
 11
49914.994775
 21
14436.855539
 31
0.0
  0
LINE
  8
2
  6
DOT
 62
     3
  5
6A4
 10
49937.494844
 20
14190.493862
 30
0.0
 11
49937.494844
 21
14391.8554
 31
0.0
  0
LINE
  8
2
  6
DOT
 62
     3
  5
6A5
 10
49950.994663
 20
14391.8554
 30
0.0
 11
49914.994775
 21
14391.8554
 31
0.0
  0
LINE
  8
2
  6
DOT
 62
     3
  5
6A6
 10
49950.994663
 20
14391.8554
 30
0.0
 11
49950.994663
 21
14414.355469
 31
0.0
  0
LINE
  8
2
  6
DOT
 62
     3
  5
6A7
 10
49950.994663
 20
14414.355469
 30
0.0
 11
49914.994775
 21
14414.355469
 31
0.0
  0
LINE
  8
2
  6
DOT
 62
     3
  5
6A8
 10
49937.494844
 20
14414.355469
 30
0.0
 11
49937.494844
 21
14436.855539
 31
0.0
  0
LINE
  8
2
  6
DOT
 62
     3
  5
6A9
 10
49914.994775
 20
14594.354913
 30
0.0
 11
49914.994775
 21
14171.807458
 31
0.0
  0
LINE
  8
2
  6
DOT
 62
     3
  5
6AA
 10
49905.994524
 20
14279.355052
 30
0.0
 11
49905.994524
 21
14459.354495
 31
0.0
  0
LINE
  8
2
  6
DOT
 62
     3
  5
6AB
 10
49896.994274
 20
14459.354495
 30
0.0
 11
49896.994274
 21
14594.354913
 31
0.0
  0
LINE
  8
2
  6
DOT
 62
     3
  5
6AC
 10
49914.994775
 20
14594.354913
 30
0.0
 11
49834.017016
 21
14594.354913
 31
0.0
  0
LINE
  8
2
  6
DOT
 62
     3
  5
6AD
 10
49914.994775
 20
13816.987362
 30
0.0
 11
49914.994775
 21
13739.354495
 31
0.0
  0
LINE
  8
2
  6
DOT
 62
     3
  5
6AE
 10
49903.745297
 20
13671.854286
 30
0.0
 11
49926.244253
 21
13671.854286
 31
0.0
  0
LINE
  8
2
  6
DOT
 62
     3
  5
6AF
 10
49926.244253
 20
13671.854286
 30
0.0
 11
49926.244253
 21
13739.354495
 31
0.0
  0
LINE
  8
2
  6
DOT
 62
     3
  5
6B0
 10
49926.244253
 20
13739.354495
 30
0.0
 11
49903.745297
 21
13739.354495
 31
0.0
  0
LINE
  8
2
  6
DOT
 62
     3
  5
6B1
 10
49903.745297
 20
13739.354495
 30
0.0
 11
49903.745297
 21
13671.854286
 31
0.0
  0
LINE
  8
2
  6
DOT
 62
     3
  5
6B2
 10
49556.417801
 20
14459.354495
 30
0.0
 11
49464.99561
 21
14459.354495
 31
0.0
  0
LINE
  8
2
  6
DOT
 62
     3
  5
6B3
 10
49823.572584
 20
14459.354495
 30
0.0
 11
49914.994775
 21
14459.354495
 31
0.0
  0
LINE
  8
2
  6
DOT
 62
     3
  5
6B4
 10
50027.495123
 20
13604.355191
 30
0.0
 11
50027.495123
 21
14099.354495
 31
0.0
  0
LINE
  8
2
  6
DOT
 62
     3
  5
6B5
 10
50004.995053
 20
13559.355052
 30
0.0
 11
50004.995053
 21
14144.354634
 31
0.0
  0
LINE
  8
2
  6
DOT
 62
     3
  5
6B6
 10
50004.995053
 20
13559.355052
 30
0.0
 11
49959.994914
 21
13559.355052
 31
0.0
  0
LINE
  8
2
  6
DOT
 62
     3
  5
6B7
 10
50027.495123
 20
13604.355191
 30
0.0
 11
50004.995053
 21
13604.355191
 31
0.0
  0
LINE
  8
2
  6
DOT
 62
     3
  5
6B8
 10
50027.495123
 20
14099.354495
 30
0.0
 11
50004.995053
 21
14099.354495
 31
0.0
  0
LINE
  8
2
  6
DOT
 62
     3
  5
6B9
 10
50004.995053
 20
14144.354634
 30
0.0
 11
49966.719213
 21
14144.354634
 31
0.0
  0
LINE
  8
2
  6
DOT
 62
     3
  5
6BA
 10
49959.994914
 20
13559.355052
 30
0.0
 11
49959.994914
 21
13838.411811
 31
0.0
  0
LINE
  8
2
  6
DOT
 62
     3
  5
6BB
 10
49616.651446
 20
14279.355052
 30
0.0
 11
49763.338939
 21
14279.355052
 31
0.0
  0
LINE
  8
2
  6
DOT
 62
     3
  5
6BC
 10
49667.495123
 20
14459.354495
 30
0.0
 11
49667.495123
 21
14594.354913
 31
0.0
  0
LINE
  8
2
  6
DOT
 62
     3
  5
6BD
 10
49712.495262
 20
14459.354495
 30
0.0
 11
49712.495262
 21
14594.354913
 31
0.0
  0
LINE
  8
2
  6
DOT
 62
     3
  5
6BE
 10
49604.462192
 20
14459.354495
 30
0.0
 11
49667.495123
 21
14459.354495
 31
0.0
  0
LINE
  8
2
  6
DOT
 62
     3
  5
6BF
 10
49712.495262
 20
14459.354495
 30
0.0
 11
49775.528193
 21
14459.354495
 31
0.0
  0
LINE
  8
2
  6
DOT
 62
     3
  5
6C0
 10
49621.479491
 20
14594.354913
 30
0.0
 11
49667.495123
 21
14594.354913
 31
0.0
  0
LINE
  8
2
  6
DOT
 62
     3
  5
6C1
 10
49712.495262
 20
14594.354913
 30
0.0
 11
49764.106126
 21
14594.354913
 31
0.0
  0
LINE
  8
2
  6
DOT
 62
     3
  5
6C2
 10
49686.977664
 20
13739.282493
 30
0.0
 11
49694.331428
 21
13739.710589
 31
0.0
  0
LINE
  8
2
  6
DOT
 62
     3
  5
6C3
 10
49694.331428
 20
13739.710589
 30
0.0
 11
49701.629226
 21
13740.99162
 31
0.0
  0
LINE
  8
2
  6
DOT
 62
     3
  5
6C4
 10
49701.629226
 20
13740.99162
 30
0.0
 11
49708.815516
 21
13743.115837
 31
0.0
  0
LINE
  8
2
  6
DOT
 62
     3
  5
6C5
 10
49708.815516
 20
13743.115837
 30
0.0
 11
49715.835607
 21
13746.067072
 31
0.0
  0
LINE
  8
2
  6
DOT
 62
     3
  5
6C6
 10
49715.835607
 20
13746.067072
 30
0.0
 11
49722.636072
 21
13749.822864
 31
0.0
  0
LINE
  8
2
  6
DOT
 62
     3
  5
6C7
 10
49722.636072
 20
13749.822864
 30
0.0
 11
49729.165154
 21
13754.354632
 31
0.0
  0
LINE
  8
2
  6
DOT
 62
     3
  5
6C8
 10
49729.165154
 20
13754.354632
 30
0.0
 11
49735.373165
 21
13759.627883
 31
0.0
  0
LINE
  8
2
  6
DOT
 62
     3
  5
6C9
 10
49735.373165
 20
13759.627883
 30
0.0
 11
49741.212856
 21
13765.602487
 31
0.0
  0
LINE
  8
2
  6
DOT
 62
     3
  5
6CA
 10
49741.212856
 20
13765.602487
 30
0.0
 11
49746.639785
 21
13772.232972
 31
0.0
  0
LINE
  8
2
  6
DOT
 62
     3
  5
6CB
 10
49746.639785
 20
13772.232972
 30
0.0
 11
49751.612649
 21
13779.468878
 31
0.0
  0
LINE
  8
2
  6
DOT
 62
     3
  5
6CC
 10
49751.612649
 20
13779.468878
 30
0.0
 11
49756.093602
 21
13787.255133
 31
0.0
  0
LINE
  8
2
  6
DOT
 62
     3
  5
6CD
 10
49756.093602
 20
13787.255133
 30
0.0
 11
49760.048541
 21
13795.53248
 31
0.0
  0
LINE
  8
2
  6
DOT
 62
     3
  5
6CE
 10
49760.048541
 20
13795.53248
 30
0.0
 11
49763.447366
 21
13804.237923
 31
0.0
  0
LINE
  8
2
  6
DOT
 62
     3
  5
6CF
 10
49763.447366
 20
13804.237923
 30
0.0
 11
49766.264211
 21
13813.30521
 31
0.0
  0
LINE
  8
2
  6
DOT
 62
     3
  5
6D0
 10
49766.264211
 20
13813.30521
 30
0.0
 11
49768.477637
 21
13822.665331
 31
0.0
  0
LINE
  8
2
  6
DOT
 62
     3
  5
6D1
 10
49768.477637
 20
13822.665331
 30
0.0
 11
49770.070799
 21
13832.247051
 31
0.0
  0
LINE
  8
2
  6
DOT
 62
     3
  5
6D2
 10
49770.070799
 20
13832.247051
 30
0.0
 11
49771.031572
 21
13841.977448
 31
0.0
  0
LINE
  8
2
  6
DOT
 62
     3
  5
6D3
 10
49771.031572
 20
13841.977448
 30
0.0
 11
49771.352645
 21
13851.782467
 31
0.0
  0
LINE
  8
2
  6
DOT
 62
     3
  5
6D4
 10
49771.352645
 20
13851.782467
 30
0.0
 11
49771.031572
 21
13861.587486
 31
0.0
  0
LINE
  8
2
  6
DOT
 62
     3
  5
6D5
 10
49771.031572
 20
13861.587486
 30
0.0
 11
49770.070799
 21
13871.317882
 31
0.0
  0
LINE
  8
2
  6
DOT
 62
     3
  5
6D6
 10
49770.070799
 20
13871.317882
 30
0.0
 11
49768.477637
 21
13880.899603
 31
0.0
  0
LINE
  8
2
  6
DOT
 62
     3
  5
6D7
 10
49768.477637
 20
13880.899603
 30
0.0
 11
49766.264211
 21
13890.259724
 31
0.0
  0
LINE
  8
2
  6
DOT
 62
     3
  5
6D8
 10
49766.264211
 20
13890.259724
 30
0.0
 11
49763.447366
 21
13899.32701
 31
0.0
  0
LINE
  8
2
  6
DOT
 62
     3
  5
6D9
 10
49763.447366
 20
13899.32701
 30
0.0
 11
49760.048541
 21
13908.032454
 31
0.0
  0
LINE
  8
2
  6
DOT
 62
     3
  5
6DA
 10
49760.048541
 20
13908.032454
 30
0.0
 11
49756.093602
 21
13916.309801
 31
0.0
  0
LINE
  8
2
  6
DOT
 62
     3
  5
6DB
 10
49756.093602
 20
13916.309801
 30
0.0
 11
49751.612649
 21
13924.096056
 31
0.0
  0
LINE
  8
2
  6
DOT
 62
     3
  5
6DC
 10
49751.612649
 20
13924.096056
 30
0.0
 11
49746.639785
 21
13931.331961
 31
0.0
  0
LINE
  8
2
  6
DOT
 62
     3
  5
6DD
 10
49746.639785
 20
13931.331961
 30
0.0
 11
49741.212856
 21
13937.962447
 31
0.0
  0
LINE
  8
2
  6
DOT
 62
     3
  5
6DE
 10
49741.212856
 20
13937.962447
 30
0.0
 11
49735.373165
 21
13943.93705
 31
0.0
  0
LINE
  8
2
  6
DOT
 62
     3
  5
6DF
 10
49735.373165
 20
13943.93705
 30
0.0
 11
49729.165154
 21
13949.210302
 31
0.0
  0
LINE
  8
2
  6
DOT
 62
     3
  5
6E0
 10
49729.165154
 20
13949.210302
 30
0.0
 11
49722.636072
 21
13953.742069
 31
0.0
  0
LINE
  8
2
  6
DOT
 62
     3
  5
6E1
 10
49722.636072
 20
13953.742069
 30
0.0
 11
49715.835607
 21
13957.497862
 31
0.0
  0
LINE
  8
2
  6
DOT
 62
     3
  5
6E2
 10
49715.835607
 20
13957.497862
 30
0.0
 11
49708.815516
 21
13960.449097
 31
0.0
  0
LINE
  8
2
  6
DOT
 62
     3
  5
6E3
 10
49708.815516
 20
13960.449097
 30
0.0
 11
49701.629226
 21
13962.573313
 31
0.0
  0
LINE
  8
2
  6
DOT
 62
     3
  5
6E4
 10
49701.629226
 20
13962.573313
 30
0.0
 11
49694.331428
 21
13963.854344
 31
0.0
  0
LINE
  8
2
  6
DOT
 62
     3
  5
6E5
 10
49694.331428
 20
13963.854344
 30
0.0
 11
49686.977664
 21
13964.282441
 31
0.0
  0
LINE
  8
2
  6
DOT
 62
     3
  5
6E6
 10
49686.977664
 20
13964.282441
 30
0.0
 11
49679.6239
 21
13963.854344
 31
0.0
  0
LINE
  8
2
  6
DOT
 62
     3
  5
6E7
 10
49679.6239
 20
13963.854344
 30
0.0
 11
49672.326103
 21
13962.573313
 31
0.0
  0
LINE
  8
2
  6
DOT
 62
     3
  5
6E8
 10
49672.326103
 20
13962.573313
 30
0.0
 11
49665.139812
 21
13960.449097
 31
0.0
  0
LINE
  8
2
  6
DOT
 62
     3
  5
6E9
 10
49665.139812
 20
13960.449097
 30
0.0
 11
49658.119721
 21
13957.497862
 31
0.0
  0
LINE
  8
2
  6
DOT
 62
     3
  5
6EA
 10
49658.119721
 20
13957.497862
 30
0.0
 11
49651.319257
 21
13953.742069
 31
0.0
  0
LINE
  8
2
  6
DOT
 62
     3
  5
6EB
 10
49651.319257
 20
13953.742069
 30
0.0
 11
49644.790174
 21
13949.210302
 31
0.0
  0
LINE
  8
2
  6
DOT
 62
     3
  5
6EC
 10
49644.790174
 20
13949.210302
 30
0.0
 11
49638.582164
 21
13943.93705
 31
0.0
  0
LINE
  8
2
  6
DOT
 62
     3
  5
6ED
 10
49638.582164
 20
13943.93705
 30
0.0
 11
49632.742472
 21
13937.962447
 31
0.0
  0
LINE
  8
2
  6
DOT
 62
     3
  5
6EE
 10
49632.742472
 20
13937.962447
 30
0.0
 11
49627.315543
 21
13931.331961
 31
0.0
  0
LINE
  8
2
  6
DOT
 62
     3
  5
6EF
 10
49627.315543
 20
13931.331961
 30
0.0
 11
49622.342679
 21
13924.096056
 31
0.0
  0
LINE
  8
2
  6
DOT
 62
     3
  5
6F0
 10
49622.342679
 20
13924.096056
 30
0.0
 11
49617.861727
 21
13916.309801
 31
0.0
  0
LINE
  8
2
  6
DOT
 62
     3
  5
6F1
 10
49617.861727
 20
13916.309801
 30
0.0
 11
49613.906788
 21
13908.032454
 31
0.0
  0
LINE
  8
2
  6
DOT
 62
     3
  5
6F2
 10
49613.906788
 20
13908.032454
 30
0.0
 11
49610.507962
 21
13899.32701
 31
0.0
  0
LINE
  8
2
  6
DOT
 62
     3
  5
6F3
 10
49610.507962
 20
13899.32701
 30
0.0
 11
49607.691118
 21
13890.259724
 31
0.0
  0
LINE
  8
2
  6
DOT
 62
     3
  5
6F4
 10
49607.691118
 20
13890.259724
 30
0.0
 11
49605.477692
 21
13880.899603
 31
0.0
  0
LINE
  8
2
  6
DOT
 62
     3
  5
6F5
 10
49605.477692
 20
13880.899603
 30
0.0
 11
49603.884529
 21
13871.317882
 31
0.0
  0
LINE
  8
2
  6
DOT
 62
     3
  5
6F6
 10
49603.884529
 20
13871.317882
 30
0.0
 11
49602.923756
 21
13861.587486
 31
0.0
  0
LINE
  8
2
  6
DOT
 62
     3
  5
6F7
 10
49602.923756
 20
13861.587486
 30
0.0
 11
49602.602684
 21
13851.782467
 31
0.0
  0
LINE
  8
2
  6
DOT
 62
     3
  5
6F8
 10
49602.602684
 20
13851.782467
 30
0.0
 11
49602.923756
 21
13841.977448
 31
0.0
  0
LINE
  8
2
  6
DOT
 62
     3
  5
6F9
 10
49602.923756
 20
13841.977448
 30
0.0
 11
49603.884529
 21
13832.247051
 31
0.0
  0
LINE
  8
2
  6
DOT
 62
     3
  5
6FA
 10
49603.884529
 20
13832.247051
 30
0.0
 11
49605.477692
 21
13822.665331
 31
0.0
  0
LINE
  8
2
  6
DOT
 62
     3
  5
6FB
 10
49605.477692
 20
13822.665331
 30
0.0
 11
49607.691118
 21
13813.30521
 31
0.0
  0
LINE
  8
2
  6
DOT
 62
     3
  5
6FC
 10
49607.691118
 20
13813.30521
 30
0.0
 11
49610.507962
 21
13804.237923
 31
0.0
  0
LINE
  8
2
  6
DOT
 62
     3
  5
6FD
 10
49610.507962
 20
13804.237923
 30
0.0
 11
49613.906788
 21
13795.53248
 31
0.0
  0
LINE
  8
2
  6
DOT
 62
     3
  5
6FE
 10
49613.906788
 20
13795.53248
 30
0.0
 11
49617.861727
 21
13787.255133
 31
0.0
  0
LINE
  8
2
  6
DOT
 62
     3
  5
6FF
 10
49617.861727
 20
13787.255133
 30
0.0
 11
49622.342679
 21
13779.468878
 31
0.0
  0
LINE
  8
2
  6
DOT
 62
     3
  5
700
 10
49622.342679
 20
13779.468878
 30
0.0
 11
49627.315543
 21
13772.232972
 31
0.0
  0
LINE
  8
2
  6
DOT
 62
     3
  5
701
 10
49627.315543
 20
13772.232972
 30
0.0
 11
49632.742472
 21
13765.602487
 31
0.0
  0
LINE
  8
2
  6
DOT
 62
     3
  5
702
 10
49632.742472
 20
13765.602487
 30
0.0
 11
49638.582164
 21
13759.627883
 31
0.0
  0
LINE
  8
2
  6
DOT
 62
     3
  5
703
 10
49638.582164
 20
13759.627883
 30
0.0
 11
49644.790174
 21
13754.354632
 31
0.0
  0
LINE
  8
2
  6
DOT
 62
     3
  5
704
 10
49644.790174
 20
13754.354632
 30
0.0
 11
49651.319257
 21
13749.822864
 31
0.0
  0
LINE
  8
2
  6
DOT
 62
     3
  5
705
 10
49651.319257
 20
13749.822864
 30
0.0
 11
49658.119721
 21
13746.067072
 31
0.0
  0
LINE
  8
2
  6
DOT
 62
     3
  5
706
 10
49658.119721
 20
13746.067072
 30
0.0
 11
49665.139812
 21
13743.115837
 31
0.0
  0
LINE
  8
2
  6
DOT
 62
     3
  5
707
 10
49665.139812
 20
13743.115837
 30
0.0
 11
49672.326103
 21
13740.99162
 31
0.0
  0
LINE
  8
2
  6
DOT
 62
     3
  5
708
 10
49672.326103
 20
13740.99162
 30
0.0
 11
49679.6239
 21
13739.710589
 31
0.0
  0
LINE
  8
2
  6
DOT
 62
     3
  5
709
 10
49679.6239
 20
13739.710589
 30
0.0
 11
49686.977664
 21
13739.282493
 31
0.0
  0
ARC
  8
2
  6
DOT
 62
     3
  5
70A
 10
49474.422323
 20
13927.765158
 30
0.0
 40
12.393639
 50
174.131638
 51
18.067062
  0
ARC
  8
2
  6
DOT
 62
     3
  5
70B
 10
49438.431342
 20
14163.092258
 30
0.0
 40
27.700895
 50
18.338089
 51
146.560959
  0
ARC
  8
2
  6
DOT
 62
     3
  5
70C
 10
49905.568062
 20
13927.765158
 30
0.0
 40
12.393639
 50
161.932938
 51
5.868362
  0
ARC
  8
2
  6
DOT
 62
     3
  5
70D
 10
49941.559043
 20
14163.092258
 30
0.0
 40
27.700895
 50
33.439041
 51
161.661911
  0
LINE
  8
2
  6
DOT
 62
     3
  5
70E
 10
49768.901977
 20
13765.096916
 30
0.0
 11
49774.517144
 21
13774.349668
 31
0.0
  0
LINE
  8
2
  6
DOT
 62
     3
  5
70F
 10
49599.438184
 20
13774.349668
 30
0.0
 11
49603.438654
 21
13767.592088
 31
0.0
  0
LINE
  8
2
  6
DOT
 62
     3
  5
710
 10
49774.517144
 20
13774.349668
 30
0.0
 11
49779.526311
 21
13784.282484
 31
0.0
  0
LINE
  8
2
  6
DOT
 62
     3
  5
711
 10
49779.526311
 20
13784.282484
 30
0.0
 11
49783.831127
 21
13794.729016
 31
0.0
  0
LINE
  8
2
  6
DOT
 62
     3
  5
712
 10
49783.831127
 20
13794.729016
 30
0.0
 11
49787.39883
 21
13805.609759
 31
0.0
  0
LINE
  8
2
  6
DOT
 62
     3
  5
713
 10
49787.39883
 20
13805.609759
 30
0.0
 11
49790.202267
 21
13816.841905
 31
0.0
  0
LINE
  8
2
  6
DOT
 62
     3
  5
714
 10
49790.202267
 20
13816.841905
 30
0.0
 11
49792.220102
 21
13828.339969
 31
0.0
  0
LINE
  8
2
  6
DOT
 62
     3
  5
715
 10
49792.220102
 20
13828.339969
 30
0.0
 11
49793.436979
 21
13840.016445
 31
0.0
  0
LINE
  8
2
  6
DOT
 62
     3
  5
716
 10
49793.436979
 20
13840.016445
 30
0.0
 11
49793.843637
 21
13851.782467
 31
0.0
  0
LINE
  8
2
  6
DOT
 62
     3
  5
717
 10
49793.843637
 20
13851.782467
 30
0.0
 11
49793.436979
 21
13863.548489
 31
0.0
  0
LINE
  8
2
  6
DOT
 62
     3
  5
718
 10
49793.436979
 20
13863.548489
 30
0.0
 11
49792.220102
 21
13875.224965
 31
0.0
  0
LINE
  8
2
  6
DOT
 62
     3
  5
719
 10
49792.220102
 20
13875.224965
 30
0.0
 11
49790.202267
 21
13886.723029
 31
0.0
  0
LINE
  8
2
  6
DOT
 62
     3
  5
71A
 10
49790.202267
 20
13886.723029
 30
0.0
 11
49787.39883
 21
13897.955174
 31
0.0
  0
LINE
  8
2
  6
DOT
 62
     3
  5
71B
 10
49787.39883
 20
13897.955174
 30
0.0
 11
49783.831127
 21
13908.835917
 31
0.0
  0
LINE
  8
2
  6
DOT
 62
     3
  5
71C
 10
49783.831127
 20
13908.835917
 30
0.0
 11
49779.526311
 21
13919.282449
 31
0.0
  0
LINE
  8
2
  6
DOT
 62
     3
  5
71D
 10
49779.526311
 20
13919.282449
 30
0.0
 11
49774.517144
 21
13929.215266
 31
0.0
  0
LINE
  8
2
  6
DOT
 62
     3
  5
71E
 10
49774.517144
 20
13929.215266
 30
0.0
 11
49768.841749
 21
13938.558772
 31
0.0
  0
LINE
  8
2
  6
DOT
 62
     3
  5
71F
 10
49768.841749
 20
13938.558772
 30
0.0
 11
49762.543318
 21
13947.241858
 31
0.0
  0
LINE
  8
2
  6
DOT
 62
     3
  5
720
 10
49762.543318
 20
13947.241858
 30
0.0
 11
49755.669787
 21
13955.19844
 31
0.0
  0
LINE
  8
2
  6
DOT
 62
     3
  5
721
 10
49755.669787
 20
13955.19844
 30
0.0
 11
49748.273468
 21
13962.367964
 31
0.0
  0
LINE
  8
2
  6
DOT
 62
     3
  5
722
 10
49748.273468
 20
13962.367964
 30
0.0
 11
49740.41065
 21
13968.695866
 31
0.0
  0
LINE
  8
2
  6
DOT
 62
     3
  5
723
 10
49740.41065
 20
13968.695866
 30
0.0
 11
49732.141176
 21
13974.133987
 31
0.0
  0
LINE
  8
2
  6
DOT
 62
     3
  5
724
 10
49732.141176
 20
13974.133987
 30
0.0
 11
49723.527979
 21
13978.640938
 31
0.0
  0
LINE
  8
2
  6
DOT
 62
     3
  5
725
 10
49723.527979
 20
13978.640938
 30
0.0
 11
49714.636613
 21
13982.18242
 31
0.0
  0
LINE
  8
2
  6
DOT
 62
     3
  5
726
 10
49714.636613
 20
13982.18242
 30
0.0
 11
49705.534746
 21
13984.731479
 31
0.0
  0
LINE
  8
2
  6
DOT
 62
     3
  5
727
 10
49705.534746
 20
13984.731479
 30
0.0
 11
49696.291647
 21
13986.268716
 31
0.0
  0
LINE
  8
2
  6
DOT
 62
     3
  5
728
 10
49696.291647
 20
13986.268716
 30
0.0
 11
49686.977664
 21
13986.782432
 31
0.0
  0
LINE
  8
2
  6
DOT
 62
     3
  5
729
 10
49686.977664
 20
13986.782432
 30
0.0
 11
49677.663681
 21
13986.268716
 31
0.0
  0
LINE
  8
2
  6
DOT
 62
     3
  5
72A
 10
49677.663681
 20
13986.268716
 30
0.0
 11
49668.420583
 21
13984.731479
 31
0.0
  0
LINE
  8
2
  6
DOT
 62
     3
  5
72B
 10
49668.420583
 20
13984.731479
 30
0.0
 11
49659.318715
 21
13982.18242
 31
0.0
  0
LINE
  8
2
  6
DOT
 62
     3
  5
72C
 10
49659.318715
 20
13982.18242
 30
0.0
 11
49650.427349
 21
13978.640938
 31
0.0
  0
LINE
  8
2
  6
DOT
 62
     3
  5
72D
 10
49650.427349
 20
13978.640938
 30
0.0
 11
49641.814153
 21
13974.133987
 31
0.0
  0
LINE
  8
2
  6
DOT
 62
     3
  5
72E
 10
49641.814153
 20
13974.133987
 30
0.0
 11
49633.544678
 21
13968.695866
 31
0.0
  0
LINE
  8
2
  6
DOT
 62
     3
  5
72F
 10
49633.544678
 20
13968.695866
 30
0.0
 11
49625.681861
 21
13962.367964
 31
0.0
  0
LINE
  8
2
  6
DOT
 62
     3
  5
730
 10
49625.681861
 20
13962.367964
 30
0.0
 11
49618.285541
 21
13955.19844
 31
0.0
  0
LINE
  8
2
  6
DOT
 62
     3
  5
731
 10
49618.285541
 20
13955.19844
 30
0.0
 11
49611.41201
 21
13947.241858
 31
0.0
  0
LINE
  8
2
  6
DOT
 62
     3
  5
732
 10
49611.41201
 20
13947.241858
 30
0.0
 11
49605.11358
 21
13938.558772
 31
0.0
  0
LINE
  8
2
  6
DOT
 62
     3
  5
733
 10
49605.11358
 20
13938.558772
 30
0.0
 11
49599.438184
 21
13929.215266
 31
0.0
  0
LINE
  8
2
  6
DOT
 62
     3
  5
734
 10
49599.438184
 20
13929.215266
 30
0.0
 11
49594.429017
 21
13919.282449
 31
0.0
  0
LINE
  8
2
  6
DOT
 62
     3
  5
735
 10
49594.429017
 20
13919.282449
 30
0.0
 11
49590.124201
 21
13908.835917
 31
0.0
  0
LINE
  8
2
  6
DOT
 62
     3
  5
736
 10
49590.124201
 20
13908.835917
 30
0.0
 11
49586.556499
 21
13897.955174
 31
0.0
  0
LINE
  8
2
  6
DOT
 62
     3
  5
737
 10
49586.556499
 20
13897.955174
 30
0.0
 11
49583.753062
 21
13886.723029
 31
0.0
  0
LINE
  8
2
  6
DOT
 62
     3
  5
738
 10
49583.753062
 20
13886.723029
 30
0.0
 11
49581.735226
 21
13875.224965
 31
0.0
  0
LINE
  8
2
  6
DOT
 62
     3
  5
739
 10
49581.735226
 20
13875.224965
 30
0.0
 11
49580.518349
 21
13863.548489
 31
0.0
  0
LINE
  8
2
  6
DOT
 62
     3
  5
73A
 10
49580.518349
 20
13863.548489
 30
0.0
 11
49580.111692
 21
13851.782467
 31
0.0
  0
LINE
  8
2
  6
DOT
 62
     3
  5
73B
 10
49580.111692
 20
13851.782467
 30
0.0
 11
49580.518349
 21
13840.016445
 31
0.0
  0
LINE
  8
2
  6
DOT
 62
     3
  5
73C
 10
49580.518349
 20
13840.016445
 30
0.0
 11
49581.735226
 21
13828.339969
 31
0.0
  0
LINE
  8
2
  6
DOT
 62
     3
  5
73D
 10
49581.735226
 20
13828.339969
 30
0.0
 11
49583.753062
 21
13816.841905
 31
0.0
  0
LINE
  8
2
  6
DOT
 62
     3
  5
73E
 10
49583.753062
 20
13816.841905
 30
0.0
 11
49586.556499
 21
13805.609759
 31
0.0
  0
LINE
  8
2
  6
DOT
 62
     3
  5
73F
 10
49586.556499
 20
13805.609759
 30
0.0
 11
49590.124201
 21
13794.729016
 31
0.0
  0
LINE
  8
2
  6
DOT
 62
     3
  5
740
 10
49590.124201
 20
13794.729016
 30
0.0
 11
49594.429017
 21
13784.282484
 31
0.0
  0
LINE
  8
2
  6
DOT
 62
     3
  5
741
 10
49594.429017
 20
13784.282484
 30
0.0
 11
49599.438184
 21
13774.349668
 31
0.0
  0
ARC
  8
2
  6
DOT
 62
     3
  5
742
 10
49689.995192
 20
14302.488691
 30
0.0
 40
576.243184
 50
247.016922
 51
292.983124
  0
TEXT
  8
5
  6
CONTINUOUS
 62
     3
  5
743
 10
49777.472237
 20
15413.928721
 30
0.0
 40
60.0
  1
テスリックス
 41
0.837
  7

 72
     5
 11
50137.472237
 21
15413.928721
 31
0.0
  0
LINE
  8
5
  6
CONTINUOUS
 62
     3
  5
744
 10
49814.074778
 20
15563.928721
 30
0.0
 11
49727.472237
 21
15413.928721
 31
0.0
  0
LINE
  8
5
  6
CONTINUOUS
 62
     3
  5
745
 10
49727.472237
 20
15413.928721
 30
0.0
 11
50137.472237
 21
15413.928721
 31
0.0
  0
TEXT
  8
5
  6
CONTINUOUS
 62
     3
  5
746
 10
49777.816837
 20
10158.824653
 30
0.0
 40
60.0
  1
テスリックス
 41
0.837
  7

 72
     5
 11
50137.816837
 21
10158.824653
 31
0.0
  0
LINE
  8
5
  6
CONTINUOUS
 62
     3
  5
747
 10
49727.816837
 20
10158.824653
 30
0.0
 11
50137.816837
 21
10158.824653
 31
0.0
  0
LINE
  8
8
  6
CONTINUOUS
 62
     4
  5
748
 10
49707.316807
 20
10083.824653
 30
0.0
 11
49707.316807
 21
10069.824653
 31
0.0
  0
ARC
  8
8
  6
CONTINUOUS
 62
     4
  5
749
 10
49739.316817
 20
9501.824633
 30
0.0
 40
18.00008
 50
180.0
 51
270.0
  0
ARC
  8
8
  6
CONTINUOUS
 62
     4
  5
74A
 10
49739.316817
 20
9501.824633
 30
0.0
 40
46.00008
 50
180.0
 51
270.0
  0
ARC
  8
8
  6
CONTINUOUS
 62
     4
  5
74B
 10
49825.816657
 20
9501.824633
 30
0.0
 40
18.00008
 50
270.0
 51
0.0
  0
ARC
  8
8
  6
CONTINUOUS
 62
     4
  5
74C
 10
49889.816817
 20
9501.824633
 30
0.0
 40
18.00008
 50
180.0
 51
270.0
  0
LINE
  8
8
  6
CONTINUOUS
 62
     4
  5
74D
 10
50126.316857
 20
9455.824693
 30
0.0
 11
49739.316817
 21
9455.824693
 31
0.0
  0
LINE
  8
8
  6
CONTINUOUS
 62
     4
  5
74E
 10
49739.316817
 20
9483.824693
 30
0.0
 11
49825.816657
 21
9483.824693
 31
0.0
  0
LINE
  8
8
  6
CONTINUOUS
 62
     4
  5
74F
 10
49843.816807
 20
9501.824633
 30
0.0
 11
49843.816807
 21
9587.824673
 31
0.0
  0
LINE
  8
8
  6
CONTINUOUS
 62
     4
  5
750
 10
49721.316807
 20
9501.824633
 30
0.0
 11
49721.316807
 21
9587.824673
 31
0.0
  0
LINE
  8
8
  6
CONTINUOUS
 62
     4
  5
751
 10
49739.316817
 20
9605.824613
 30
0.0
 11
49825.816657
 21
9605.824613
 31
0.0
  0
ARC
  8
8
  6
CONTINUOUS
 62
     4
  5
752
 10
49825.816657
 20
9587.824673
 30
0.0
 40
18.00008
 50
0.0
 51
90.0
  0
ARC
  8
8
  6
CONTINUOUS
 62
     4
  5
753
 10
50126.316857
 20
9501.824633
 30
0.0
 40
46.00008
 50
270.0
 51
0.0
  0
ARC
  8
8
  6
CONTINUOUS
 62
     4
  5
754
 10
50126.316857
 20
9501.824633
 30
0.0
 40
18.00008
 50
270.0
 51
0.0
  0
LINE
  8
8
  6
CONTINUOUS
 62
     4
  5
755
 10
50172.316657
 20
9501.824633
 30
0.0
 11
50172.316657
 21
9633.824613
 31
0.0
  0
LINE
  8
8
  6
CONTINUOUS
 62
     4
  5
756
 10
50144.316657
 20
9587.824673
 30
0.0
 11
50144.316657
 21
9501.824633
 31
0.0
  0
LINE
  8
8
  6
CONTINUOUS
 62
     4
  5
757
 10
50021.816657
 20
9587.824673
 30
0.0
 11
50021.816657
 21
9501.824633
 31
0.0
  0
ARC
  8
8
  6
CONTINUOUS
 62
     4
  5
758
 10
50039.816807
 20
9501.824633
 30
0.0
 40
18.00008
 50
180.0
 51
270.0
  0
LINE
  8
8
  6
CONTINUOUS
 62
     4
  5
759
 10
50039.816807
 20
9483.824693
 30
0.0
 11
50126.316857
 21
9483.824693
 31
0.0
  0
LINE
  8
8
  6
CONTINUOUS
 62
     4
  5
75A
 10
49975.816857
 20
9483.824693
 30
0.0
 11
49889.816817
 21
9483.824693
 31
0.0
  0
ARC
  8
8
  6
CONTINUOUS
 62
     4
  5
75B
 10
49975.816857
 20
9501.824633
 30
0.0
 40
18.00008
 50
270.0
 51
0.0
  0
LINE
  8
8
  6
CONTINUOUS
 62
     4
  5
75C
 10
49993.816657
 20
9587.824673
 30
0.0
 11
49993.816657
 21
9501.824633
 31
0.0
  0
LINE
  8
8
  6
CONTINUOUS
 62
     4
  5
75D
 10
49871.816807
 20
9501.824633
 30
0.0
 11
49871.816807
 21
9587.824673
 31
0.0
  0
LINE
  8
8
  6
CONTINUOUS
 62
     4
  5
75E
 10
49975.816857
 20
9605.824613
 30
0.0
 11
49889.816817
 21
9605.824613
 31
0.0
  0
ARC
  8
8
  6
CONTINUOUS
 62
     4
  5
75F
 10
50039.816807
 20
9587.824673
 30
0.0
 40
18.00008
 50
90.0
 51
180.0
  0
LINE
  8
8
  6
CONTINUOUS
 62
     4
  5
760
 10
50126.316857
 20
9605.824613
 30
0.0
 11
50039.816807
 21
9605.824613
 31
0.0
  0
LINE
  8
8
  6
CONTINUOUS
 62
     4
  5
761
 10
50126.316857
 20
9633.824613
 30
0.0
 11
50039.816807
 21
9633.824613
 31
0.0
  0
ARC
  8
8
  6
CONTINUOUS
 62
     4
  5
762
 10
50039.816807
 20
9651.824693
 30
0.0
 40
18.00008
 50
180.0
 51
270.0
  0
LINE
  8
8
  6
CONTINUOUS
 62
     4
  5
763
 10
49889.816817
 20
9633.824613
 30
0.0
 11
49975.816857
 21
9633.824613
 31
0.0
  0
ARC
  8
8
  6
CONTINUOUS
 62
     4
  5
764
 10
49975.816857
 20
9651.824693
 30
0.0
 40
18.00008
 50
270.0
 51
0.0
  0
LINE
  8
8
  6
CONTINUOUS
 62
     4
  5
765
 10
49739.316817
 20
9633.824613
 30
0.0
 11
49825.816657
 21
9633.824613
 31
0.0
  0
ARC
  8
8
  6
CONTINUOUS
 62
     4
  5
766
 10
49825.816657
 20
9651.824693
 30
0.0
 40
18.00008
 50
270.0
 51
0.0
  0
LINE
  8
8
  6
CONTINUOUS
 62
     4
  5
767
 10
49693.316807
 20
10037.824713
 30
0.0
 11
49693.316807
 21
9501.824633
 31
0.0
  0
ARC
  8
8
  6
CONTINUOUS
 62
     4
  5
768
 10
49975.816857
 20
9587.824673
 30
0.0
 40
18.00008
 50
0.0
 51
90.0
  0
LINE
  8
8
  6
CONTINUOUS
 62
     4
  5
769
 10
49721.316807
 20
9887.824653
 30
0.0
 11
49721.316807
 21
9801.824613
 31
0.0
  0
LINE
  8
8
  6
CONTINUOUS
 62
     4
  5
76A
 10
49739.316817
 20
9905.824733
 30
0.0
 11
49825.816657
 21
9905.824733
 31
0.0
  0
ARC
  8
8
  6
CONTINUOUS
 62
     4
  5
76B
 10
49825.816657
 20
9887.824653
 30
0.0
 40
18.00008
 50
0.0
 51
90.0
  0
LINE
  8
8
  6
CONTINUOUS
 62
     4
  5
76C
 10
49843.816807
 20
9801.824613
 30
0.0
 11
49843.816807
 21
9887.824653
 31
0.0
  0
LINE
  8
8
  6
CONTINUOUS
 62
     4
  5
76D
 10
49721.316807
 20
9801.824613
 30
0.0
 11
49721.316807
 21
9887.824653
 31
0.0
  0
LINE
  8
8
  6
CONTINUOUS
 62
     4
  5
76E
 10
49739.316817
 20
9905.824733
 30
0.0
 11
49825.816657
 21
9905.824733
 31
0.0
  0
ARC
  8
8
  6
CONTINUOUS
 62
     4
  5
76F
 10
49889.816817
 20
9887.824653
 30
0.0
 40
18.00008
 50
90.0
 51
180.0
  0
LINE
  8
8
  6
CONTINUOUS
 62
     4
  5
770
 10
49871.816807
 20
9801.824613
 30
0.0
 11
49871.816807
 21
9887.824653
 31
0.0
  0
LINE
  8
8
  6
CONTINUOUS
 62
     4
  5
771
 10
49975.816857
 20
9905.824733
 30
0.0
 11
49889.816817
 21
9905.824733
 31
0.0
  0
LINE
  8
8
  6
CONTINUOUS
 62
     4
  5
772
 10
49993.816657
 20
9801.824613
 30
0.0
 11
49993.816657
 21
9887.824653
 31
0.0
  0
ARC
  8
8
  6
CONTINUOUS
 62
     4
  5
773
 10
49975.816857
 20
9887.824653
 30
0.0
 40
18.00008
 50
0.0
 51
90.0
  0
LINE
  8
8
  6
CONTINUOUS
 62
     4
  5
774
 10
50021.816657
 20
9887.824653
 30
0.0
 11
50021.816657
 21
9801.824613
 31
0.0
  0
ARC
  8
8
  6
CONTINUOUS
 62
     4
  5
775
 10
50039.816807
 20
9887.824653
 30
0.0
 40
18.00008
 50
90.0
 51
180.0
  0
LINE
  8
8
  6
CONTINUOUS
 62
     4
  5
776
 10
50144.316657
 20
9801.824613
 30
0.0
 11
50144.316657
 21
9887.824653
 31
0.0
  0
LINE
  8
8
  6
CONTINUOUS
 62
     4
  5
777
 10
50172.316657
 20
9919.824733
 30
0.0
 11
50172.316657
 21
9634.752673
 31
0.0
  0
LINE
  8
8
  6
CONTINUOUS
 62
     4
  5
778
 10
50126.316857
 20
9905.824733
 30
0.0
 11
50039.816807
 21
9905.824733
 31
0.0
  0
LINE
  8
8
  6
CONTINUOUS
 62
     4
  5
779
 10
49975.816857
 20
9905.824733
 30
0.0
 11
49889.816817
 21
9905.824733
 31
0.0
  0
ARC
  8
8
  6
CONTINUOUS
 62
     4
  5
77A
 10
49739.316817
 20
10037.824713
 30
0.0
 40
46.00008
 50
90.0
 51
180.0
  0
LINE
  8
8
  6
CONTINUOUS
 62
     4
  5
77B
 10
49721.316807
 20
9951.824673
 30
0.0
 11
49721.316807
 21
10037.824713
 31
0.0
  0
LINE
  8
8
  6
CONTINUOUS
 62
     4
  5
77C
 10
49843.816807
 20
9951.824673
 30
0.0
 11
49843.816807
 21
10037.824713
 31
0.0
  0
LINE
  8
8
  6
CONTINUOUS
 62
     4
  5
77D
 10
49843.816807
 20
9951.824673
 30
0.0
 11
49843.816807
 21
10037.824713
 31
0.0
  0
ARC
  8
8
  6
CONTINUOUS
 62
     4
  5
77E
 10
49975.816857
 20
9887.824653
 30
0.0
 40
18.00008
 50
0.0
 51
90.0
  0
ARC
  8
8
  6
CONTINUOUS
 62
     4
  5
77F
 10
50039.816807
 20
9887.824653
 30
0.0
 40
18.00008
 50
90.0
 51
180.0
  0
ARC
  8
8
  6
CONTINUOUS
 62
     4
  5
780
 10
49889.816817
 20
9887.824653
 30
0.0
 40
18.00008
 50
90.0
 51
180.0
  0
LINE
  8
8
  6
CONTINUOUS
 62
     4
  5
781
 10
50021.816657
 20
10037.824713
 30
0.0
 11
50021.816657
 21
9951.824673
 31
0.0
  0
LINE
  8
8
  6
CONTINUOUS
 62
     4
  5
782
 10
49993.816657
 20
9951.824673
 30
0.0
 11
49993.816657
 21
10037.824713
 31
0.0
  0
LINE
  8
8
  6
CONTINUOUS
 62
     4
  5
783
 10
50144.316657
 20
9951.824673
 30
0.0
 11
50144.316657
 21
10037.824713
 31
0.0
  0
LINE
  8
8
  6
CONTINUOUS
 62
     4
  5
784
 10
50172.316657
 20
10037.824713
 30
0.0
 11
50172.316657
 21
9933.824733
 31
0.0
  0
ARC
  8
8
  6
CONTINUOUS
 62
     4
  5
785
 10
50126.316857
 20
10037.824713
 30
0.0
 40
46.00008
 50
0.0
 51
90.0
  0
LINE
  8
8
  6
CONTINUOUS
 62
     4
  5
786
 10
49993.816657
 20
10037.824713
 30
0.0
 11
49993.816657
 21
9951.824673
 31
0.0
  0
LINE
  8
8
  6
CONTINUOUS
 62
     4
  5
787
 10
50021.816657
 20
10037.824713
 30
0.0
 11
50021.816657
 21
9951.824673
 31
0.0
  0
LINE
  8
8
  6
CONTINUOUS
 62
     4
  5
788
 10
50144.316657
 20
10037.824713
 30
0.0
 11
50144.316657
 21
9951.824673
 31
0.0
  0
LINE
  8
8
  6
CONTINUOUS
 62
     4
  5
789
 10
49871.816807
 20
9951.824673
 30
0.0
 11
49871.816807
 21
10037.824713
 31
0.0
  0
LINE
  8
8
  6
CONTINUOUS
 62
     4
  5
78A
 10
50172.316657
 20
9769.824673
 30
0.0
 11
50172.316657
 21
9933.824733
 31
0.0
  0
ARC
  8
8
  6
CONTINUOUS
 62
     4
  5
78B
 10
49825.816657
 20
10037.824713
 30
0.0
 40
18.00008
 50
0.0
 51
90.0
  0
ARC
  8
8
  6
CONTINUOUS
 62
     4
  5
78C
 10
49739.316817
 20
10037.824713
 30
0.0
 40
18.00008
 50
90.0
 51
180.0
  0
LINE
  8
8
  6
CONTINUOUS
 62
     4
  5
78D
 10
49825.816657
 20
10055.824653
 30
0.0
 11
49739.316817
 21
10055.824653
 31
0.0
  0
ARC
  8
8
  6
CONTINUOUS
 62
     4
  5
78E
 10
49825.816657
 20
10037.824713
 30
0.0
 40
18.00008
 50
0.0
 51
90.0
  0
LINE
  8
8
  6
CONTINUOUS
 62
     4
  5
78F
 10
50126.316857
 20
10055.824653
 30
0.0
 11
50039.816807
 21
10055.824653
 31
0.0
  0
ARC
  8
8
  6
CONTINUOUS
 62
     4
  5
790
 10
49975.816857
 20
10037.824713
 30
0.0
 40
18.00008
 50
0.0
 51
90.0
  0
ARC
  8
8
  6
CONTINUOUS
 62
     4
  5
791
 10
50039.816807
 20
10037.824713
 30
0.0
 40
18.00008
 50
90.0
 51
180.0
  0
ARC
  8
8
  6
CONTINUOUS
 62
     4
  5
792
 10
50126.316857
 20
10037.824713
 30
0.0
 40
18.00008
 50
0.0
 51
90.0
  0
ARC
  8
8
  6
CONTINUOUS
 62
     4
  5
793
 10
49889.816817
 20
10037.824713
 30
0.0
 40
18.00008
 50
90.0
 51
180.0
  0
LINE
  8
8
  6
CONTINUOUS
 62
     4
  5
794
 10
49975.816857
 20
10055.824653
 30
0.0
 11
49889.816817
 21
10055.824653
 31
0.0
  0
ARC
  8
8
  6
CONTINUOUS
 62
     4
  5
795
 10
49825.816657
 20
9737.824733
 30
0.0
 40
18.00008
 50
0.0
 51
90.0
  0
LINE
  8
8
  6
CONTINUOUS
 62
     4
  5
796
 10
49825.816657
 20
9755.824813
 30
0.0
 11
49739.316817
 21
9755.824813
 31
0.0
  0
ARC
  8
8
  6
CONTINUOUS
 62
     4
  5
797
 10
49825.816657
 20
9737.824733
 30
0.0
 40
18.00008
 50
0.0
 51
90.0
  0
LINE
  8
8
  6
CONTINUOUS
 62
     4
  5
798
 10
50126.316857
 20
9755.824813
 30
0.0
 11
50039.816807
 21
9755.824813
 31
0.0
  0
ARC
  8
8
  6
CONTINUOUS
 62
     4
  5
799
 10
49975.816857
 20
9737.824733
 30
0.0
 40
18.00008
 50
0.0
 51
90.0
  0
ARC
  8
8
  6
CONTINUOUS
 62
     4
  5
79A
 10
50039.816807
 20
9737.824733
 30
0.0
 40
18.00008
 50
90.0
 51
180.0
  0
ARC
  8
8
  6
CONTINUOUS
 62
     4
  5
79B
 10
50126.316857
 20
9737.824733
 30
0.0
 40
18.00008
 50
0.0
 51
90.0
  0
ARC
  8
8
  6
CONTINUOUS
 62
     4
  5
79C
 10
49889.816817
 20
9737.824733
 30
0.0
 40
18.00008
 50
90.0
 51
180.0
  0
LINE
  8
8
  6
CONTINUOUS
 62
     4
  5
79D
 10
49975.816857
 20
9755.824813
 30
0.0
 11
49889.816817
 21
9755.824813
 31
0.0
  0
LINE
  8
8
  6
CONTINUOUS
 62
     4
  5
79E
 10
49739.316817
 20
9933.824733
 30
0.0
 11
49825.816657
 21
9933.824733
 31
0.0
  0
ARC
  8
8
  6
CONTINUOUS
 62
     4
  5
79F
 10
49825.816657
 20
9951.824673
 30
0.0
 40
18.00008
 50
270.0
 51
0.0
  0
LINE
  8
8
  6
CONTINUOUS
 62
     4
  5
7A0
 10
49889.816817
 20
9933.824733
 30
0.0
 11
49975.816857
 21
9933.824733
 31
0.0
  0
LINE
  8
8
  6
CONTINUOUS
 62
     4
  5
7A1
 10
50126.316857
 20
9933.824733
 30
0.0
 11
50039.816807
 21
9933.824733
 31
0.0
  0
ARC
  8
8
  6
CONTINUOUS
 62
     4
  5
7A2
 10
49975.816857
 20
9951.824673
 30
0.0
 40
18.00008
 50
270.0
 51
0.0
  0
ARC
  8
8
  6
CONTINUOUS
 62
     4
  5
7A3
 10
49889.816817
 20
9951.824673
 30
0.0
 40
18.00008
 50
180.0
 51
270.0
  0
ARC
  8
8
  6
CONTINUOUS
 62
     4
  5
7A4
 10
50039.816807
 20
9951.824673
 30
0.0
 40
18.00008
 50
180.0
 51
270.0
  0
ARC
  8
8
  6
CONTINUOUS
 62
     4
  5
7A5
 10
49825.816657
 20
9951.824673
 30
0.0
 40
18.00008
 50
270.0
 51
0.0
  0
LINE
  8
8
  6
CONTINUOUS
 62
     4
  5
7A6
 10
49739.316817
 20
9933.824733
 30
0.0
 11
49825.816657
 21
9933.824733
 31
0.0
  0
ARC
  8
8
  6
CONTINUOUS
 62
     4
  5
7A7
 10
49889.816817
 20
9951.824673
 30
0.0
 40
18.00008
 50
180.0
 51
270.0
  0
ARC
  8
8
  6
CONTINUOUS
 62
     4
  5
7A8
 10
49975.816857
 20
9951.824673
 30
0.0
 40
18.00008
 50
270.0
 51
0.0
  0
ARC
  8
8
  6
CONTINUOUS
 62
     4
  5
7A9
 10
50039.816807
 20
9951.824673
 30
0.0
 40
18.00008
 50
180.0
 51
270.0
  0
LINE
  8
8
  6
CONTINUOUS
 62
     4
  5
7AA
 10
50039.816807
 20
9933.824733
 30
0.0
 11
50126.316857
 21
9933.824733
 31
0.0
  0
LINE
  8
8
  6
CONTINUOUS
 62
     4
  5
7AB
 10
49975.816857
 20
9933.824733
 30
0.0
 11
49889.816817
 21
9933.824733
 31
0.0
  0
ARC
  8
8
  6
CONTINUOUS
 62
     4
  5
7AC
 10
49739.316817
 20
9801.824753
 30
0.0
 40
18.00008
 50
180.0
 51
270.0
  0
ARC
  8
8
  6
CONTINUOUS
 62
     4
  5
7AD
 10
49739.316817
 20
9801.824753
 30
0.0
 40
18.00008
 50
180.0
 51
270.0
  0
ARC
  8
8
  6
CONTINUOUS
 62
     4
  5
7AE
 10
50126.316857
 20
9801.824753
 30
0.0
 40
18.00008
 50
270.0
 51
0.0
  0
ARC
  8
8
  6
CONTINUOUS
 62
     4
  5
7AF
 10
50126.316857
 20
9801.824753
 30
0.0
 40
18.00008
 50
270.0
 51
0.0
  0
LINE
  8
8
  6
CONTINUOUS
 62
     4
  5
7B0
 10
49739.316817
 20
9783.824673
 30
0.0
 11
49825.816657
 21
9783.824673
 31
0.0
  0
ARC
  8
8
  6
CONTINUOUS
 62
     4
  5
7B1
 10
49825.816657
 20
9801.824753
 30
0.0
 40
18.00008
 50
270.0
 51
0.0
  0
LINE
  8
8
  6
CONTINUOUS
 62
     4
  5
7B2
 10
49889.816817
 20
9783.824673
 30
0.0
 11
49975.816857
 21
9783.824673
 31
0.0
  0
LINE
  8
8
  6
CONTINUOUS
 62
     4
  5
7B3
 10
50126.316857
 20
9783.824673
 30
0.0
 11
50039.816807
 21
9783.824673
 31
0.0
  0
ARC
  8
8
  6
CONTINUOUS
 62
     4
  5
7B4
 10
49975.816857
 20
9801.824753
 30
0.0
 40
18.00008
 50
270.0
 51
0.0
  0
ARC
  8
8
  6
CONTINUOUS
 62
     4
  5
7B5
 10
49889.816817
 20
9801.824753
 30
0.0
 40
18.00008
 50
180.0
 51
270.0
  0
ARC
  8
8
  6
CONTINUOUS
 62
     4
  5
7B6
 10
50039.816807
 20
9801.824753
 30
0.0
 40
18.00008
 50
180.0
 51
270.0
  0
ARC
  8
8
  6
CONTINUOUS
 62
     4
  5
7B7
 10
49825.816657
 20
9801.824753
 30
0.0
 40
18.00008
 50
270.0
 51
0.0
  0
LINE
  8
8
  6
CONTINUOUS
 62
     4
  5
7B8
 10
49739.316817
 20
9783.824673
 30
0.0
 11
49825.816657
 21
9783.824673
 31
0.0
  0
ARC
  8
8
  6
CONTINUOUS
 62
     4
  5
7B9
 10
49889.816817
 20
9801.824753
 30
0.0
 40
18.00008
 50
180.0
 51
270.0
  0
ARC
  8
8
  6
CONTINUOUS
 62
     4
  5
7BA
 10
49975.816857
 20
9801.824753
 30
0.0
 40
18.00008
 50
270.0
 51
0.0
  0
ARC
  8
8
  6
CONTINUOUS
 62
     4
  5
7BB
 10
50039.816807
 20
9801.824753
 30
0.0
 40
18.00008
 50
180.0
 51
270.0
  0
LINE
  8
8
  6
CONTINUOUS
 62
     4
  5
7BC
 10
50039.816807
 20
9783.824673
 30
0.0
 11
50126.316857
 21
9783.824673
 31
0.0
  0
LINE
  8
8
  6
CONTINUOUS
 62
     4
  5
7BD
 10
49975.816857
 20
9783.824673
 30
0.0
 11
49889.816817
 21
9783.824673
 31
0.0
  0
LINE
  8
50
  6
CONTINUOUS
 62
     4
  5
7BE
 10
49843.816807
 20
9651.824693
 30
0.0
 11
49843.816807
 21
9737.824733
 31
0.0
  0
LINE
  8
50
  6
CONTINUOUS
 62
     4
  5
7BF
 10
49993.816657
 20
9651.824693
 30
0.0
 11
49993.816657
 21
9739.513133
 31
0.0
  0
LINE
  8
50
  6
CONTINUOUS
 62
     4
  5
7C0
 10
50021.816867
 20
9737.824733
 30
0.0
 11
50021.816867
 21
9651.824693
 31
0.0
  0
LINE
  8
50
  6
CONTINUOUS
 62
     4
  5
7C1
 10
50144.316867
 20
9737.824733
 30
0.0
 11
50144.316867
 21
9651.824693
 31
0.0
  0
LINE
  8
50
  6
CONTINUOUS
 62
     4
  5
7C2
 10
49871.816807
 20
9737.824733
 30
0.0
 11
49871.816807
 21
9651.824693
 31
0.0
  0
LINE
  8
8
  6
CONTINUOUS
 62
     4
  5
7C3
 10
49871.816807
 20
9951.824673
 30
0.0
 11
49871.816807
 21
10037.824713
 31
0.0
  0
LINE
  8
8
  6
CONTINUOUS
 62
     4
  5
7C4
 10
49739.316817
 20
10083.824653
 30
0.0
 11
50126.316857
 21
10083.824653
 31
0.0
  0
LINE
  8
8
  6
CONTINUOUS
 62
     4
  5
7C5
 10
50039.816807
 20
9905.824733
 30
0.0
 11
50107.549857
 21
9905.824733
 31
0.0
  0
LINE
  8
8
  6
CONTINUOUS
 62
     4
  5
7C6
 10
50109.659587
 20
9605.824613
 30
0.0
 11
50126.316857
 21
9605.824613
 31
0.0
  0
ARC
  8
8
  6
CONTINUOUS
 62
     4
  5
7C7
 10
50126.316857
 20
9587.824533
 30
0.0
 40
18.00008
 50
0.0
 51
90.0
  0
ARC
  8
8
  6
CONTINUOUS
 62
     4
  5
7C8
 10
50150.316707
 20
9619.824613
 30
0.0
 40
45.00006
 50
300.576743
 51
60.545548
  0
ARC
  8
8
  6
CONTINUOUS
 62
     4
  5
7C9
 10
50150.316707
 20
9619.824613
 30
0.0
 40
45.00006
 50
198.126177
 51
262.33778
  0
CIRCLE
  8
8
  6
CONTINUOUS
 62
     4
  5
7CA
 10
50185.333087
 20
9619.871513
 30
0.0
 40
4.50002
  0
ARC
  8
8
  6
CONTINUOUS
 62
     4
  5
7CB
 10
50150.316707
 20
9619.824613
 30
0.0
 40
43.00002
 50
300.576818
 51
60.545482
  0
LINE
  8
10
  6
CENTER
 62
     4
  5
7CC
 10
50126.925507
 20
9579.309593
 30
0.0
 11
50142.233877
 21
9605.824613
 31
0.0
  0
LINE
  8
8
  6
CONTINUOUS
 62
     4
  5
7CD
 10
50139.746567
 20
9585.516353
 30
0.0
 11
50136.078357
 21
9579.162873
 31
0.0
  0
LINE
  8
8
  6
CONTINUOUS
 62
     4
  5
7CE
 10
50125.889297
 20
9593.514973
 30
0.0
 11
50122.227667
 21
9587.172833
 31
0.0
  0
LINE
  8
8
  6
CONTINUOUS
 62
     4
  5
7CF
 10
50136.713887
 20
9587.263693
 30
0.0
 11
50128.919667
 21
9591.763713
 31
0.0
  0
LINE
  8
8
  6
CONTINUOUS
 62
     4
  5
7D0
 10
50132.816707
 20
9589.513633
 30
0.0
 11
50135.066857
 21
9593.410813
 31
0.0
  0
ARC
  8
8
  6
CONTINUOUS
 62
     4
  5
7D1
 10
50133.814557
 20
9591.242493
 30
0.0
 40
8.00002
 50
329.258177
 51
149.621121
  0
CIRCLE
  8
8
  6
CONTINUOUS
 62
     4
  5
7D2
 10
50132.812787
 20
9589.499633
 30
0.0
 40
4.50002
  0
CIRCLE
  8
8
  6
CONTINUOUS
 62
     4
  5
7D3
 10
50132.816707
 20
9589.513633
 30
0.0
 40
8.00002
  0
LINE
  8
8
  6
CONTINUOUS
 62
     4
  5
7D4
 10
50185.313837
 20
9627.824633
 30
0.0
 11
50192.650047
 21
9627.824633
 31
0.0
  0
LINE
  8
8
  6
CONTINUOUS
 62
     4
  5
7D5
 10
50185.315377
 20
9611.824593
 30
0.0
 11
50192.638427
 21
9611.824593
 31
0.0
  0
LINE
  8
8
  6
CONTINUOUS
 62
     4
  5
7D6
 10
50185.316707
 20
9624.324633
 30
0.0
 11
50185.316707
 21
9615.324593
 31
0.0
  0
LINE
  8
8
  6
CONTINUOUS
 62
     4
  5
7D7
 10
50185.316707
 20
9619.824613
 30
0.0
 11
50180.816827
 21
9619.824613
 31
0.0
  0
ARC
  8
8
  6
CONTINUOUS
 62
     4
  5
7D8
 10
50183.320727
 20
9619.824193
 30
0.0
 40
8.00002
 50
89.258175
 51
269.621119
  0
CIRCLE
  8
8
  6
CONTINUOUS
 62
     4
  5
7D9
 10
50185.316707
 20
9619.824613
 30
0.0
 40
8.00002
  0
LINE
  8
10
  6
CENTER
 62
     4
  5
7DA
 10
50150.316707
 20
9619.824613
 30
0.0
 11
50142.233877
 21
9605.824613
 31
0.0
  0
ARC
  8
8
  6
CONTINUOUS
 62
     4
  5
7DB
 10
50126.316857
 20
9587.824533
 30
0.0
 40
18.00008
 50
0.0
 51
90.0
  0
LINE
  8
10
  6
CENTER
 62
     4
  5
7DC
 10
50150.316707
 20
9619.824613
 30
0.0
 11
50132.816707
 21
9650.135593
 31
0.0
  0
LINE
  8
8
  6
CONTINUOUS
 62
     4
  5
7DD
 10
50125.890067
 20
9646.132993
 30
0.0
 11
50122.221927
 21
9652.486333
 31
0.0
  0
LINE
  8
8
  6
CONTINUOUS
 62
     4
  5
7DE
 10
50139.745727
 20
9654.134413
 30
0.0
 11
50136.084167
 21
9660.476413
 31
0.0
  0
LINE
  8
8
  6
CONTINUOUS
 62
     4
  5
7DF
 10
50128.919667
 20
9647.885653
 30
0.0
 11
50136.713887
 21
9652.385533
 31
0.0
  0
LINE
  8
8
  6
CONTINUOUS
 62
     4
  5
7E0
 10
50132.816707
 20
9650.135593
 30
0.0
 11
50135.066857
 21
9646.238413
 31
0.0
  0
ARC
  8
8
  6
CONTINUOUS
 62
     4
  5
7E1
 10
50133.815117
 20
9648.407153
 30
0.0
 40
8.00002
 50
209.258177
 51
29.621121
  0
CIRCLE
  8
8
  6
CONTINUOUS
 62
     4
  5
7E2
 10
50132.806487
 20
9650.146093
 30
0.0
 40
4.50002
  0
CIRCLE
  8
8
  6
CONTINUOUS
 62
     4
  5
7E3
 10
50132.816707
 20
9650.135593
 30
0.0
 40
8.00002
  0
ARC
  8
8
  6
CONTINUOUS
 62
     4
  5
7E4
 10
50126.316857
 20
9651.824693
 30
0.0
 40
18.00008
 50
270.0
 51
0.0
  0
ARC
  8
8
  6
CONTINUOUS
 62
     4
  5
7E5
 10
50126.316857
 20
9651.824693
 30
0.0
 40
18.00008
 50
270.0
 51
0.0
  0
ARC
  8
8
  6
CONTINUOUS
 62
     4
  5
7E6
 10
50150.316707
 20
9619.824613
 30
0.0
 40
43.00002
 50
198.126177
 51
262.513199
  0
ARC
  8
8
  6
CONTINUOUS
 62
     4
  5
7E7
 10
50150.316707
 20
9619.824613
 30
0.0
 40
45.00006
 50
97.662219
 51
161.873821
  0
ARC
  8
8
  6
CONTINUOUS
 62
     4
  5
7E8
 10
50150.316707
 20
9619.824613
 30
0.0
 40
45.00006
 50
299.267564
 51
60.416487
  0
ARC
  8
8
  6
CONTINUOUS
 62
     4
  5
7E9
 10
50150.316707
 20
9619.824613
 30
0.0
 40
43.00002
 50
199.000793
 51
261.979096
  0
ARC
  8
8
  6
CONTINUOUS
 62
     4
  5
7EA
 10
50150.316707
 20
9619.824613
 30
0.0
 40
43.00002
 50
98.020901
 51
160.999206
  0
ARC
  8
8
  6
CONTINUOUS
 62
     4
  5
7EB
 10
50150.316707
 20
9619.824613
 30
0.0
 40
43.00002
 50
98.020901
 51
160.999206
  0
ARC
  8
8
  6
CONTINUOUS
 62
     4
  5
7EC
 10
50150.316707
 20
9619.824613
 30
0.0
 40
43.00002
 50
300.77234
 51
59.22766
  0
ARC
  8
8
  6
CONTINUOUS
 62
     4
  5
7ED
 10
50150.316707
 20
9619.824613
 30
0.0
 40
43.00002
 50
199.206873
 51
261.979096
  0
CIRCLE
  8
8
  6
HIDDEN
 62
     4
  5
7EE
 10
50150.316707
 20
9619.824613
 30
0.0
 40
14.0
  0
CIRCLE
  8
8
  6
HIDDEN
 62
     4
  5
7EF
 10
50150.316707
 20
9619.824613
 30
0.0
 40
7.50008
  0
CIRCLE
  8
8
  6
HIDDEN
 62
     4
  5
7F0
 10
50150.316707
 20
9619.824613
 30
0.0
 40
3.00006
  0
LINE
  8
8
  6
CONTINUOUS
 62
     4
  5
7F1
 10
50109.659587
 20
9905.824733
 30
0.0
 11
50126.316857
 21
9905.824733
 31
0.0
  0
ARC
  8
8
  6
CONTINUOUS
 62
     4
  5
7F2
 10
50126.316857
 20
9887.824653
 30
0.0
 40
18.00008
 50
0.0
 51
90.0
  0
ARC
  8
8
  6
CONTINUOUS
 62
     4
  5
7F3
 10
50150.316707
 20
9919.824733
 30
0.0
 40
45.00006
 50
300.576743
 51
60.545548
  0
ARC
  8
8
  6
CONTINUOUS
 62
     4
  5
7F4
 10
50150.316707
 20
9919.824733
 30
0.0
 40
45.00006
 50
198.126177
 51
262.33778
  0
CIRCLE
  8
8
  6
CONTINUOUS
 62
     4
  5
7F5
 10
50185.333087
 20
9919.871493
 30
0.0
 40
4.50002
  0
ARC
  8
8
  6
CONTINUOUS
 62
     4
  5
7F6
 10
50150.316707
 20
9919.824733
 30
0.0
 40
43.00002
 50
300.576818
 51
60.545482
  0
LINE
  8
10
  6
CENTER
 62
     4
  5
7F7
 10
50126.925507
 20
9879.309713
 30
0.0
 11
50142.233877
 21
9905.824733
 31
0.0
  0
LINE
  8
8
  6
CONTINUOUS
 62
     4
  5
7F8
 10
50139.746567
 20
9885.516473
 30
0.0
 11
50136.078357
 21
9879.162993
 31
0.0
  0
LINE
  8
8
  6
CONTINUOUS
 62
     4
  5
7F9
 10
50125.889297
 20
9893.515093
 30
0.0
 11
50122.227667
 21
9887.172953
 31
0.0
  0
LINE
  8
8
  6
CONTINUOUS
 62
     4
  5
7FA
 10
50136.713887
 20
9887.263813
 30
0.0
 11
50128.919667
 21
9891.763833
 31
0.0
  0
LINE
  8
8
  6
CONTINUOUS
 62
     4
  5
7FB
 10
50132.816707
 20
9889.513753
 30
0.0
 11
50135.066857
 21
9893.410933
 31
0.0
  0
ARC
  8
8
  6
CONTINUOUS
 62
     4
  5
7FC
 10
50133.814557
 20
9891.242613
 30
0.0
 40
8.00002
 50
329.258177
 51
149.621121
  0
CIRCLE
  8
8
  6
CONTINUOUS
 62
     4
  5
7FD
 10
50132.812787
 20
9889.499753
 30
0.0
 40
4.50002
  0
CIRCLE
  8
8
  6
CONTINUOUS
 62
     4
  5
7FE
 10
50132.816707
 20
9889.513753
 30
0.0
 40
8.00002
  0
LINE
  8
8
  6
CONTINUOUS
 62
     4
  5
7FF
 10
50185.313837
 20
9927.824613
 30
0.0
 11
50192.650047
 21
9927.824613
 31
0.0
  0
LINE
  8
8
  6
CONTINUOUS
 62
     4
  5
800
 10
50185.315377
 20
9911.824713
 30
0.0
 11
50192.638427
 21
9911.824713
 31
0.0
  0
LINE
  8
8
  6
CONTINUOUS
 62
     4
  5
801
 10
50185.316707
 20
9924.324613
 30
0.0
 11
50185.316707
 21
9915.324713
 31
0.0
  0
LINE
  8
8
  6
CONTINUOUS
 62
     4
  5
802
 10
50185.316707
 20
9919.824733
 30
0.0
 11
50180.816827
 21
9919.824733
 31
0.0
  0
ARC
  8
8
  6
CONTINUOUS
 62
     4
  5
803
 10
50183.320727
 20
9919.824313
 30
0.0
 40
8.00002
 50
89.258175
 51
269.621119
  0
CIRCLE
  8
8
  6
CONTINUOUS
 62
     4
  5
804
 10
50185.316707
 20
9919.824733
 30
0.0
 40
8.00002
  0
LINE
  8
10
  6
CENTER
 62
     4
  5
805
 10
50150.316707
 20
9919.824733
 30
0.0
 11
50142.233877
 21
9905.824733
 31
0.0
  0
ARC
  8
8
  6
CONTINUOUS
 62
     4
  5
806
 10
50126.316857
 20
9887.824653
 30
0.0
 40
18.00008
 50
0.0
 51
90.0
  0
LINE
  8
10
  6
CENTER
 62
     4
  5
807
 10
50150.316707
 20
9919.824733
 30
0.0
 11
50132.816707
 21
9950.135573
 31
0.0
  0
LINE
  8
8
  6
CONTINUOUS
 62
     4
  5
808
 10
50125.890067
 20
9946.132973
 30
0.0
 11
50122.221927
 21
9952.486313
 31
0.0
  0
LINE
  8
8
  6
CONTINUOUS
 62
     4
  5
809
 10
50139.745727
 20
9954.134393
 30
0.0
 11
50136.084167
 21
9960.476393
 31
0.0
  0
LINE
  8
8
  6
CONTINUOUS
 62
     4
  5
80A
 10
50128.919667
 20
9947.885633
 30
0.0
 11
50136.713887
 21
9952.385513
 31
0.0
  0
LINE
  8
8
  6
CONTINUOUS
 62
     4
  5
80B
 10
50132.816707
 20
9950.135573
 30
0.0
 11
50135.066857
 21
9946.238393
 31
0.0
  0
ARC
  8
8
  6
CONTINUOUS
 62
     4
  5
80C
 10
50133.815117
 20
9948.407133
 30
0.0
 40
8.00002
 50
209.258177
 51
29.621121
  0
CIRCLE
  8
8
  6
CONTINUOUS
 62
     4
  5
80D
 10
50132.806487
 20
9950.146073
 30
0.0
 40
4.50002
  0
CIRCLE
  8
8
  6
CONTINUOUS
 62
     4
  5
80E
 10
50132.816707
 20
9950.135573
 30
0.0
 40
8.00002
  0
ARC
  8
8
  6
CONTINUOUS
 62
     4
  5
80F
 10
50126.316857
 20
9951.824673
 30
0.0
 40
18.00008
 50
270.0
 51
0.0
  0
ARC
  8
8
  6
CONTINUOUS
 62
     4
  5
810
 10
50126.316857
 20
9951.824673
 30
0.0
 40
18.00008
 50
270.0
 51
0.0
  0
ARC
  8
8
  6
CONTINUOUS
 62
     4
  5
811
 10
50150.316707
 20
9919.824733
 30
0.0
 40
43.00002
 50
198.126177
 51
262.513199
  0
ARC
  8
8
  6
CONTINUOUS
 62
     4
  5
812
 10
50150.316707
 20
9919.824733
 30
0.0
 40
45.00006
 50
97.662219
 51
161.873821
  0
ARC
  8
8
  6
CONTINUOUS
 62
     4
  5
813
 10
50150.316707
 20
9919.824733
 30
0.0
 40
45.00006
 50
299.267564
 51
60.416487
  0
ARC
  8
8
  6
CONTINUOUS
 62
     4
  5
814
 10
50150.316707
 20
9919.824733
 30
0.0
 40
43.00002
 50
199.000793
 51
261.979096
  0
ARC
  8
8
  6
CONTINUOUS
 62
     4
  5
815
 10
50150.316707
 20
9919.824733
 30
0.0
 40
43.00002
 50
98.020901
 51
160.999206
  0
ARC
  8
8
  6
CONTINUOUS
 62
     4
  5
816
 10
50150.316707
 20
9919.824733
 30
0.0
 40
43.00002
 50
98.020901
 51
160.999206
  0
ARC
  8
8
  6
CONTINUOUS
 62
     4
  5
817
 10
50150.316707
 20
9919.824733
 30
0.0
 40
43.00002
 50
300.77234
 51
59.22766
  0
ARC
  8
8
  6
CONTINUOUS
 62
     4
  5
818
 10
50150.316707
 20
9919.824733
 30
0.0
 40
43.00002
 50
199.206873
 51
261.979096
  0
CIRCLE
  8
8
  6
HIDDEN
 62
     4
  5
819
 10
50150.316707
 20
9919.824733
 30
0.0
 40
14.0
  0
CIRCLE
  8
8
  6
HIDDEN
 62
     4
  5
81A
 10
50150.316707
 20
9919.824733
 30
0.0
 40
7.50008
  0
CIRCLE
  8
8
  6
HIDDEN
 62
     4
  5
81B
 10
50150.316707
 20
9919.824733
 30
0.0
 40
3.00006
  0
ARC
  8
8
  6
CONTINUOUS
 62
     4
  5
81C
 10
49739.316817
 20
9737.824733
 30
0.0
 40
18.00008
 50
90.0
 51
180.0
  0
LINE
  8
50
  6
CONTINUOUS
 62
     4
  5
81D
 10
49721.316807
 20
9737.824733
 30
0.0
 11
49721.316807
 21
9651.824693
 31
0.0
  0
LINE
  8
8
  6
CONTINUOUS
 62
     4
  5
81E
 10
49754.973927
 20
9905.824593
 30
0.0
 11
49738.316657
 21
9905.824593
 31
0.0
  0
ARC
  8
8
  6
CONTINUOUS
 62
     4
  5
81F
 10
49714.316807
 20
9919.824593
 30
0.0
 40
45.00006
 50
119.45445
 51
239.423254
  0
ARC
  8
8
  6
CONTINUOUS
 62
     4
  5
820
 10
49714.316807
 20
9919.824593
 30
0.0
 40
45.00006
 50
277.66222
 51
341.873819
  0
CIRCLE
  8
8
  6
CONTINUOUS
 62
     4
  5
821
 10
49679.300427
 20
9919.871633
 30
0.0
 40
4.50002
  0
ARC
  8
8
  6
CONTINUOUS
 62
     4
  5
822
 10
49714.316807
 20
9919.824593
 30
0.0
 40
43.00002
 50
119.454518
 51
239.423182
  0
LINE
  8
10
  6
CENTER
 62
     4
  5
823
 10
49737.708007
 20
9879.309573
 30
0.0
 11
49722.399777
 21
9905.824593
 31
0.0
  0
LINE
  8
8
  6
CONTINUOUS
 62
     4
  5
824
 10
49724.886947
 20
9885.516333
 30
0.0
 11
49728.555297
 21
9879.162853
 31
0.0
  0
LINE
  8
8
  6
CONTINUOUS
 62
     4
  5
825
 10
49738.744287
 20
9893.514953
 30
0.0
 11
49742.405847
 21
9887.172813
 31
0.0
  0
LINE
  8
8
  6
CONTINUOUS
 62
     4
  5
826
 10
49727.919627
 20
9887.263673
 30
0.0
 11
49735.713847
 21
9891.763693
 31
0.0
  0
LINE
  8
8
  6
CONTINUOUS
 62
     4
  5
827
 10
49731.816807
 20
9889.513613
 30
0.0
 11
49729.566657
 21
9893.410793
 31
0.0
  0
ARC
  8
8
  6
CONTINUOUS
 62
     4
  5
828
 10
49730.818957
 20
9891.242473
 30
0.0
 40
8.00002
 50
30.378878
 51
210.741821
  0
CIRCLE
  8
8
  6
CONTINUOUS
 62
     4
  5
829
 10
49731.820727
 20
9889.499613
 30
0.0
 40
4.50002
  0
CIRCLE
  8
8
  6
CONTINUOUS
 62
     4
  5
82A
 10
49731.816807
 20
9889.513613
 30
0.0
 40
8.00002
  0
LINE
  8
8
  6
CONTINUOUS
 62
     4
  5
82B
 10
49679.319747
 20
9927.824753
 30
0.0
 11
49671.983467
 21
9927.824753
 31
0.0
  0
LINE
  8
8
  6
CONTINUOUS
 62
     4
  5
82C
 10
49679.318277
 20
9911.824573
 30
0.0
 11
49671.995087
 21
9911.824573
 31
0.0
  0
LINE
  8
8
  6
CONTINUOUS
 62
     4
  5
82D
 10
49679.316807
 20
9924.324753
 30
0.0
 11
49679.316807
 21
9915.324573
 31
0.0
  0
LINE
  8
8
  6
CONTINUOUS
 62
     4
  5
82E
 10
49679.316807
 20
9919.824593
 30
0.0
 11
49683.816687
 21
9919.824593
 31
0.0
  0
ARC
  8
8
  6
CONTINUOUS
 62
     4
  5
82F
 10
49681.312787
 20
9919.824173
 30
0.0
 40
8.00002
 50
270.378879
 51
90.741823
  0
CIRCLE
  8
8
  6
CONTINUOUS
 62
     4
  5
830
 10
49679.316807
 20
9919.824593
 30
0.0
 40
8.00002
  0
LINE
  8
10
  6
CENTER
 62
     4
  5
831
 10
49714.316807
 20
9919.824593
 30
0.0
 11
49722.399777
 21
9905.824593
 31
0.0
  0
LINE
  8
10
  6
CENTER
 62
     4
  5
832
 10
49714.316807
 20
9919.824593
 30
0.0
 11
49731.816807
 21
9950.135713
 31
0.0
  0
LINE
  8
8
  6
CONTINUOUS
 62
     4
  5
833
 10
49738.743447
 20
9946.133113
 30
0.0
 11
49742.411587
 21
9952.486453
 31
0.0
  0
LINE
  8
8
  6
CONTINUOUS
 62
     4
  5
834
 10
49724.887857
 20
9954.134533
 30
0.0
 11
49728.549347
 21
9960.476533
 31
0.0
  0
LINE
  8
8
  6
CONTINUOUS
 62
     4
  5
835
 10
49735.713847
 20
9947.885773
 30
0.0
 11
49727.919627
 21
9952.385653
 31
0.0
  0
LINE
  8
8
  6
CONTINUOUS
 62
     4
  5
836
 10
49731.816807
 20
9950.135713
 30
0.0
 11
49729.566657
 21
9946.238533
 31
0.0
  0
ARC
  8
8
  6
CONTINUOUS
 62
     4
  5
837
 10
49730.818397
 20
9948.407273
 30
0.0
 40
8.00002
 50
150.378878
 51
330.741823
  0
CIRCLE
  8
8
  6
CONTINUOUS
 62
     4
  5
838
 10
49731.827027
 20
9950.146213
 30
0.0
 40
4.50002
  0
CIRCLE
  8
8
  6
CONTINUOUS
 62
     4
  5
839
 10
49731.816807
 20
9950.135713
 30
0.0
 40
8.00002
  0
ARC
  8
8
  6
CONTINUOUS
 62
     4
  5
83A
 10
49714.316807
 20
9919.824593
 30
0.0
 40
43.00002
 50
277.486795
 51
341.873819
  0
ARC
  8
8
  6
CONTINUOUS
 62
     4
  5
83B
 10
49714.316807
 20
9919.824593
 30
0.0
 40
45.00006
 50
18.126179
 51
82.33778
  0
ARC
  8
8
  6
CONTINUOUS
 62
     4
  5
83C
 10
49714.316807
 20
9919.824593
 30
0.0
 40
45.00006
 50
119.583512
 51
240.732434
  0
ARC
  8
8
  6
CONTINUOUS
 62
     4
  5
83D
 10
49714.316807
 20
9919.824593
 30
0.0
 40
43.00002
 50
278.020902
 51
340.999207
  0
ARC
  8
8
  6
CONTINUOUS
 62
     4
  5
83E
 10
49714.316807
 20
9919.824593
 30
0.0
 40
43.00002
 50
19.000792
 51
81.979098
  0
ARC
  8
8
  6
CONTINUOUS
 62
     4
  5
83F
 10
49714.316807
 20
9919.824593
 30
0.0
 40
43.00002
 50
19.000792
 51
81.979098
  0
ARC
  8
8
  6
CONTINUOUS
 62
     4
  5
840
 10
49714.316807
 20
9919.824593
 30
0.0
 40
43.00002
 50
120.77234
 51
239.22766
  0
ARC
  8
8
  6
CONTINUOUS
 62
     4
  5
841
 10
49714.316807
 20
9919.824593
 30
0.0
 40
43.00002
 50
278.020902
 51
340.793126
  0
CIRCLE
  8
8
  6
HIDDEN
 62
     4
  5
842
 10
49714.316807
 20
9919.824593
 30
0.0
 40
14.0
  0
CIRCLE
  8
8
  6
HIDDEN
 62
     4
  5
843
 10
49714.316807
 20
9919.824593
 30
0.0
 40
7.50008
  0
CIRCLE
  8
8
  6
HIDDEN
 62
     4
  5
844
 10
49714.316807
 20
9919.824593
 30
0.0
 40
3.00006
  0
LINE
  8
8
  6
CONTINUOUS
 62
     4
  5
845
 10
49754.973927
 20
9605.824613
 30
0.0
 11
49738.316657
 21
9605.824613
 31
0.0
  0
ARC
  8
8
  6
CONTINUOUS
 62
     4
  5
846
 10
49714.316807
 20
9619.824613
 30
0.0
 40
45.00006
 50
119.45445
 51
239.423254
  0
ARC
  8
8
  6
CONTINUOUS
 62
     4
  5
847
 10
49714.316807
 20
9619.824613
 30
0.0
 40
45.00006
 50
277.66222
 51
341.873819
  0
CIRCLE
  8
8
  6
CONTINUOUS
 62
     4
  5
848
 10
49679.300427
 20
9619.871653
 30
0.0
 40
4.50002
  0
ARC
  8
8
  6
CONTINUOUS
 62
     4
  5
849
 10
49714.316807
 20
9619.824613
 30
0.0
 40
43.00002
 50
119.454518
 51
239.423182
  0
LINE
  8
10
  6
CENTER
 62
     4
  5
84A
 10
49737.708007
 20
9579.309593
 30
0.0
 11
49722.399777
 21
9605.824613
 31
0.0
  0
LINE
  8
8
  6
CONTINUOUS
 62
     4
  5
84B
 10
49724.886947
 20
9585.516353
 30
0.0
 11
49728.555297
 21
9579.162873
 31
0.0
  0
LINE
  8
8
  6
CONTINUOUS
 62
     4
  5
84C
 10
49738.744287
 20
9593.514973
 30
0.0
 11
49742.405847
 21
9587.172833
 31
0.0
  0
LINE
  8
8
  6
CONTINUOUS
 62
     4
  5
84D
 10
49727.919627
 20
9587.263693
 30
0.0
 11
49735.713847
 21
9591.763713
 31
0.0
  0
LINE
  8
8
  6
CONTINUOUS
 62
     4
  5
84E
 10
49731.816807
 20
9589.513633
 30
0.0
 11
49729.566657
 21
9593.410813
 31
0.0
  0
ARC
  8
8
  6
CONTINUOUS
 62
     4
  5
84F
 10
49730.818957
 20
9591.242493
 30
0.0
 40
8.00002
 50
30.378878
 51
210.741821
  0
CIRCLE
  8
8
  6
CONTINUOUS
 62
     4
  5
850
 10
49731.820727
 20
9589.499633
 30
0.0
 40
4.50002
  0
CIRCLE
  8
8
  6
CONTINUOUS
 62
     4
  5
851
 10
49731.816807
 20
9589.513633
 30
0.0
 40
8.00002
  0
LINE
  8
8
  6
CONTINUOUS
 62
     4
  5
852
 10
49679.319747
 20
9627.824773
 30
0.0
 11
49671.983467
 21
9627.824773
 31
0.0
  0
LINE
  8
8
  6
CONTINUOUS
 62
     4
  5
853
 10
49679.318277
 20
9611.824593
 30
0.0
 11
49671.995087
 21
9611.824593
 31
0.0
  0
LINE
  8
8
  6
CONTINUOUS
 62
     4
  5
854
 10
49679.316807
 20
9624.324773
 30
0.0
 11
49679.316807
 21
9615.324593
 31
0.0
  0
LINE
  8
8
  6
CONTINUOUS
 62
     4
  5
855
 10
49679.316807
 20
9619.824613
 30
0.0
 11
49683.816687
 21
9619.824613
 31
0.0
  0
ARC
  8
8
  6
CONTINUOUS
 62
     4
  5
856
 10
49681.312787
 20
9619.824193
 30
0.0
 40
8.00002
 50
270.378879
 51
90.741823
  0
CIRCLE
  8
8
  6
CONTINUOUS
 62
     4
  5
857
 10
49679.316807
 20
9619.824613
 30
0.0
 40
8.00002
  0
LINE
  8
10
  6
CENTER
 62
     4
  5
858
 10
49714.316807
 20
9619.824613
 30
0.0
 11
49722.399777
 21
9605.824613
 31
0.0
  0
LINE
  8
10
  6
CENTER
 62
     4
  5
859
 10
49714.316807
 20
9619.824613
 30
0.0
 11
49731.816807
 21
9650.135733
 31
0.0
  0
LINE
  8
8
  6
CONTINUOUS
 62
     4
  5
85A
 10
49738.743447
 20
9646.133133
 30
0.0
 11
49742.411587
 21
9652.486473
 31
0.0
  0
LINE
  8
8
  6
CONTINUOUS
 62
     4
  5
85B
 10
49724.887857
 20
9654.134553
 30
0.0
 11
49728.549347
 21
9660.476553
 31
0.0
  0
LINE
  8
8
  6
CONTINUOUS
 62
     4
  5
85C
 10
49735.713847
 20
9647.885793
 30
0.0
 11
49727.919627
 21
9652.385673
 31
0.0
  0
LINE
  8
8
  6
CONTINUOUS
 62
     4
  5
85D
 10
49731.816807
 20
9650.135733
 30
0.0
 11
49729.566657
 21
9646.238553
 31
0.0
  0
ARC
  8
8
  6
CONTINUOUS
 62
     4
  5
85E
 10
49730.818397
 20
9648.407293
 30
0.0
 40
8.00002
 50
150.378878
 51
330.741823
  0
CIRCLE
  8
8
  6
CONTINUOUS
 62
     4
  5
85F
 10
49731.827027
 20
9650.146233
 30
0.0
 40
4.50002
  0
CIRCLE
  8
8
  6
CONTINUOUS
 62
     4
  5
860
 10
49731.816807
 20
9650.135733
 30
0.0
 40
8.00002
  0
ARC
  8
8
  6
CONTINUOUS
 62
     4
  5
861
 10
49714.316807
 20
9619.824613
 30
0.0
 40
43.00002
 50
277.486795
 51
341.873819
  0
ARC
  8
8
  6
CONTINUOUS
 62
     4
  5
862
 10
49714.316807
 20
9619.824613
 30
0.0
 40
45.00006
 50
18.126179
 51
82.33778
  0
ARC
  8
8
  6
CONTINUOUS
 62
     4
  5
863
 10
49714.316807
 20
9619.824613
 30
0.0
 40
45.00006
 50
119.583512
 51
240.732434
  0
ARC
  8
8
  6
CONTINUOUS
 62
     4
  5
864
 10
49714.316807
 20
9619.824613
 30
0.0
 40
43.00002
 50
278.020902
 51
340.999207
  0
ARC
  8
8
  6
CONTINUOUS
 62
     4
  5
865
 10
49714.316807
 20
9619.824613
 30
0.0
 40
43.00002
 50
19.000792
 51
81.979098
  0
ARC
  8
8
  6
CONTINUOUS
 62
     4
  5
866
 10
49714.316807
 20
9619.824613
 30
0.0
 40
43.00002
 50
19.000792
 51
81.979098
  0
ARC
  8
8
  6
CONTINUOUS
 62
     4
  5
867
 10
49714.316807
 20
9619.824613
 30
0.0
 40
43.00002
 50
120.77234
 51
239.22766
  0
ARC
  8
8
  6
CONTINUOUS
 62
     4
  5
868
 10
49714.316807
 20
9619.824613
 30
0.0
 40
43.00002
 50
278.020902
 51
340.793126
  0
CIRCLE
  8
8
  6
HIDDEN
 62
     4
  5
869
 10
49714.316807
 20
9619.824613
 30
0.0
 40
14.0
  0
CIRCLE
  8
8
  6
HIDDEN
 62
     4
  5
86A
 10
49714.316807
 20
9619.824613
 30
0.0
 40
7.50008
  0
CIRCLE
  8
8
  6
HIDDEN
 62
     4
  5
86B
 10
49714.316807
 20
9619.824613
 30
0.0
 40
3.00006
  0
ARC
  8
8
  6
CONTINUOUS
 62
     4
  5
86C
 10
49889.816817
 20
9587.824673
 30
0.0
 40
18.00008
 50
90.0
 51
180.0
  0
ARC
  8
8
  6
CONTINUOUS
 62
     4
  5
86D
 10
49889.816817
 20
9651.824693
 30
0.0
 40
18.00008
 50
180.0
 51
270.0
  0
ARC
  8
8
  6
CONTINUOUS
 62
     4
  5
86E
 10
49739.316817
 20
9587.824533
 30
0.0
 40
18.00008
 50
90.0
 51
180.0
  0
ARC
  8
8
  6
CONTINUOUS
 62
     4
  5
86F
 10
49739.316817
 20
9651.824693
 30
0.0
 40
18.00008
 50
180.0
 51
270.0
  0
ARC
  8
8
  6
CONTINUOUS
 62
     4
  5
870
 10
49739.316817
 20
9887.824653
 30
0.0
 40
18.00008
 50
90.0
 51
180.0
  0
ARC
  8
8
  6
CONTINUOUS
 62
     4
  5
871
 10
49739.316817
 20
9951.824813
 30
0.0
 40
18.00008
 50
180.0
 51
270.0
  0
LINE
  8
10
  6
CENTER
 62
     3
  5
872
 10
50007.316857
 20
9419.824673
 30
0.0
 11
50007.316857
 21
10113.396573
 31
0.0
  0
LINE
  8
10
  6
CENTER
 62
     3
  5
873
 10
50157.316707
 20
9419.824673
 30
0.0
 11
50157.316707
 21
10113.396573
 31
0.0
  0
LINE
  8
10
  6
CENTER
 62
     3
  5
874
 10
49707.316807
 20
9419.824673
 30
0.0
 11
49707.316807
 21
10113.396573
 31
0.0
  0
LINE
  8
10
  6
CENTER
 62
     3
  5
875
 10
49667.316707
 20
9769.824673
 30
0.0
 11
50157.316707
 21
9769.824673
 31
0.0
  0
LINE
  8
10
  6
CENTER
 62
     3
  5
876
 10
49667.316707
 20
10069.824653
 30
0.0
 11
50157.316707
 21
10069.824653
 31
0.0
  0
LINE
  8
10
  6
CENTER
 62
     3
  5
877
 10
50157.316707
 20
9619.824753
 30
0.0
 11
49707.316807
 21
9619.824753
 31
0.0
  0
LINE
  8
10
  6
CENTER
 62
     3
  5
878
 10
50157.316707
 20
9919.824733
 30
0.0
 11
49707.316807
 21
9919.824733
 31
0.0
  0
LINE
  8
10
  6
CENTER
 62
     3
  5
879
 10
49857.316857
 20
9419.824673
 30
0.0
 11
49857.316857
 21
10113.396573
 31
0.0
  0
LINE
  8
10
  6
CENTER
 62
     3
  5
87A
 10
50157.316707
 20
9469.824693
 30
0.0
 11
49667.316707
 21
9469.824693
 31
0.0
  0
TEXT
  8
5
  6
CONTINUOUS
 62
     3
  5
87B
 10
50392.316757
 20
10243.396573
 30
0.0
 40
90.0
  1
650
 41
0.666667
  7

 72
     5
 11
50572.316757
 21
10243.396573
 31
0.0
  0
CIRCLE
  8
5
  6
CONTINUOUS
 62
     3
  5
87C
 10
49563.592101
 20
8819.824593
 30
0.0
 40
7.5
  0
CIRCLE
  8
5
  6
CONTINUOUS
 62
     3
  5
87D
 10
49563.092101
 20
9469.824693
 30
0.0
 40
7.5
  0
CIRCLE
  8
5
  6
CONTINUOUS
 62
     3
  5
87E
 10
49563.092101
 20
10069.824653
 30
0.0
 40
7.5
  0
LINE
  8
5
  6
CONTINUOUS
 62
     3
  5
87F
 10
49563.092101
 20
9469.824693
 30
0.0
 11
49563.092101
 21
10069.824653
 31
0.0
  0
LINE
  8
5
  6
CONTINUOUS
 62
     3
  5
880
 10
49563.092101
 20
9469.824693
 30
0.0
 11
49663.092101
 21
9469.824693
 31
0.0
  0
LINE
  8
5
  6
CONTINUOUS
 62
     3
  5
881
 10
49563.092101
 20
10069.824653
 30
0.0
 11
49663.092101
 21
10069.824653
 31
0.0
  0
TEXT
  8
5
  6
CONTINUOUS
 62
     3
  5
882
 10
49563.092101
 20
9679.824673
 30
0.0
 40
90.0
  1
600
 50
90.0
 41
0.666667
  7

 72
     5
 11
49563.092101
 21
9859.824673
 31
0.0
  0
TEXT
  8
5
  6
CONTINUOUS
 62
     3
  5
883
 10
49563.092101
 20
9054.324643
 30
0.0
 40
90.0
  1
650
 50
90.0
 41
0.666667
  7

 72
     5
 11
49563.092101
 21
9234.324643
 31
0.0
  0
LINE
  8
5
  6
CONTINUOUS
 62
     3
  5
884
 10
49563.092101
 20
8819.824593
 30
0.0
 11
49563.092101
 21
9469.824693
 31
0.0
  0
LINE
  8
5
  6
CONTINUOUS
 62
     3
  5
885
 10
49771.118108
 20
10083.824653
 30
0.0
 11
49727.816837
 21
10158.824653
 31
0.0
  0
LINE
  8
40
  6
CONTINUOUS
 62
     6
  5
886
 10
50290.316787
 20
13675.393261
 30
0.0
 11
50290.316787
 21
13783.393251
 31
0.0
  0
LINE
  8
40
  6
CONTINUOUS
 62
     6
  5
887
 10
50912.316837
 20
13783.393251
 30
0.0
 11
50290.316787
 21
13783.393251
 31
0.0
  0
LINE
  8
40
  6
CONTINUOUS
 62
     6
  5
888
 10
50912.316837
 20
13675.393261
 30
0.0
 11
50290.316787
 21
13675.393261
 31
0.0
  0
LINE
  8
40
  6
CONTINUOUS
 62
     6
  5
889
 10
50814.816777
 20
13785.393151
 30
0.0
 11
50912.316837
 21
13785.393151
 31
0.0
  0
LINE
  8
12
  6
CONTINUOUS
 62
     6
  5
88A
 10
50814.816777
 20
15643.393421
 30
0.0
 11
50814.816777
 21
13785.393151
 31
0.0
  0
ENDSEC
  0
EOF
