  0
SECTION
  2
HEADER
  9
$ACADVER
  1
AC1009
  9
$INSBASE
 10
0.0
 20
0.0
 30
0.0
  9
$EXTMIN
 10
-34.35471
 20
-24.482237
 30
0.0
  9
$EXTMAX
 10
1450.64529
 20
1025.517763
 30
0.0
  9
$LIMMIN
 10
-34.35471
 20
-24.482237
  9
$LIMMAX
 10
1450.64529
 20
1025.517763
  9
$ORTHOMODE
 70
     0
  9
$REGENMODE
 70
     1
  9
$FILLMODE
 70
     1
  9
$QTEXTMODE
 70
     0
  9
$MIRRTEXT
 70
     1
  9
$DRAGMODE
 70
     2
  9
$LTSCALE
 40
5.0
  9
$OSMODE
 70
     0
  9
$ATTMODE
 70
     1
  9
$TEXTSIZE
 40
0.2
  9
$TRACEWID
 40
0.05
  9
$TEXTSTYLE
  7
STANDARD
  9
$CLAYER
  8
0
  9
$CELTYPE
  6
CONTINUOUS
  9
$CECOLOR
 62
   256
  9
$DIMSCALE
 40
1.0
  9
$DIMASZ
 40
0.18
  9
$DIMEXO
 40
0.0625
  9
$DIMDLI
 40
0.38
  9
$DIMRND
 40
0.0
  9
$DIMDLE
 40
0.0
  9
$DIMEXE
 40
0.18
  9
$DIMTP
 40
0.0
  9
$DIMTM
 40
0.0
  9
$DIMTXT
 40
0.18
  9
$DIMCEN
 40
0.09
  9
$DIMTSZ
 40
0.0
  9
$DIMTOL
 70
     0
  9
$DIMLIM
 70
     0
  9
$DIMTIH
 70
     1
  9
$DIMTOH
 70
     1
  9
$DIMSE1
 70
     0
  9
$DIMSE2
 70
     0
  9
$DIMTAD
 70
     0
  9
$DIMZIN
 70
     0
  9
$DIMBLK
  1

  9
$DIMASO
 70
     1
  9
$DIMSHO
 70
     1
  9
$DIMPOST
  1

  9
$DIMAPOST
  1

  9
$DIMALT
 70
     0
  9
$DIMALTD
 70
     2
  9
$DIMALTF
 40
25.4
  9
$DIMLFAC
 40
1.0
  9
$DIMTOFL
 70
     0
  9
$DIMTVP
 40
0.0
  9
$DIMTIX
 70
     0
  9
$DIMSOXD
 70
     0
  9
$DIMSAH
 70
     0
  9
$DIMBLK1
  1

  9
$DIMBLK2
  1

  9
$DIMSTYLE
  2
STANDARD
  9
$DIMCLRD
 70
     0
  9
$DIMCLRE
 70
     0
  9
$DIMCLRT
 70
     0
  9
$DIMTFAC
 40
1.0
  9
$DIMGAP
 40
0.09
  9
$LUNITS
 70
     2
  9
$LUPREC
 70
     4
  9
$AXISMODE
 70
     0
  9
$AXISUNIT
 10
0.0
 20
0.0
  9
$SKETCHINC
 40
0.1
  9
$FILLETRAD
 40
0.0
  9
$AUNITS
 70
     0
  9
$AUPREC
 70
     0
  9
$MENU
  1
acad
  9
$ELEVATION
 40
0.0
  9
$PELEVATION
 40
0.0
  9
$THICKNESS
 40
0.0
  9
$LIMCHECK
 70
     0
  9
$BLIPMODE
 70
     1
  9
$CHAMFERA
 40
0.0
  9
$CHAMFERB
 40
0.0
  9
$SKPOLY
 70
     0
  9
$TDCREATE
 40
0.000000000
  9
$TDUPDATE
 40
0.000000000
  9
$TDINDWG
 40
0.0000000000
  9
$TDUSRTIMER
 40
0.0000000000
  9
$USRTIMER
 70
     1
  9
$ANGBASE
 50
0.0
  9
$ANGDIR
 70
     0
  9
$PDMODE
 70
     0
  9
$PDSIZE
 40
0.0
  9
$PLINEWID
 40
0.0
  9
$COORDS
 70
     0
  9
$SPLFRAME
 70
     0
  9
$SPLINETYPE
 70
     6
  9
$SPLINESEGS
 70
     8
  9
$ATTDIA
 70
     0
  9
$ATTREQ
 70
     1
  9
$HANDLING
 70
     1
  9
$HANDSEED
  5
3E9
  9
$SURFTAB1
 70
     6
  9
$SURFTAB2
 70
     6
  9
$SURFTYPE
 70
     6
  9
$SURFU
 70
     6
  9
$SURFV
 70
     6
  9
$UCSNAME
  2

  9
$UCSORG
 10
0.0
 20
0.0
 30
0.0
  9
$UCSXDIR
 10
1.0
 20
0.0
 30
0.0
  9
$UCSYDIR
 10
0.0
 20
1.0
 30
0.0
  9
$PUCSNAME
  2

  9
$PUCSORG
 10
0.0
 20
0.0
 30
0.0
  9
$PUCSXDIR
 10
1.0
 20
0.0
 30
0.0
  9
$PUCSYDIR
 10
0.0
 20
1.0
 30
0.0
  9
$USERI1
 70
     0
  9
$USERI2
 70
     0
  9
$USERI3
 70
     0
  9
$USERI4
 70
     0
  9
$USERI5
 70
     0
  9
$USERR1
 40
0.0
  9
$USERR2
 40
0.0
  9
$USERR3
 40
0.0
  9
$USERR4
 40
0.0
  9
$USERR5
 40
0.0
  9
$WORLDVIEW
 70
     1
  9
$SHADEDGE
 70
     3
  9
$SHADEDIF
 70
    70
  9
$TILEMODE
 70
     1
  9
$MAXACTVP
 70
    16
  9
$PINSBASE
 10
0.0
 20
0.0
 30
0.0
  9
$PLIMCHECK
 70
     0
  9
$PEXTMIN
 10
1.000000E+20
 20
1.000000E+20
 30
1.000000E+20
  9
$PEXTMAX
 10
-1.000000E+20
 20
-1.000000E+20
 30
-1.000000E+20
  9
$PLIMMIN
 10
0.0
 20
0.0
  9
$PLIMMAX
 10
12.0
 20
9.0
  9
$UNITMODE
 70
     0
  9
$VISRETAIN
 70
     0
  9
$PLINEGEN
 70
     1
  9
$PSLTSCALE
 70
     0
  9
$TREEDEPTH
 70
  3020
  9
$DWGCODEPAGE
  3
dos932
  0
ENDSEC
  0
SECTION
  2
TABLES
  0
TABLE
  2
VPORT
 70
     1
  0
VPORT
  2
*ACTIVE
 70
     0
 10
0.0
 20
0.0
 11
1.0
 21
1.0
 12
708.14529
 22
500.517763
 13
0.0
 23
0.0
 14
5.0
 24
5.0
 15
5.0
 25
5.0
 16
0.0
 26
0.0
 36
1.0
 17
0.0
 27
0.0
 37
0.0
 40
1050.0
 41
1.414286
 42
50.0
 43
0.0
 44
0.0
 50
0.0
 51
0.0
 71
     0
 72
   100
 73
     1
 74
     1
 75
     0
 76
     0
 77
     0
 78
     0
  0
ENDTAB
  0
TABLE
  2
LTYPE
 70
     5
  0
LTYPE
  2
CONTINUOUS
 70
    64
  3
Solid line
 72
    65
 73
     0
 40
0.0
  0
LTYPE
  2
HIDDEN
 70
    64
  3
__ __ __ __ __ __ __ __ __ __ __ __ __ __ __ __
 72
    65
 73
     5
 40
8.0
 49
1.0
 49
-2.0
 49
2.0
 49
-2.0
 49
1.0
  0
LTYPE
  2
DOT
 70
    64
  3
. . . . . . . . . . . . . . . . . . . . . . . .
 72
    65
 73
     3
 40
1.6
 49
0.4
 49
-0.8
 49
0.4
  0
LTYPE
  2
CENTER
 70
    64
  3
____ _ ____ _ ____ _ ____ _ ____ _ ____ _ ____ 
 72
    65
 73
     5
 40
12.0
 49
5.0
 49
-0.8
 49
0.4
 49
-0.8
 49
5.0
  0
LTYPE
  2
DIVIDE
 70
    64
  3
____ . . ____ . . ____ . . ____ . . ____ . . __
 72
    65
 73
     7
 40
13.2
 49
5.0
 49
-0.8
 49
0.4
 49
-0.8
 49
0.4
 49
-0.8
 49
5.0
  0
ENDTAB
  0
TABLE
  2
LAYER
 70
     7
  0
LAYER
  2
0
 70
     0
 62
     7
  6
CONTINUOUS
  0
LAYER
  2
1
 70
     0
 62
     1
  6
CONTINUOUS
  0
LAYER
  2
4
 70
     0
 62
     1
  6
CONTINUOUS
  0
LAYER
  2
5
 70
     0
 62
     1
  6
CONTINUOUS
  0
LAYER
  2
50
 70
     0
 62
     1
  6
CONTINUOUS
  0
LAYER
  2
100
 70
     0
 62
     1
  6
CONTINUOUS
  0
LAYER
  2
150
 70
     0
 62
     1
  6
CONTINUOUS
  0
ENDTAB
  0
TABLE
  2
STYLE
 70
     4
  0
STYLE
  2
STANDARD
 70
     0
 40
0.0
 41
1.0
 50
0.0
 71
     0
 42
0.0
  3
txt
  4

  0
STYLE
  2
DRACAD
 70
     0
 40
1000.0
 41
1.0
 50
0.0
 71
     0
 42
1000.0
  3
txt
  4
extfont
  0
STYLE
  2
TATEDRACAD
 70
     4
 40
1000.0
 41
1.0
 50
0.0
 71
     0
 42
1000.0
  3
txt
  4
extfont
  0
STYLE
  2
1
 70
     0
 40
1000.0
 41
1.0
 50
0.0
 71
     0
 42
1000.0
  3
txt
  4
extfont
  0
ENDTAB
  0
TABLE
  2
VIEW
 70
     0
  0
ENDTAB
  0
TABLE
  2
UCS
 70
     0
  0
ENDTAB
  0
TABLE
  2
APPID
 70
     1
  0
APPID
  2
ACAD
 70
     0
  0
ENDTAB
  0
TABLE
  2
DIMSTYLE
 70
     1
  0
DIMSTYLE
  2
STANDARD
 70
     0
  3

  4

  5

  6

  7

 40
1.0
 41
0.18
 42
0.0625
 43
0.38
 44
0.18
 45
0.0
 46
0.0
 47
0.0
 48
0.0
 71
     0
 72
     0
 73
     1
 74
     1
 75
     0
 76
     0
 77
     0
 78
     0
140
0.18
141
0.09
142
0.0
143
25.4
144
1.0
145
0.0
146
1.0
147
0.09
170
     0
171
     2
172
     0
173
     0
174
     0
175
     0
176
     0
177
     0
178
     0
  0
ENDTAB
  0
ENDSEC
  0
SECTION
  2
BLOCKS
  0
ENDSEC
  0
SECTION
  2
ENTITIES
  0
LINE
  8
150
  6
CONTINUOUS
 62
    15
  5
103
 10
182.77029
 20
74.954133
 30
0.0
 11
182.77029
 21
72.954133
 31
0.0
  0
LINE
  8
150
  6
CONTINUOUS
 62
    15
  5
104
 10
629.982053
 20
72.954133
 30
0.0
 11
629.982053
 21
17.517763
 31
0.0
  0
LINE
  8
150
  6
CONTINUOUS
 62
    15
  5
105
 10
627.625053
 20
72.954133
 30
0.0
 11
627.625053
 21
17.517763
 31
0.0
  0
LINE
  8
150
  6
CONTINUOUS
 62
    15
  5
106
 10
719.29995
 20
45.538501
 30
0.0
 11
719.29995
 21
17.517763
 31
0.0
  0
LINE
  8
150
  6
CONTINUOUS
 62
    15
  5
107
 10
721.656951
 20
45.538501
 30
0.0
 11
721.656951
 21
17.517763
 31
0.0
  0
LINE
  8
150
  6
CONTINUOUS
 62
    15
  5
108
 10
719.29995
 20
45.538501
 30
0.0
 11
719.29995
 21
72.954133
 31
0.0
  0
LINE
  8
150
  6
CONTINUOUS
 62
    15
  5
109
 10
721.656951
 20
45.538501
 30
0.0
 11
721.656951
 21
72.954133
 31
0.0
  0
LINE
  8
150
  6
CONTINUOUS
 62
    15
  5
10A
 10
1323.808445
 20
72.954133
 30
0.0
 11
1323.808445
 21
17.517763
 31
0.0
  0
LINE
  8
150
  6
CONTINUOUS
 62
    15
  5
10B
 10
1321.451445
 20
72.954133
 30
0.0
 11
1321.451445
 21
17.517763
 31
0.0
  0
LINE
  8
150
  6
CONTINUOUS
 62
    15
  5
10C
 10
1233.52029
 20
74.954133
 30
0.0
 11
1233.52029
 21
72.954133
 31
0.0
  0
LINE
  8
150
  6
CONTINUOUS
 62
    15
  5
10D
 10
1058.39529
 20
74.954133
 30
0.0
 11
1058.39529
 21
72.954133
 31
0.0
  0
LINE
  8
150
  6
CONTINUOUS
 62
    15
  5
10E
 10
883.27029
 20
74.954133
 30
0.0
 11
883.27029
 21
72.954133
 31
0.0
  0
LINE
  8
150
  6
CONTINUOUS
 62
    15
  5
10F
 10
708.14529
 20
74.954133
 30
0.0
 11
708.14529
 21
72.954133
 31
0.0
  0
LINE
  8
150
  6
CONTINUOUS
 62
    15
  5
110
 10
533.02029
 20
74.954133
 30
0.0
 11
533.02029
 21
72.954133
 31
0.0
  0
LINE
  8
150
  6
CONTINUOUS
 62
    15
  5
111
 10
1337.70234
 20
31.892711
 30
0.0
 11
1337.70234
 21
48.090441
 31
0.0
  0
LINE
  8
150
  6
CONTINUOUS
 62
    15
  5
112
 10
1337.70234
 20
48.090441
 30
0.0
 11
1341.751773
 21
48.090441
 31
0.0
  0
LINE
  8
150
  6
CONTINUOUS
 62
    15
  5
113
 10
1341.751773
 20
48.090441
 30
0.0
 11
1345.801205
 21
44.041008
 31
0.0
  0
LINE
  8
150
  6
CONTINUOUS
 62
    15
  5
114
 10
1345.801205
 20
44.041008
 30
0.0
 11
1349.850638
 21
48.090441
 31
0.0
  0
LINE
  8
150
  6
CONTINUOUS
 62
    15
  5
115
 10
1349.850638
 20
48.090441
 30
0.0
 11
1353.90007
 21
48.090441
 31
0.0
  0
LINE
  8
150
  6
CONTINUOUS
 62
    15
  5
116
 10
1353.90007
 20
48.090441
 30
0.0
 11
1353.90007
 21
31.892711
 31
0.0
  0
LINE
  8
150
  6
CONTINUOUS
 62
    15
  5
117
 10
1353.90007
 20
31.892711
 30
0.0
 11
1349.850638
 21
31.892711
 31
0.0
  0
LINE
  8
150
  6
CONTINUOUS
 62
    15
  5
118
 10
1337.70234
 20
31.892711
 30
0.0
 11
1341.751773
 21
31.892711
 31
0.0
  0
LINE
  8
150
  6
CONTINUOUS
 62
    15
  5
119
 10
1341.751773
 20
31.892711
 30
0.0
 11
1341.751773
 21
42.363678
 31
0.0
  0
LINE
  8
150
  6
CONTINUOUS
 62
    15
  5
11A
 10
1349.850638
 20
31.892711
 30
0.0
 11
1349.850638
 21
42.363678
 31
0.0
  0
LINE
  8
150
  6
CONTINUOUS
 62
    15
  5
11B
 10
1345.801205
 20
38.314246
 30
0.0
 11
1349.850638
 21
42.363678
 31
0.0
  0
LINE
  8
150
  6
CONTINUOUS
 62
    15
  5
11C
 10
1341.751773
 20
42.363678
 30
0.0
 11
1345.801205
 21
38.314246
 31
0.0
  0
LINE
  8
150
  6
CONTINUOUS
 62
    15
  5
11D
 10
1357.949503
 20
44.041008
 30
0.0
 11
1361.998935
 21
48.090441
 31
0.0
  0
LINE
  8
150
  6
CONTINUOUS
 62
    15
  5
11E
 10
1361.998935
 20
48.090441
 30
0.0
 11
1370.0978
 21
48.090441
 31
0.0
  0
LINE
  8
150
  6
CONTINUOUS
 62
    15
  5
11F
 10
1370.0978
 20
48.090441
 30
0.0
 11
1374.147233
 21
44.041008
 31
0.0
  0
LINE
  8
150
  6
CONTINUOUS
 62
    15
  5
120
 10
1357.949503
 20
44.041008
 30
0.0
 11
1357.949503
 21
35.942143
 31
0.0
  0
LINE
  8
150
  6
CONTINUOUS
 62
    15
  5
121
 10
1357.949503
 20
35.942143
 30
0.0
 11
1361.998935
 21
31.892711
 31
0.0
  0
LINE
  8
150
  6
CONTINUOUS
 62
    15
  5
122
 10
1361.998935
 20
31.892711
 30
0.0
 11
1370.0978
 21
31.892711
 31
0.0
  0
LINE
  8
150
  6
CONTINUOUS
 62
    15
  5
123
 10
1370.0978
 20
31.892711
 30
0.0
 11
1374.147233
 21
35.942143
 31
0.0
  0
LINE
  8
150
  6
CONTINUOUS
 62
    15
  5
124
 10
1370.0978
 20
44.041008
 30
0.0
 11
1361.998935
 21
44.041008
 31
0.0
  0
LINE
  8
150
  6
CONTINUOUS
 62
    15
  5
125
 10
1361.998935
 20
44.041008
 30
0.0
 11
1361.998935
 21
35.942143
 31
0.0
  0
LINE
  8
150
  6
CONTINUOUS
 62
    15
  5
126
 10
1361.998935
 20
35.942143
 30
0.0
 11
1370.0978
 21
35.942143
 31
0.0
  0
LINE
  8
150
  6
CONTINUOUS
 62
    15
  5
127
 10
1370.0978
 20
37.966859
 30
0.0
 11
1374.147233
 21
37.966859
 31
0.0
  0
LINE
  8
150
  6
CONTINUOUS
 62
    15
  5
128
 10
1374.147233
 20
42.016292
 30
0.0
 11
1370.0978
 21
42.016292
 31
0.0
  0
LINE
  8
150
  6
CONTINUOUS
 62
    15
  5
129
 10
1370.0978
 20
42.016292
 30
0.0
 11
1370.0978
 21
44.041008
 31
0.0
  0
LINE
  8
150
  6
CONTINUOUS
 62
    15
  5
12A
 10
1374.147233
 20
44.041008
 30
0.0
 11
1374.147233
 21
42.016292
 31
0.0
  0
LINE
  8
150
  6
CONTINUOUS
 62
    15
  5
12B
 10
1374.147233
 20
37.966859
 30
0.0
 11
1374.147233
 21
35.942143
 31
0.0
  0
LINE
  8
150
  6
CONTINUOUS
 62
    15
  5
12C
 10
1370.0978
 20
37.966859
 30
0.0
 11
1370.0978
 21
35.942143
 31
0.0
  0
LINE
  8
150
  6
CONTINUOUS
 62
    15
  5
12D
 10
1378.196665
 20
44.041008
 30
0.0
 11
1378.196665
 21
35.942143
 31
0.0
  0
LINE
  8
150
  6
CONTINUOUS
 62
    15
  5
12E
 10
1408.64529
 20
790.317763
 30
0.0
 11
1410.64529
 21
790.317763
 31
0.0
  0
LINE
  8
150
  6
CONTINUOUS
 62
    15
  5
12F
 10
1408.64529
 20
597.117763
 30
0.0
 11
1410.64529
 21
597.117763
 31
0.0
  0
LINE
  8
150
  6
CONTINUOUS
 62
    15
  5
130
 10
1408.64529
 20
403.917763
 30
0.0
 11
1410.64529
 21
403.917763
 31
0.0
  0
LINE
  8
150
  6
CONTINUOUS
 62
    15
  5
131
 10
1408.64529
 20
210.717763
 30
0.0
 11
1410.64529
 21
210.717763
 31
0.0
  0
LINE
  8
150
  6
CONTINUOUS
 62
    15
  5
132
 10
1390.344963
 20
48.090441
 30
0.0
 11
1394.394395
 21
44.041008
 31
0.0
  0
LINE
  8
150
  6
CONTINUOUS
 62
    15
  5
133
 10
1390.344963
 20
31.892711
 30
0.0
 11
1394.394395
 21
35.942143
 31
0.0
  0
LINE
  8
150
  6
CONTINUOUS
 62
    15
  5
134
 10
1390.344963
 20
37.966859
 30
0.0
 11
1394.394395
 21
37.966859
 31
0.0
  0
LINE
  8
150
  6
CONTINUOUS
 62
    15
  5
135
 10
1394.394395
 20
42.016292
 30
0.0
 11
1390.344963
 21
42.016292
 31
0.0
  0
LINE
  8
150
  6
CONTINUOUS
 62
    15
  5
136
 10
1390.344963
 20
42.016292
 30
0.0
 11
1390.344963
 21
44.041008
 31
0.0
  0
LINE
  8
150
  6
CONTINUOUS
 62
    15
  5
137
 10
1394.394395
 20
44.041008
 30
0.0
 11
1394.394395
 21
42.016292
 31
0.0
  0
LINE
  8
150
  6
CONTINUOUS
 62
    15
  5
138
 10
1394.394395
 20
37.966859
 30
0.0
 11
1394.394395
 21
35.942143
 31
0.0
  0
LINE
  8
150
  6
CONTINUOUS
 62
    15
  5
139
 10
1390.344963
 20
37.966859
 30
0.0
 11
1390.344963
 21
35.942143
 31
0.0
  0
LINE
  8
150
  6
CONTINUOUS
 62
    15
  5
13A
 10
1378.196665
 20
44.041008
 30
0.0
 11
1382.246098
 21
48.090441
 31
0.0
  0
LINE
  8
150
  6
CONTINUOUS
 62
    15
  5
13B
 10
1378.196665
 20
35.942143
 30
0.0
 11
1382.246098
 21
31.892711
 31
0.0
  0
LINE
  8
150
  6
CONTINUOUS
 62
    15
  5
13C
 10
1382.246098
 20
44.041008
 30
0.0
 11
1382.246098
 21
35.942143
 31
0.0
  0
LINE
  8
150
  6
CONTINUOUS
 62
    15
  5
13D
 10
1382.246098
 20
48.090441
 30
0.0
 11
1390.344963
 21
48.090441
 31
0.0
  0
LINE
  8
150
  6
CONTINUOUS
 62
    15
  5
13E
 10
1382.246098
 20
31.892711
 30
0.0
 11
1390.344963
 21
31.892711
 31
0.0
  0
LINE
  8
150
  6
CONTINUOUS
 62
    15
  5
13F
 10
1390.344963
 20
44.041008
 30
0.0
 11
1382.246098
 21
44.041008
 31
0.0
  0
LINE
  8
150
  6
CONTINUOUS
 62
    15
  5
140
 10
1382.246098
 20
35.942143
 30
0.0
 11
1390.344963
 21
35.942143
 31
0.0
  0
LINE
  8
150
  6
CONTINUOUS
 62
    15
  5
141
 10
5.64529
 20
15.517763
 30
0.0
 11
1410.64529
 21
15.517763
 31
0.0
  0
LINE
  8
150
  6
CONTINUOUS
 62
    15
  5
142
 10
5.64529
 20
17.517763
 30
0.0
 11
1410.64529
 21
17.517763
 31
0.0
  0
TEXT
  8
150
  6
CONTINUOUS
 62
    15
  5
143
 10
145.432457
 20
987.378552
 30
0.0
 40
7.815316
  1
感謝にまさる能力なし
 41
0.837
  7
1
 72
     5
 11
223.585617
 21
987.378552
 31
0.0
  0
LINE
  8
150
  6
CONTINUOUS
 62
    15
  5
144
 10
182.77029
 20
985.517763
 30
0.0
 11
182.77029
 21
983.517763
 31
0.0
  0
LINE
  8
150
  6
CONTINUOUS
 62
    15
  5
145
 10
357.89529
 20
985.517763
 30
0.0
 11
357.89529
 21
983.517763
 31
0.0
  0
LINE
  8
150
  6
CONTINUOUS
 62
    15
  5
146
 10
533.02029
 20
985.517763
 30
0.0
 11
533.02029
 21
983.517763
 31
0.0
  0
LINE
  8
150
  6
CONTINUOUS
 62
    15
  5
147
 10
708.14529
 20
985.517763
 30
0.0
 11
708.14529
 21
983.517763
 31
0.0
  0
LINE
  8
150
  6
CONTINUOUS
 62
    15
  5
148
 10
883.27029
 20
985.517763
 30
0.0
 11
883.27029
 21
983.517763
 31
0.0
  0
LINE
  8
150
  6
CONTINUOUS
 62
    15
  5
149
 10
1058.39529
 20
985.517763
 30
0.0
 11
1058.39529
 21
983.517763
 31
0.0
  0
LINE
  8
150
  6
CONTINUOUS
 62
    15
  5
14A
 10
1233.52029
 20
985.517763
 30
0.0
 11
1233.52029
 21
983.517763
 31
0.0
  0
LINE
  8
150
  6
CONTINUOUS
 62
    15
  5
14B
 10
1410.64529
 20
983.517763
 30
0.0
 11
5.64529
 21
983.517763
 31
0.0
  0
LINE
  8
150
  6
CONTINUOUS
 62
    15
  5
14C
 10
1410.64529
 20
985.517763
 30
0.0
 11
5.64529
 21
985.517763
 31
0.0
  0
LINE
  8
150
  6
CONTINUOUS
 62
    15
  5
14D
 10
1410.64529
 20
985.517763
 30
0.0
 11
1410.64529
 21
15.517763
 31
0.0
  0
LINE
  8
150
  6
CONTINUOUS
 62
    15
  5
14E
 10
1408.64529
 20
985.517763
 30
0.0
 11
1408.64529
 21
15.517763
 31
0.0
  0
LINE
  8
150
  6
CONTINUOUS
 62
    15
  5
14F
 10
5.64529
 20
210.717763
 30
0.0
 11
7.64529
 21
210.717763
 31
0.0
  0
LINE
  8
150
  6
CONTINUOUS
 62
    15
  5
150
 10
5.64529
 20
403.917763
 30
0.0
 11
7.64529
 21
403.917763
 31
0.0
  0
LINE
  8
150
  6
CONTINUOUS
 62
    15
  5
151
 10
5.64529
 20
597.117763
 30
0.0
 11
7.64529
 21
597.117763
 31
0.0
  0
LINE
  8
150
  6
CONTINUOUS
 62
    15
  5
152
 10
5.64529
 20
790.317763
 30
0.0
 11
7.64529
 21
790.317763
 31
0.0
  0
LINE
  8
150
  6
CONTINUOUS
 62
    15
  5
153
 10
5.64529
 20
15.517763
 30
0.0
 11
5.64529
 21
985.517763
 31
0.0
  0
LINE
  8
150
  6
CONTINUOUS
 62
    15
  5
154
 10
7.64529
 20
15.517763
 30
0.0
 11
7.64529
 21
985.517763
 31
0.0
  0
TEXT
  8
150
  6
CONTINUOUS
 62
    15
  5
155
 10
29.8154
 20
33.381342
 30
0.0
 40
10.792579
  1
街づくり
 41
0.837
  7
1
 72
     5
 11
72.985717
 21
33.381342
 31
0.0
  0
TEXT
  8
150
  6
CONTINUOUS
 62
    15
  5
156
 10
35.335742
 20
48.019553
 30
0.0
 40
10.792579
  1
明るい
 41
0.837
  7
1
 72
     5
 11
67.71348
 21
48.019553
 31
0.0
  0
LINE
  8
150
  6
CONTINUOUS
 62
    14
  5
157
 10
92.337929
 20
54.718396
 30
0.0
 11
627.625053
 21
54.718396
 31
0.0
  0
LINE
  8
150
  6
CONTINUOUS
 62
    14
  5
158
 10
92.337929
 20
45.538501
 30
0.0
 11
627.625053
 21
45.538501
 31
0.0
  0
LINE
  8
150
  6
CONTINUOUS
 62
    14
  5
159
 10
92.337929
 20
36.358606
 30
0.0
 11
627.625053
 21
36.358606
 31
0.0
  0
LINE
  8
150
  6
CONTINUOUS
 62
    14
  5
15A
 10
92.337929
 20
27.178711
 30
0.0
 11
627.625053
 21
27.178711
 31
0.0
  0
LINE
  8
150
  6
CONTINUOUS
 62
    14
  5
15B
 10
92.337929
 20
17.517763
 30
0.0
 11
92.337929
 21
72.954133
 31
0.0
  0
LINE
  8
150
  6
CONTINUOUS
 62
    14
  5
15C
 10
92.337929
 20
63.774238
 30
0.0
 11
627.625053
 21
63.774238
 31
0.0
  0
LINE
  8
150
  6
CONTINUOUS
 62
    14
  5
15D
 10
659.878738
 20
72.954133
 30
0.0
 11
659.878738
 21
17.517763
 31
0.0
  0
TEXT
  8
150
  6
CONTINUOUS
 62
    14
  5
15E
 10
633.517553
 20
54.718396
 30
0.0
 40
7.319106
  1
御承認
 41
0.837
  7
1
 72
     5
 11
655.474869
 21
54.718396
 31
0.0
  0
LINE
  8
150
  6
CONTINUOUS
 62
    14
  5
15F
 10
689.775423
 20
72.954133
 30
0.0
 11
689.775423
 21
17.517763
 31
0.0
  0
LINE
  8
150
  6
CONTINUOUS
 62
    14
  5
160
 10
629.982053
 20
45.538501
 30
0.0
 11
719.29995
 21
45.538501
 31
0.0
  0
TEXT
  8
150
  6
CONTINUOUS
 62
    14
  5
161
 10
723.370472
 20
23.495586
 30
0.0
 40
7.319106
  1
備　考
 41
0.837
  7
1
 72
     5
 11
745.327789
 21
23.495586
 31
0.0
  0
TEXT
  8
150
  6
CONTINUOUS
 62
    14
  5
162
 10
723.827872
 20
42.003001
 30
0.0
 40
7.319106
  1
図　名
 41
0.837
  7
1
 72
     5
 11
745.785188
 21
42.003001
 31
0.0
  0
TEXT
  8
150
  6
CONTINUOUS
 62
    14
  5
163
 10
723.827872
 20
60.486843
 30
0.0
 40
7.319106
  1
商品名
 41
0.837
  7
1
 72
     5
 11
745.785188
 21
60.486843
 31
0.0
  0
TEXT
  8
150
  6
CONTINUOUS
 62
    14
  5
164
 10
755.175784
 20
39.340539
 30
0.0
 40
12.0
  1
承認図
 41
0.837
  7
1
 72
     5
 11
791.175784
 21
39.340539
 31
0.0
  0
LINE
  8
150
  6
CONTINUOUS
 62
    14
  5
165
 10
748.700425
 20
72.954133
 30
0.0
 11
748.700425
 21
17.517763
 31
0.0
  0
LINE
  8
150
  6
CONTINUOUS
 62
    14
  5
166
 10
971.747065
 20
60.921028
 30
0.0
 11
988.866328
 21
60.921028
 31
0.0
  0
LINE
  8
150
  6
CONTINUOUS
 62
    14
  5
167
 10
993.580328
 20
60.921028
 30
0.0
 11
1010.699592
 21
60.921028
 31
0.0
  0
TEXT
  8
150
  6
CONTINUOUS
 62
    14
  5
168
 10
970.258433
 20
28.233158
 30
0.0
 40
7.319106
  1
用紙
 41
0.837
  7
1
 72
     5
 11
984.896644
 21
28.233158
 31
0.0
  0
TEXT
  8
150
  6
CONTINUOUS
 62
    14
  5
169
 10
973.235696
 20
61.603317
 30
0.0
 40
7.319106
  1
検図
 41
0.837
  7
1
 72
     5
 11
987.873907
 21
61.603317
 31
0.0
  0
TEXT
  8
150
  6
CONTINUOUS
 62
    14
  5
16A
 10
994.696802
 20
61.975475
 30
0.0
 40
7.319106
  1
作図
 41
0.837
  7
1
 72
     5
 11
1009.335013
 21
61.975475
 31
0.0
  0
TEXT
  8
150
  6
CONTINUOUS
 62
    14
  5
16B
 10
996.805697
 20
22.836868
 30
0.0
 40
15.754685
  1
A4
 41
0.5
  7
1
 72
     5
 11
1012.560382
 21
22.836868
 31
0.0
  0
LINE
  8
150
  6
CONTINUOUS
 62
    14
  5
16C
 10
987.501749
 20
45.538501
 30
0.0
 11
987.501749
 21
17.517763
 31
0.0
  0
LINE
  8
150
  6
CONTINUOUS
 62
    14
  5
16D
 10
967.529275
 20
72.954133
 30
0.0
 11
967.529275
 21
17.517763
 31
0.0
  0
LINE
  8
150
  6
CONTINUOUS
 62
    14
  5
16E
 10
967.529275
 20
36.358606
 30
0.0
 11
721.656951
 21
36.358606
 31
0.0
  0
LINE
  8
150
  6
CONTINUOUS
 62
    14
  5
16F
 10
967.529275
 20
54.718396
 30
0.0
 11
721.656951
 21
54.718396
 31
0.0
  0
LINE
  8
150
  6
CONTINUOUS
 62
    14
  5
170
 10
1180.403598
 20
59.308343
 30
0.0
 11
1265.131548
 21
59.308343
 31
0.0
  0
LINE
  8
150
  6
CONTINUOUS
 62
    14
  5
171
 10
1265.131548
 20
72.954133
 30
0.0
 11
1265.131548
 21
45.538501
 31
0.0
  0
LINE
  8
150
  6
CONTINUOUS
 62
    14
  5
172
 10
1277.660865
 20
72.954133
 30
0.0
 11
1277.660865
 21
45.538501
 31
0.0
  0
LINE
  8
150
  6
CONTINUOUS
 62
    14
  5
173
 10
1144.180228
 20
72.954133
 30
0.0
 11
1144.180228
 21
45.538501
 31
0.0
  0
LINE
  8
150
  6
CONTINUOUS
 62
    14
  5
174
 10
1180.403598
 20
72.954133
 30
0.0
 11
1180.403598
 21
45.538501
 31
0.0
  0
TEXT
  8
150
  6
CONTINUOUS
 62
    14
  5
175
 10
1267.79868
 20
60.983054
 30
0.0
 40
7.319106
  1
図
 41
0.837
  7
1
 72
     5
 11
1275.117786
 21
60.983054
 31
0.0
  0
TEXT
  8
150
  6
CONTINUOUS
 62
    14
  5
176
 10
1147.653702
 20
55.648791
 30
0.0
 40
7.319106
  1
管理番号
 41
0.837
  7
1
 72
     5
 11
1176.930124
 21
55.648791
 31
0.0
  0
TEXT
  8
150
  6
CONTINUOUS
 62
    14
  5
177
 10
1267.79868
 20
49.446159
 30
0.0
 40
7.319106
  1
番
 41
0.837
  7
1
 72
     5
 11
1275.117786
 21
49.446159
 31
0.0
  0
LINE
  8
150
  6
CONTINUOUS
 62
    14
  5
178
 10
967.529275
 20
45.538501
 30
0.0
 11
1321.451445
 21
45.538501
 31
0.0
  0
LINE
  8
150
  6
CONTINUOUS
 62
    14
  5
179
 10
1044.193804
 20
72.954133
 30
0.0
 11
1044.193804
 21
45.538501
 31
0.0
  0
TEXT
  8
150
  6
CONTINUOUS
 62
    14
  5
17A
 10
1104.979595
 20
61.789396
 30
0.0
 40
7.319106
  1
月
 41
0.837
  7
1
 72
     5
 11
1112.298701
 21
61.789396
 31
0.0
  0
TEXT
  8
150
  6
CONTINUOUS
 62
    14
  5
17B
 10
1127.185017
 20
61.789396
 30
0.0
 40
7.319106
  1
日
 41
0.837
  7
1
 72
     5
 11
1134.504123
 21
61.789396
 31
0.0
  0
TEXT
  8
150
  6
CONTINUOUS
 62
    14
  5
17C
 10
1053.125594
 20
61.913449
 30
0.0
 40
7.319106
  1
作図
 41
0.837
  7
1
 72
     5
 11
1067.763805
 21
61.913449
 31
0.0
  0
TEXT
  8
150
  6
CONTINUOUS
 62
    14
  5
17D
 10
1082.774174
 20
61.789396
 30
0.0
 40
7.319106
  1
年
 41
0.837
  7
1
 72
     5
 11
1090.093279
 21
61.789396
 31
0.0
  0
TEXT
  8
150
  6
CONTINUOUS
 62
    14
  5
17E
 10
1034.889856
 20
28.233158
 30
0.0
 40
7.319106
  1
縮尺
 41
0.837
  7
1
 72
     5
 11
1049.528067
 21
28.233158
 31
0.0
  0
TEXT
  8
150
  6
CONTINUOUS
 62
    14
  5
17F
 10
1059.328225
 20
22.216605
 30
0.0
 40
15.754685
  1
1:5
 41
0.5
  7
1
 72
     5
 11
1082.960253
 21
22.216605
 31
0.0
  0
TEXT
  8
150
  6
CONTINUOUS
 62
    14
  5
180
 10
1104.979595
 20
48.639817
 30
0.0
 40
7.319106
  1
月
 41
0.837
  7
1
 72
     5
 11
1112.298701
 21
48.639817
 31
0.0
  0
TEXT
  8
150
  6
CONTINUOUS
 62
    14
  5
181
 10
1127.185017
 20
48.515764
 30
0.0
 40
7.319106
  1
日
 41
0.837
  7
1
 72
     5
 11
1134.504123
 21
48.515764
 31
0.0
  0
TEXT
  8
150
  6
CONTINUOUS
 62
    14
  5
182
 10
1082.774174
 20
48.639817
 30
0.0
 40
7.319106
  1
年
 41
0.837
  7
1
 72
     5
 11
1090.093279
 21
48.639817
 31
0.0
  0
TEXT
  8
150
  6
CONTINUOUS
 62
    14
  5
183
 10
1052.753436
 20
48.515764
 30
0.0
 40
7.319106
  1
訂正
 41
0.837
  7
1
 72
     5
 11
1067.391647
 21
48.515764
 31
0.0
  0
LINE
  8
150
  6
CONTINUOUS
 62
    14
  5
184
 10
1096.916174
 20
45.538501
 30
0.0
 11
1096.916174
 21
17.517763
 31
0.0
  0
LINE
  8
150
  6
CONTINUOUS
 62
    14
  5
185
 10
1052.257225
 20
45.538501
 30
0.0
 11
1052.257225
 21
17.517763
 31
0.0
  0
LINE
  8
150
  6
CONTINUOUS
 62
    14
  5
186
 10
1032.284751
 20
45.538501
 30
0.0
 11
1032.284751
 21
17.517763
 31
0.0
  0
TEXT
  8
100
  6
CENTER
 62
     3
  5
187
 10
1088.64529
 20
938.517763
 30
0.0
 40
25.0
  1
テスリックス　木製４×３
 41
0.837
  7
1
 72
     5
 11
1388.64529
 21
938.517763
 31
0.0
  0
LINE
  8
150
  6
CONTINUOUS
 62
    15
  5
188
 10
357.89529
 20
74.954133
 30
0.0
 11
357.89529
 21
72.954133
 31
0.0
  0
LINE
  8
150
  6
CONTINUOUS
 62
    15
  5
189
 10
7.64529
 20
72.954133
 30
0.0
 11
1408.64529
 21
72.954133
 31
0.0
  0
LINE
  8
150
  6
CONTINUOUS
 62
    15
  5
18A
 10
7.64529
 20
74.954133
 30
0.0
 11
1408.64529
 21
74.954133
 31
0.0
  0
TEXT
  8
150
  6
CONTINUOUS
 62
    14
  5
18B
 10
756.189481
 20
57.715645
 30
0.0
 40
12.0
  1
テスリックス木製４×３
 41
0.837
  7
1
 72
     5
 11
888.189481
 21
57.715645
 31
0.0
  0
TEXT
  8
150
  6
CONTINUOUS
 62
    14
  5
18C
 10
756.189481
 20
21.260711
 30
0.0
 40
12.0
  1
オーク、ナチュラル
 41
0.837
  7
1
 72
     5
 11
864.189481
 21
21.260711
 31
0.0
  0
CIRCLE
  8
4
  6
CONTINUOUS
 62
     1
  5
18D
 10
743.418154
 20
362.393247
 30
0.0
 40
10.5
  0
LINE
  8
4
  6
CONTINUOUS
 62
     1
  5
18E
 10
753.718154
 20
360.593247
 30
0.0
 11
751.118154
 21
360.593247
 31
0.0
  0
LINE
  8
4
  6
CONTINUOUS
 62
     1
  5
18F
 10
753.818154
 20
364.093247
 30
0.0
 11
751.218154
 21
364.093247
 31
0.0
  0
ARC
  8
4
  6
CONTINUOUS
 62
     1
  5
190
 10
743.418154
 20
362.393247
 30
0.0
 40
8.0
 50
196.63
 51
347.01
  0
ARC
  8
4
  6
CONTINUOUS
 62
     1
  5
191
 10
743.418154
 20
362.393247
 30
0.0
 40
8.0
 50
12.3
 51
164.05
  0
CIRCLE
  8
4
  6
CONTINUOUS
 62
     3
  5
192
 10
743.418154
 20
362.393247
 30
0.0
 40
3.5
  0
CIRCLE
  8
4
  6
CONTINUOUS
 62
     3
  5
193
 10
743.418154
 20
362.393247
 30
0.0
 40
4.0
  0
CIRCLE
  8
4
  6
CONTINUOUS
 62
     1
  5
194
 10
443.41815
 20
362.393247
 30
0.0
 40
10.5
  0
LINE
  8
4
  6
CONTINUOUS
 62
     1
  5
195
 10
433.11815
 20
364.593247
 30
0.0
 11
435.81815
 21
364.593247
 31
0.0
  0
LINE
  8
4
  6
CONTINUOUS
 62
     1
  5
196
 10
433.21815
 20
360.093247
 30
0.0
 11
435.81815
 21
360.093247
 31
0.0
  0
LINE
  8
4
  6
CONTINUOUS
 62
     1
  5
197
 10
453.71815
 20
360.593247
 30
0.0
 11
451.11815
 21
360.593247
 31
0.0
  0
LINE
  8
4
  6
CONTINUOUS
 62
     1
  5
198
 10
453.81815
 20
364.093247
 30
0.0
 11
451.21815
 21
364.093247
 31
0.0
  0
ARC
  8
4
  6
CONTINUOUS
 62
     1
  5
199
 10
443.41815
 20
362.393247
 30
0.0
 40
8.0
 50
196.63
 51
347.01
  0
ARC
  8
4
  6
CONTINUOUS
 62
     1
  5
19A
 10
443.41815
 20
362.393247
 30
0.0
 40
8.0
 50
12.3
 51
164.05
  0
CIRCLE
  8
4
  6
CONTINUOUS
 62
     1
  5
19B
 10
743.418154
 20
796.393254
 30
0.0
 40
10.5
  0
LINE
  8
4
  6
CONTINUOUS
 62
     1
  5
19C
 10
753.718154
 20
794.193254
 30
0.0
 11
751.018154
 21
794.193254
 31
0.0
  0
LINE
  8
4
  6
CONTINUOUS
 62
     1
  5
19D
 10
753.618154
 20
798.693254
 30
0.0
 11
751.018154
 21
798.693254
 31
0.0
  0
LINE
  8
4
  6
CONTINUOUS
 62
     1
  5
19E
 10
733.118154
 20
798.193254
 30
0.0
 11
735.718154
 21
798.193254
 31
0.0
  0
LINE
  8
4
  6
CONTINUOUS
 62
     1
  5
19F
 10
733.018154
 20
794.693254
 30
0.0
 11
735.618154
 21
794.693254
 31
0.0
  0
ARC
  8
4
  6
CONTINUOUS
 62
     1
  5
1A0
 10
743.418154
 20
796.393254
 30
0.0
 40
8.0
 50
16.63
 51
167.01
  0
ARC
  8
4
  6
CONTINUOUS
 62
     1
  5
1A1
 10
743.418154
 20
796.393254
 30
0.0
 40
8.0
 50
192.3
 51
344.05
  0
CIRCLE
  8
4
  6
CONTINUOUS
 62
     3
  5
1A2
 10
743.418154
 20
796.393254
 30
0.0
 40
3.5
  0
CIRCLE
  8
4
  6
CONTINUOUS
 62
     3
  5
1A3
 10
743.418154
 20
796.393254
 30
0.0
 40
4.0
  0
CIRCLE
  8
4
  6
CONTINUOUS
 62
     1
  5
1A4
 10
443.41815
 20
796.393254
 30
0.0
 40
10.5
  0
LINE
  8
4
  6
CONTINUOUS
 62
     1
  5
1A5
 10
453.71815
 20
794.193254
 30
0.0
 11
451.01815
 21
794.193254
 31
0.0
  0
LINE
  8
4
  6
CONTINUOUS
 62
     1
  5
1A6
 10
453.61815
 20
798.693254
 30
0.0
 11
451.01815
 21
798.693254
 31
0.0
  0
LINE
  8
4
  6
CONTINUOUS
 62
     1
  5
1A7
 10
433.11815
 20
798.193254
 30
0.0
 11
435.71815
 21
798.193254
 31
0.0
  0
LINE
  8
4
  6
CONTINUOUS
 62
     1
  5
1A8
 10
433.01815
 20
794.693254
 30
0.0
 11
435.61815
 21
794.693254
 31
0.0
  0
ARC
  8
4
  6
CONTINUOUS
 62
     1
  5
1A9
 10
443.41815
 20
796.393254
 30
0.0
 40
8.0
 50
16.63
 51
167.01
  0
ARC
  8
4
  6
CONTINUOUS
 62
     1
  5
1AA
 10
443.41815
 20
796.393254
 30
0.0
 40
8.0
 50
192.3
 51
344.05
  0
CIRCLE
  8
4
  6
CONTINUOUS
 62
     3
  5
1AB
 10
443.41815
 20
796.393254
 30
0.0
 40
3.5
  0
CIRCLE
  8
4
  6
CONTINUOUS
 62
     3
  5
1AC
 10
443.41815
 20
796.393254
 30
0.0
 40
4.0
  0
CIRCLE
  8
4
  6
CONTINUOUS
 62
     3
  5
1AD
 10
443.41815
 20
362.393247
 30
0.0
 40
3.5
  0
CIRCLE
  8
4
  6
CONTINUOUS
 62
     3
  5
1AE
 10
443.41815
 20
362.393247
 30
0.0
 40
4.0
  0
ARC
  8
100
  6
CENTER
 62
     3
  5
1AF
 10
328.418148
 20
389.393248
 30
0.0
 40
35.000001
 50
180.0
 51
270.68
  0
ARC
  8
100
  6
CENTER
 62
     3
  5
1B0
 10
328.418148
 20
389.393248
 30
0.0
 40
35.000001
 50
182.14
 51
270.0
  0
LINE
  8
50
  6
CONTINUOUS
 62
     2
  5
1B1
 10
713.118154
 20
906.393255
 30
0.0
 11
713.118154
 21
856.393255
 31
0.0
  0
LINE
  8
50
  6
CONTINUOUS
 62
     2
  5
1B2
 10
743.418154
 20
906.393255
 30
0.0
 11
743.418154
 21
856.393255
 31
0.0
  0
LINE
  8
50
  6
CONTINUOUS
 62
     2
  5
1B3
 10
773.718155
 20
906.393255
 30
0.0
 11
773.718155
 21
856.393255
 31
0.0
  0
CIRCLE
  8
50
  6
CONTINUOUS
 62
     2
  5
1B4
 10
713.118154
 20
906.393255
 30
0.0
 40
1.0
  0
CIRCLE
  8
50
  6
CONTINUOUS
 62
     2
  5
1B5
 10
743.418154
 20
906.393255
 30
0.0
 40
1.0
  0
CIRCLE
  8
50
  6
CONTINUOUS
 62
     2
  5
1B6
 10
773.718155
 20
906.393255
 30
0.0
 40
1.0
  0
LINE
  8
50
  6
CONTINUOUS
 62
     2
  5
1B7
 10
713.118154
 20
906.393255
 30
0.0
 11
743.418154
 21
906.393255
 31
0.0
  0
LINE
  8
50
  6
CONTINUOUS
 62
     2
  5
1B8
 10
743.418154
 20
906.393255
 30
0.0
 11
773.718155
 21
906.393255
 31
0.0
  0
LINE
  8
50
  6
CONTINUOUS
 62
     2
  5
1B9
 10
473.71815
 20
906.393255
 30
0.0
 11
473.71815
 21
856.393255
 31
0.0
  0
LINE
  8
50
  6
CONTINUOUS
 62
     2
  5
1BA
 10
443.41815
 20
906.393255
 30
0.0
 11
443.41815
 21
856.393255
 31
0.0
  0
LINE
  8
50
  6
CONTINUOUS
 62
     2
  5
1BB
 10
413.118149
 20
906.393255
 30
0.0
 11
413.118149
 21
856.393255
 31
0.0
  0
CIRCLE
  8
50
  6
CONTINUOUS
 62
     2
  5
1BC
 10
413.118149
 20
906.393255
 30
0.0
 40
1.0
  0
CIRCLE
  8
50
  6
CONTINUOUS
 62
     2
  5
1BD
 10
443.41815
 20
906.393255
 30
0.0
 40
1.0
  0
CIRCLE
  8
50
  6
CONTINUOUS
 62
     2
  5
1BE
 10
473.71815
 20
906.393255
 30
0.0
 40
1.0
  0
LINE
  8
50
  6
CONTINUOUS
 62
     2
  5
1BF
 10
413.118149
 20
906.393255
 30
0.0
 11
443.41815
 21
906.393255
 31
0.0
  0
LINE
  8
50
  6
CONTINUOUS
 62
     2
  5
1C0
 10
443.41815
 20
906.393255
 30
0.0
 11
473.71815
 21
906.393255
 31
0.0
  0
TEXT
  8
50
  6
CONTINUOUS
 62
     2
  5
1C1
 10
750.568154
 20
906.393255
 30
0.0
 40
13.0
  1
30.3
 41
0.5
  7
1
 72
     5
 11
776.568154
 21
906.393255
 31
0.0
  0
TEXT
  8
50
  6
CONTINUOUS
 62
     2
  5
1C2
 10
450.56815
 20
906.393255
 30
0.0
 40
13.0
  1
30.3
 41
0.5
  7
1
 72
     5
 11
476.56815
 21
906.393255
 31
0.0
  0
TEXT
  8
50
  6
CONTINUOUS
 62
     2
  5
1C3
 10
410.26815
 20
906.393255
 30
0.0
 40
13.0
  1
30.3
 41
0.5
  7
1
 72
     5
 11
436.26815
 21
906.393255
 31
0.0
  0
TEXT
  8
50
  6
CONTINUOUS
 62
     2
  5
1C4
 10
710.268154
 20
906.393255
 30
0.0
 40
13.0
  1
30.3
 41
0.5
  7
1
 72
     5
 11
736.268154
 21
906.393255
 31
0.0
  0
LINE
  8
4
  6
CONTINUOUS
 62
     1
  5
1C5
 10
735.726139
 20
364.591635
 30
0.0
 11
733.150871
 21
364.591635
 31
0.0
  0
LINE
  8
4
  6
CONTINUOUS
 62
     1
  5
1C6
 10
735.752771
 20
360.103726
 30
0.0
 11
733.170808
 21
360.103726
 31
0.0
  0
LINE
  8
100
  6
CENTER
 62
     3
  5
1C7
 10
858.418156
 20
354.393247
 30
0.0
 11
268.418147
 21
354.393247
 31
0.0
  0
LINE
  8
100
  6
CENTER
 62
     3
  5
1C8
 10
858.418156
 20
354.393247
 30
0.0
 11
918.418157
 21
354.393247
 31
0.0
  0
LINE
  8
100
  6
CENTER
 62
     3
  5
1C9
 10
328.418148
 20
804.393254
 30
0.0
 11
268.418147
 21
804.393254
 31
0.0
  0
LINE
  8
100
  6
CENTER
 62
     3
  5
1CA
 10
428.41815
 20
831.393254
 30
0.0
 11
458.41815
 21
831.393254
 31
0.0
  0
LINE
  8
100
  6
CENTER
 62
     3
  5
1CB
 10
428.41815
 20
796.393254
 30
0.0
 11
458.41815
 21
796.393254
 31
0.0
  0
LINE
  8
100
  6
CENTER
 62
     3
  5
1CC
 10
443.41815
 20
811.393254
 30
0.0
 11
443.41815
 21
781.393254
 31
0.0
  0
LINE
  8
100
  6
CENTER
 62
     3
  5
1CD
 10
398.118149
 20
778.893254
 30
0.0
 11
428.118149
 21
778.893254
 31
0.0
  0
LINE
  8
100
  6
CENTER
 62
     3
  5
1CE
 10
413.118149
 20
793.893254
 30
0.0
 11
413.118149
 21
763.893254
 31
0.0
  0
LINE
  8
100
  6
CENTER
 62
     3
  5
1CF
 10
458.71815
 20
778.893254
 30
0.0
 11
488.71815
 21
778.893254
 31
0.0
  0
LINE
  8
100
  6
CENTER
 62
     3
  5
1D0
 10
473.71815
 20
793.893254
 30
0.0
 11
473.71815
 21
763.893254
 31
0.0
  0
LINE
  8
100
  6
CENTER
 62
     3
  5
1D1
 10
728.418154
 20
831.393254
 30
0.0
 11
758.418154
 21
831.393254
 31
0.0
  0
LINE
  8
100
  6
CENTER
 62
     3
  5
1D2
 10
743.418154
 20
846.393254
 30
0.0
 11
743.418154
 21
816.393254
 31
0.0
  0
LINE
  8
100
  6
CENTER
 62
     3
  5
1D3
 10
728.418154
 20
796.393254
 30
0.0
 11
758.418154
 21
796.393254
 31
0.0
  0
LINE
  8
100
  6
CENTER
 62
     3
  5
1D4
 10
743.418154
 20
811.393254
 30
0.0
 11
743.418154
 21
781.393254
 31
0.0
  0
LINE
  8
100
  6
CENTER
 62
     3
  5
1D5
 10
698.118154
 20
778.893254
 30
0.0
 11
728.118154
 21
778.893254
 31
0.0
  0
LINE
  8
100
  6
CENTER
 62
     3
  5
1D6
 10
713.118154
 20
793.893254
 30
0.0
 11
713.118154
 21
763.893254
 31
0.0
  0
LINE
  8
100
  6
CENTER
 62
     3
  5
1D7
 10
758.718155
 20
778.893254
 30
0.0
 11
788.718155
 21
778.893254
 31
0.0
  0
LINE
  8
100
  6
CENTER
 62
     3
  5
1D8
 10
773.718155
 20
793.893254
 30
0.0
 11
773.718155
 21
763.893254
 31
0.0
  0
LINE
  8
100
  6
CENTER
 62
     3
  5
1D9
 10
758.718155
 20
379.893248
 30
0.0
 11
788.718155
 21
379.893248
 31
0.0
  0
LINE
  8
100
  6
CENTER
 62
     3
  5
1DA
 10
773.718155
 20
394.893248
 30
0.0
 11
773.718155
 21
364.893248
 31
0.0
  0
LINE
  8
100
  6
CENTER
 62
     3
  5
1DB
 10
728.418154
 20
362.393247
 30
0.0
 11
758.418154
 21
362.393247
 31
0.0
  0
LINE
  8
100
  6
CENTER
 62
     3
  5
1DC
 10
743.418154
 20
377.393247
 30
0.0
 11
743.418154
 21
347.393247
 31
0.0
  0
LINE
  8
100
  6
CENTER
 62
     3
  5
1DD
 10
698.118154
 20
379.893248
 30
0.0
 11
728.118154
 21
379.893248
 31
0.0
  0
LINE
  8
100
  6
CENTER
 62
     3
  5
1DE
 10
713.118154
 20
394.893248
 30
0.0
 11
713.118154
 21
364.893248
 31
0.0
  0
LINE
  8
100
  6
CENTER
 62
     3
  5
1DF
 10
728.418154
 20
327.393247
 30
0.0
 11
758.418154
 21
327.393247
 31
0.0
  0
LINE
  8
100
  6
CENTER
 62
     3
  5
1E0
 10
743.418154
 20
342.393247
 30
0.0
 11
743.418154
 21
312.393247
 31
0.0
  0
LINE
  8
100
  6
CENTER
 62
     3
  5
1E1
 10
428.41815
 20
327.393247
 30
0.0
 11
458.41815
 21
327.393247
 31
0.0
  0
LINE
  8
100
  6
CENTER
 62
     3
  5
1E2
 10
443.41815
 20
342.393247
 30
0.0
 11
443.41815
 21
312.393247
 31
0.0
  0
LINE
  8
100
  6
CENTER
 62
     3
  5
1E3
 10
428.41815
 20
362.393247
 30
0.0
 11
458.41815
 21
362.393247
 31
0.0
  0
LINE
  8
100
  6
CENTER
 62
     3
  5
1E4
 10
443.41815
 20
377.393247
 30
0.0
 11
443.41815
 21
347.393247
 31
0.0
  0
LINE
  8
100
  6
CENTER
 62
     3
  5
1E5
 10
458.71815
 20
379.893248
 30
0.0
 11
488.71815
 21
379.893248
 31
0.0
  0
LINE
  8
100
  6
CENTER
 62
     3
  5
1E6
 10
473.71815
 20
394.893248
 30
0.0
 11
473.71815
 21
364.893248
 31
0.0
  0
LINE
  8
100
  6
CENTER
 62
     3
  5
1E7
 10
398.118149
 20
379.893248
 30
0.0
 11
428.118149
 21
379.893248
 31
0.0
  0
LINE
  8
100
  6
CENTER
 62
     3
  5
1E8
 10
413.118149
 20
394.893248
 30
0.0
 11
413.118149
 21
364.893248
 31
0.0
  0
LINE
  8
100
  6
CENTER
 62
     3
  5
1E9
 10
763.418154
 20
327.393247
 30
0.0
 11
918.418096
 21
327.392899
 31
0.0
  0
LINE
  8
100
  6
CENTER
 62
     3
  5
1EA
 10
793.718155
 20
379.893248
 30
0.0
 11
918.418096
 21
379.893248
 31
0.0
  0
LINE
  8
100
  6
CENTER
 62
     3
  5
1EB
 10
793.718155
 20
778.893254
 30
0.0
 11
918.418096
 21
778.893254
 31
0.0
  0
LINE
  8
100
  6
CENTER
 62
     3
  5
1EC
 10
328.418148
 20
804.393254
 30
0.0
 11
918.418096
 21
804.393254
 31
0.0
  0
LINE
  8
100
  6
CENTER
 62
     3
  5
1ED
 10
763.418154
 20
831.393254
 30
0.0
 11
918.418096
 21
831.393254
 31
0.0
  0
LINE
  8
100
  6
CENTER
 62
     3
  5
1EE
 10
773.718155
 20
798.893254
 30
0.0
 11
773.718155
 21
846.393254
 31
0.0
  0
LINE
  8
100
  6
CENTER
 62
     3
  5
1EF
 10
713.118154
 20
798.893254
 30
0.0
 11
713.118154
 21
846.393254
 31
0.0
  0
LINE
  8
100
  6
CENTER
 62
     3
  5
1F0
 10
473.71815
 20
798.893254
 30
0.0
 11
473.71815
 21
846.393254
 31
0.0
  0
LINE
  8
100
  6
CENTER
 62
     3
  5
1F1
 10
443.41815
 20
816.393254
 30
0.0
 11
443.41815
 21
846.393254
 31
0.0
  0
LINE
  8
100
  6
CENTER
 62
     3
  5
1F2
 10
413.118149
 20
798.893254
 30
0.0
 11
413.118149
 21
846.393254
 31
0.0
  0
TEXT
  8
100
  6
CENTER
 62
     3
  5
1F3
 10
841.385311
 20
835.657613
 30
0.0
 40
9.0
  1
ビス穴中心線
 41
0.837
  7
1
 72
     5
 11
895.385311
 21
835.657613
 31
0.0
  0
LINE
  8
100
  6
CENTER
 62
     3
  5
1F4
 10
893.418156
 20
312.393247
 30
0.0
 11
893.418156
 21
817.934274
 31
0.0
  0
LINE
  8
100
  6
CENTER
 62
     3
  5
1F5
 10
293.442558
 20
312.393247
 30
0.0
 11
293.442558
 21
817.934274
 31
0.0
  0
LINE
  8
50
  6
CONTINUOUS
 62
     2
  5
1F6
 10
163.418147
 20
804.393254
 30
0.0
 11
263.418147
 21
804.393254
 31
0.0
  0
LINE
  8
50
  6
CONTINUOUS
 62
     2
  5
1F7
 10
163.418147
 20
354.393247
 30
0.0
 11
263.418147
 21
354.393247
 31
0.0
  0
LINE
  8
50
  6
CONTINUOUS
 62
     2
  5
1F8
 10
213.418147
 20
339.393247
 30
0.0
 11
263.418147
 21
339.393247
 31
0.0
  0
LINE
  8
50
  6
CONTINUOUS
 62
     2
  5
1F9
 10
213.418147
 20
504.393249
 30
0.0
 11
263.418147
 21
504.393249
 31
0.0
  0
LINE
  8
50
  6
CONTINUOUS
 62
     2
  5
1FA
 10
213.418147
 20
654.393252
 30
0.0
 11
263.418147
 21
654.393252
 31
0.0
  0
LINE
  8
50
  6
CONTINUOUS
 62
     2
  5
1FB
 10
213.418147
 20
819.393254
 30
0.0
 11
263.418147
 21
819.393254
 31
0.0
  0
CIRCLE
  8
50
  6
CONTINUOUS
 62
     2
  5
1FC
 10
163.418147
 20
804.393254
 30
0.0
 40
1.0
  0
CIRCLE
  8
50
  6
CONTINUOUS
 62
     2
  5
1FD
 10
163.418147
 20
354.393247
 30
0.0
 40
1.0
  0
CIRCLE
  8
50
  6
CONTINUOUS
 62
     2
  5
1FE
 10
213.418147
 20
339.393247
 30
0.0
 40
1.0
  0
CIRCLE
  8
50
  6
CONTINUOUS
 62
     2
  5
1FF
 10
213.418147
 20
354.393247
 30
0.0
 40
1.0
  0
CIRCLE
  8
50
  6
CONTINUOUS
 62
     2
  5
200
 10
213.418147
 20
504.393249
 30
0.0
 40
1.0
  0
CIRCLE
  8
50
  6
CONTINUOUS
 62
     2
  5
201
 10
213.418147
 20
654.393252
 30
0.0
 40
1.0
  0
CIRCLE
  8
50
  6
CONTINUOUS
 62
     2
  5
202
 10
213.418147
 20
804.393254
 30
0.0
 40
1.0
  0
CIRCLE
  8
50
  6
CONTINUOUS
 62
     2
  5
203
 10
213.418147
 20
819.393254
 30
0.0
 40
1.0
  0
LINE
  8
50
  6
CONTINUOUS
 62
     2
  5
204
 10
163.418147
 20
804.393254
 30
0.0
 11
163.418147
 21
354.393247
 31
0.0
  0
TEXT
  8
50
  6
CONTINUOUS
 62
     2
  5
205
 10
213.418147
 20
340.393247
 30
0.0
 40
13.0
  1
15
 50
90.0
 41
0.5
  7
1
 72
     5
 11
213.418147
 21
353.393247
 31
0.0
  0
LINE
  8
50
  6
CONTINUOUS
 62
     2
  5
206
 10
213.418147
 20
339.393247
 30
0.0
 11
213.418147
 21
354.393247
 31
0.0
  0
TEXT
  8
50
  6
CONTINUOUS
 62
     2
  5
207
 10
213.418147
 20
419.643248
 30
0.0
 40
13.0
  1
150
 50
90.0
 41
0.5
  7
1
 72
     5
 11
213.418147
 21
439.143248
 31
0.0
  0
LINE
  8
50
  6
CONTINUOUS
 62
     2
  5
208
 10
213.418147
 20
354.393247
 30
0.0
 11
213.418147
 21
504.393249
 31
0.0
  0
TEXT
  8
50
  6
CONTINUOUS
 62
     2
  5
209
 10
213.418147
 20
569.643251
 30
0.0
 40
13.0
  1
150
 50
90.0
 41
0.5
  7
1
 72
     5
 11
213.418147
 21
589.143251
 31
0.0
  0
LINE
  8
50
  6
CONTINUOUS
 62
     2
  5
20A
 10
213.418147
 20
504.393249
 30
0.0
 11
213.418147
 21
654.393252
 31
0.0
  0
TEXT
  8
50
  6
CONTINUOUS
 62
     2
  5
20B
 10
213.418147
 20
719.643253
 30
0.0
 40
13.0
  1
150
 50
90.0
 41
0.5
  7
1
 72
     5
 11
213.418147
 21
739.143253
 31
0.0
  0
LINE
  8
50
  6
CONTINUOUS
 62
     2
  5
20C
 10
213.418147
 20
654.393252
 30
0.0
 11
213.418147
 21
804.393254
 31
0.0
  0
TEXT
  8
50
  6
CONTINUOUS
 62
     2
  5
20D
 10
213.418147
 20
805.393254
 30
0.0
 40
13.0
  1
15
 50
90.0
 41
0.5
  7
1
 72
     5
 11
213.418147
 21
818.393254
 31
0.0
  0
LINE
  8
50
  6
CONTINUOUS
 62
     2
  5
20E
 10
213.418147
 20
804.393254
 30
0.0
 11
213.418147
 21
819.393254
 31
0.0
  0
TEXT
  8
50
  6
CONTINUOUS
 62
     2
  5
20F
 10
163.418147
 20
560.643251
 30
0.0
 40
25.0
  1
450
 50
90.0
 41
0.5
  7
1
 72
     5
 11
163.418147
 21
598.143251
 31
0.0
  0
LINE
  8
50
  6
CONTINUOUS
 62
     2
  5
210
 10
293.442558
 20
202.393247
 30
0.0
 11
293.442558
 21
302.393247
 31
0.0
  0
LINE
  8
50
  6
CONTINUOUS
 62
     2
  5
211
 10
893.418156
 20
202.393247
 30
0.0
 11
893.418156
 21
302.393247
 31
0.0
  0
LINE
  8
50
  6
CONTINUOUS
 62
     2
  5
212
 10
278.418147
 20
252.393247
 30
0.0
 11
278.418147
 21
302.393247
 31
0.0
  0
LINE
  8
50
  6
CONTINUOUS
 62
     2
  5
213
 10
443.418152
 20
252.393247
 30
0.0
 11
443.418152
 21
302.393247
 31
0.0
  0
LINE
  8
50
  6
CONTINUOUS
 62
     2
  5
214
 10
743.418154
 20
252.393247
 30
0.0
 11
743.418154
 21
302.393247
 31
0.0
  0
LINE
  8
50
  6
CONTINUOUS
 62
     2
  5
215
 10
908.418157
 20
252.393247
 30
0.0
 11
908.418157
 21
302.393247
 31
0.0
  0
CIRCLE
  8
50
  6
CONTINUOUS
 62
     2
  5
216
 10
293.442558
 20
202.393247
 30
0.0
 40
1.0
  0
CIRCLE
  8
50
  6
CONTINUOUS
 62
     2
  5
217
 10
893.418156
 20
202.393247
 30
0.0
 40
1.0
  0
CIRCLE
  8
50
  6
CONTINUOUS
 62
     2
  5
218
 10
278.418147
 20
252.393247
 30
0.0
 40
1.0
  0
CIRCLE
  8
50
  6
CONTINUOUS
 62
     2
  5
219
 10
293.442558
 20
252.393247
 30
0.0
 40
1.0
  0
CIRCLE
  8
50
  6
CONTINUOUS
 62
     2
  5
21A
 10
443.418152
 20
252.393247
 30
0.0
 40
1.0
  0
CIRCLE
  8
50
  6
CONTINUOUS
 62
     2
  5
21B
 10
743.418154
 20
252.393247
 30
0.0
 40
1.0
  0
CIRCLE
  8
50
  6
CONTINUOUS
 62
     2
  5
21C
 10
893.418156
 20
252.393247
 30
0.0
 40
1.0
  0
CIRCLE
  8
50
  6
CONTINUOUS
 62
     2
  5
21D
 10
908.418157
 20
252.393247
 30
0.0
 40
1.0
  0
LINE
  8
50
  6
CONTINUOUS
 62
     2
  5
21E
 10
293.442558
 20
202.393247
 30
0.0
 11
893.418156
 21
202.393247
 31
0.0
  0
TEXT
  8
50
  6
CONTINUOUS
 62
     2
  5
21F
 10
279.430352
 20
252.393247
 30
0.0
 40
13.0
  1
15
 41
0.5
  7
1
 72
     5
 11
292.430352
 21
252.393247
 31
0.0
  0
LINE
  8
50
  6
CONTINUOUS
 62
     2
  5
220
 10
278.418147
 20
252.393247
 30
0.0
 11
293.442558
 21
252.393247
 31
0.0
  0
TEXT
  8
50
  6
CONTINUOUS
 62
     2
  5
221
 10
358.680355
 20
252.393247
 30
0.0
 40
13.0
  1
150
 41
0.5
  7
1
 72
     5
 11
378.180355
 21
252.393247
 31
0.0
  0
LINE
  8
50
  6
CONTINUOUS
 62
     2
  5
222
 10
293.442558
 20
252.393247
 30
0.0
 11
443.418152
 21
252.393247
 31
0.0
  0
TEXT
  8
50
  6
CONTINUOUS
 62
     2
  5
223
 10
808.668155
 20
252.393247
 30
0.0
 40
13.0
  1
150
 41
0.5
  7
1
 72
     5
 11
828.168155
 21
252.393247
 31
0.0
  0
LINE
  8
50
  6
CONTINUOUS
 62
     2
  5
224
 10
743.418154
 20
252.393247
 30
0.0
 11
893.418156
 21
252.393247
 31
0.0
  0
TEXT
  8
50
  6
CONTINUOUS
 62
     2
  5
225
 10
894.418157
 20
252.393247
 30
0.0
 40
13.0
  1
15
 41
0.5
  7
1
 72
     5
 11
907.418157
 21
252.393247
 31
0.0
  0
LINE
  8
50
  6
CONTINUOUS
 62
     2
  5
226
 10
893.418156
 20
252.393247
 30
0.0
 11
908.418157
 21
252.393247
 31
0.0
  0
LINE
  8
50
  6
CONTINUOUS
 62
     2
  5
227
 10
593.440905
 20
252.393247
 30
0.0
 11
593.440905
 21
302.393247
 31
0.0
  0
CIRCLE
  8
50
  6
CONTINUOUS
 62
     2
  5
228
 10
593.440905
 20
252.393247
 30
0.0
 40
1.0
  0
LINE
  8
50
  6
CONTINUOUS
 62
     2
  5
229
 10
443.418152
 20
252.393247
 30
0.0
 11
593.440905
 21
252.393247
 31
0.0
  0
LINE
  8
50
  6
CONTINUOUS
 62
     2
  5
22A
 10
593.440905
 20
252.393247
 30
0.0
 11
743.418154
 21
252.393247
 31
0.0
  0
TEXT
  8
50
  6
CONTINUOUS
 62
     2
  5
22B
 10
508.679529
 20
252.393247
 30
0.0
 40
13.0
  1
150
 41
0.5
  7
1
 72
     5
 11
528.179529
 21
252.393247
 31
0.0
  0
TEXT
  8
50
  6
CONTINUOUS
 62
     2
  5
22C
 10
658.67953
 20
252.393247
 30
0.0
 40
13.0
  1
150
 41
0.5
  7
1
 72
     5
 11
678.17953
 21
252.393247
 31
0.0
  0
TEXT
  8
50
  6
CONTINUOUS
 62
     2
  5
22D
 10
574.680357
 20
202.393247
 30
0.0
 40
25.0
  1
600
 41
0.5
  7
1
 72
     5
 11
612.180357
 21
202.393247
 31
0.0
  0
LINE
  8
50
  6
CONTINUOUS
 62
     2
  5
22E
 10
943.418157
 20
362.393247
 30
0.0
 11
923.418157
 21
362.393247
 31
0.0
  0
LINE
  8
50
  6
CONTINUOUS
 62
     2
  5
22F
 10
943.418157
 20
354.393247
 30
0.0
 11
923.418157
 21
354.393247
 31
0.0
  0
CIRCLE
  8
50
  6
CONTINUOUS
 62
     2
  5
230
 10
943.418157
 20
354.393247
 30
0.0
 40
1.0
  0
CIRCLE
  8
50
  6
CONTINUOUS
 62
     2
  5
231
 10
943.418157
 20
362.393247
 30
0.0
 40
1.0
  0
LINE
  8
50
  6
CONTINUOUS
 62
     2
  5
232
 10
943.418157
 20
354.393247
 30
0.0
 11
943.418157
 21
362.393247
 31
0.0
  0
LINE
  8
50
  6
CONTINUOUS
 62
     2
  5
233
 10
973.418157
 20
379.893248
 30
0.0
 11
923.418157
 21
379.893248
 31
0.0
  0
LINE
  8
50
  6
CONTINUOUS
 62
     2
  5
234
 10
973.418157
 20
362.393247
 30
0.0
 11
923.418157
 21
362.393247
 31
0.0
  0
CIRCLE
  8
50
  6
CONTINUOUS
 62
     2
  5
235
 10
973.418157
 20
362.393247
 30
0.0
 40
1.0
  0
CIRCLE
  8
50
  6
CONTINUOUS
 62
     2
  5
236
 10
973.418157
 20
379.893248
 30
0.0
 40
1.0
  0
LINE
  8
50
  6
CONTINUOUS
 62
     2
  5
237
 10
973.418157
 20
362.393247
 30
0.0
 11
973.418157
 21
379.893248
 31
0.0
  0
LINE
  8
50
  6
CONTINUOUS
 62
     2
  5
238
 10
973.418157
 20
327.392888
 30
0.0
 11
923.418157
 21
327.392888
 31
0.0
  0
LINE
  8
50
  6
CONTINUOUS
 62
     2
  5
239
 10
973.418157
 20
327.392888
 30
0.0
 11
973.418157
 21
362.393247
 31
0.0
  0
TEXT
  8
50
  6
CONTINUOUS
 62
     2
  5
23A
 10
973.418157
 20
338.393068
 30
0.0
 40
13.0
  1
35
 50
90.0
 41
0.5
  7
1
 72
     5
 11
973.418157
 21
351.393068
 31
0.0
  0
TEXT
  8
50
  6
CONTINUOUS
 62
     2
  5
23B
 10
943.418157
 20
355.143247
 30
0.0
 40
13.0
  1
8
 50
90.0
 41
0.5
  7
1
 72
     5
 11
943.418157
 21
361.643247
 31
0.0
  0
CIRCLE
  8
50
  6
CONTINUOUS
 62
     2
  5
23C
 10
973.418157
 20
327.392888
 30
0.0
 40
1.0
  0
TEXT
  8
50
  6
CONTINUOUS
 62
     2
  5
23D
 10
986.418157
 20
364.143247
 30
0.0
 40
13.0
  1
17.5
 50
90.0
 41
0.5
  7
1
 72
     5
 11
986.418157
 21
390.143247
 31
0.0
  0
LINE
  8
50
  6
CONTINUOUS
 62
     2
  5
23E
 10
973.418157
 20
831.393254
 30
0.0
 11
923.418157
 21
831.393254
 31
0.0
  0
LINE
  8
50
  6
CONTINUOUS
 62
     2
  5
23F
 10
973.418157
 20
778.893254
 30
0.0
 11
923.418157
 21
778.893254
 31
0.0
  0
LINE
  8
50
  6
CONTINUOUS
 62
     2
  5
240
 10
973.418157
 20
796.393254
 30
0.0
 11
923.418157
 21
796.393254
 31
0.0
  0
CIRCLE
  8
50
  6
CONTINUOUS
 62
     2
  5
241
 10
973.418157
 20
778.893254
 30
0.0
 40
1.0
  0
CIRCLE
  8
50
  6
CONTINUOUS
 62
     2
  5
242
 10
973.418157
 20
796.393254
 30
0.0
 40
1.0
  0
CIRCLE
  8
50
  6
CONTINUOUS
 62
     2
  5
243
 10
973.418157
 20
831.393254
 30
0.0
 40
1.0
  0
LINE
  8
50
  6
CONTINUOUS
 62
     2
  5
244
 10
973.418157
 20
778.893254
 30
0.0
 11
973.418157
 21
796.393254
 31
0.0
  0
LINE
  8
50
  6
CONTINUOUS
 62
     2
  5
245
 10
973.418157
 20
796.393254
 30
0.0
 11
973.418157
 21
831.393254
 31
0.0
  0
LINE
  8
50
  6
CONTINUOUS
 62
     2
  5
246
 10
943.418157
 20
804.393254
 30
0.0
 11
923.418157
 21
804.393254
 31
0.0
  0
LINE
  8
50
  6
CONTINUOUS
 62
     2
  5
247
 10
943.418157
 20
796.393254
 30
0.0
 11
923.418157
 21
796.393254
 31
0.0
  0
CIRCLE
  8
50
  6
CONTINUOUS
 62
     2
  5
248
 10
943.418157
 20
796.393254
 30
0.0
 40
1.0
  0
CIRCLE
  8
50
  6
CONTINUOUS
 62
     2
  5
249
 10
943.418157
 20
804.393254
 30
0.0
 40
1.0
  0
LINE
  8
50
  6
CONTINUOUS
 62
     2
  5
24A
 10
943.418157
 20
796.393254
 30
0.0
 11
943.418157
 21
804.393254
 31
0.0
  0
TEXT
  8
50
  6
CONTINUOUS
 62
     2
  5
24B
 10
943.418157
 20
797.143254
 30
0.0
 40
13.0
  1
8
 50
90.0
 41
0.5
  7
1
 72
     5
 11
943.418157
 21
803.643254
 31
0.0
  0
TEXT
  8
50
  6
CONTINUOUS
 62
     2
  5
24C
 10
973.418157
 20
807.393254
 30
0.0
 40
13.0
  1
35
 50
90.0
 41
0.5
  7
1
 72
     5
 11
973.418157
 21
820.393254
 31
0.0
  0
TEXT
  8
50
  6
CONTINUOUS
 62
     2
  5
24D
 10
986.418157
 20
768.643254
 30
0.0
 40
13.0
  1
17.5
 50
90.0
 41
0.5
  7
1
 72
     5
 11
986.418157
 21
794.643254
 31
0.0
  0
ARC
  8
5
  6
CONTINUOUS
 62
     3
  5
24E
 10
743.418154
 20
327.393247
 30
0.0
 40
7.7
 50
360.0
 51
180.0
  0
ARC
  8
5
  6
CONTINUOUS
 62
     3
  5
24F
 10
743.418154
 20
327.393247
 30
0.0
 40
6.8
 50
360.0
 51
180.0
  0
LINE
  8
5
  6
CONTINUOUS
 62
     3
  5
250
 10
751.018154
 20
320.393247
 30
0.0
 11
751.018154
 21
327.393247
 31
0.0
  0
LINE
  8
5
  6
CONTINUOUS
 62
     3
  5
251
 10
750.118154
 20
327.393247
 30
0.0
 11
750.118154
 21
321.093247
 31
0.0
  0
ARC
  8
5
  6
CONTINUOUS
 62
     3
  5
252
 10
743.418154
 20
362.393247
 30
0.0
 40
41.800001
 50
260.63
 51
279.02
  0
LINE
  8
5
  6
CONTINUOUS
 62
     3
  5
253
 10
736.618154
 20
327.393247
 30
0.0
 11
736.618154
 21
321.193247
 31
0.0
  0
LINE
  8
5
  6
CONTINUOUS
 62
     3
  5
254
 10
735.718154
 20
320.393247
 30
0.0
 11
735.718154
 21
327.393247
 31
0.0
  0
CIRCLE
  8
5
  6
CONTINUOUS
 62
     3
  5
255
 10
743.418154
 20
327.393247
 30
0.0
 40
4.0
  0
CIRCLE
  8
5
  6
CONTINUOUS
 62
     3
  5
256
 10
743.418154
 20
327.393247
 30
0.0
 40
4.4
  0
ARC
  8
5
  6
DIVIDE
 62
     2
  5
257
 10
743.418154
 20
362.393247
 30
0.0
 40
42.700001
 50
212.59122
 51
327.40878
  0
CIRCLE
  8
5
  6
DOT
 62
     2
  5
258
 10
743.418154
 20
362.393247
 30
0.0
 40
45.0
  0
ARC
  8
5
  6
CONTINUOUS
 62
     3
  5
259
 10
773.718155
 20
379.893248
 30
0.0
 40
7.7
 50
120.0
 51
300.0
  0
ARC
  8
5
  6
CONTINUOUS
 62
     3
  5
25A
 10
773.718155
 20
379.893248
 30
0.0
 40
6.8
 50
120.0
 51
300.0
  0
LINE
  8
5
  6
CONTINUOUS
 62
     3
  5
25B
 10
776.018155
 20
389.993248
 30
0.0
 11
769.918155
 21
386.493248
 31
0.0
  0
LINE
  8
5
  6
CONTINUOUS
 62
     3
  5
25C
 10
770.418155
 20
385.693248
 30
0.0
 11
775.818155
 21
388.893248
 31
0.0
  0
ARC
  8
5
  6
CONTINUOUS
 62
     3
  5
25D
 10
743.418154
 20
362.393247
 30
0.0
 40
41.800001
 50
20.63
 51
39.02
  0
LINE
  8
5
  6
CONTINUOUS
 62
     3
  5
25E
 10
777.118155
 20
373.993248
 30
0.0
 11
782.518155
 21
377.093248
 31
0.0
  0
LINE
  8
5
  6
CONTINUOUS
 62
     3
  5
25F
 10
783.618155
 20
376.693248
 30
0.0
 11
777.618155
 21
373.193248
 31
0.0
  0
CIRCLE
  8
5
  6
CONTINUOUS
 62
     3
  5
260
 10
773.718155
 20
379.893248
 30
0.0
 40
4.0
  0
CIRCLE
  8
5
  6
CONTINUOUS
 62
     3
  5
261
 10
773.718155
 20
379.893248
 30
0.0
 40
4.4
  0
ARC
  8
5
  6
DIVIDE
 62
     2
  5
262
 10
743.418154
 20
362.393247
 30
0.0
 40
42.700001
 50
9.435339
 51
69.433881
  0
ARC
  8
5
  6
CONTINUOUS
 62
     3
  5
263
 10
743.418154
 20
362.393247
 30
0.0
 40
41.800001
 50
140.63
 51
159.02
  0
ARC
  8
5
  6
CONTINUOUS
 62
     3
  5
264
 10
713.118154
 20
379.893248
 30
0.0
 40
7.7
 50
240.0
 51
60.0
  0
ARC
  8
5
  6
CONTINUOUS
 62
     3
  5
265
 10
713.118154
 20
379.893248
 30
0.0
 40
6.8
 50
240.0
 51
60.0
  0
LINE
  8
5
  6
CONTINUOUS
 62
     3
  5
266
 10
716.518154
 20
385.793248
 30
0.0
 11
711.118154
 21
388.893248
 31
0.0
  0
LINE
  8
5
  6
CONTINUOUS
 62
     3
  5
267
 10
710.918154
 20
390.093248
 30
0.0
 11
716.918154
 21
386.593248
 31
0.0
  0
CIRCLE
  8
5
  6
CONTINUOUS
 62
     3
  5
268
 10
713.118154
 20
379.893248
 30
0.0
 40
4.4
  0
CIRCLE
  8
5
  6
CONTINUOUS
 62
     3
  5
269
 10
713.118154
 20
379.893248
 30
0.0
 40
4.0
  0
ARC
  8
5
  6
DIVIDE
 62
     2
  5
26A
 10
743.418154
 20
362.393247
 30
0.0
 40
42.700001
 50
110.566119
 51
170.564661
  0
LINE
  8
5
  6
CONTINUOUS
 62
     3
  5
26B
 10
703.218154
 20
376.793248
 30
0.0
 11
709.318154
 21
373.293248
 31
0.0
  0
LINE
  8
5
  6
CONTINUOUS
 62
     3
  5
26C
 10
709.718154
 20
374.093248
 30
0.0
 11
704.318154
 21
377.193248
 31
0.0
  0
ARC
  8
5
  6
CONTINUOUS
 62
     3
  5
26D
 10
713.118154
 20
778.893254
 30
0.0
 40
7.7
 50
300.0
 51
120.0
  0
ARC
  8
5
  6
CONTINUOUS
 62
     3
  5
26E
 10
713.118154
 20
778.893254
 30
0.0
 40
6.8
 50
300.0
 51
120.0
  0
LINE
  8
5
  6
CONTINUOUS
 62
     3
  5
26F
 10
710.818154
 20
768.793253
 30
0.0
 11
716.918154
 21
772.293253
 31
0.0
  0
LINE
  8
5
  6
CONTINUOUS
 62
     3
  5
270
 10
716.418154
 20
773.093253
 30
0.0
 11
711.018154
 21
769.893253
 31
0.0
  0
ARC
  8
5
  6
CONTINUOUS
 62
     3
  5
271
 10
743.418154
 20
796.393254
 30
0.0
 40
41.800001
 50
200.63
 51
219.02
  0
LINE
  8
5
  6
CONTINUOUS
 62
     3
  5
272
 10
709.718154
 20
784.793254
 30
0.0
 11
704.318154
 21
781.693254
 31
0.0
  0
CIRCLE
  8
5
  6
CONTINUOUS
 62
     3
  5
273
 10
713.118154
 20
778.893254
 30
0.0
 40
4.0
  0
CIRCLE
  8
5
  6
CONTINUOUS
 62
     3
  5
274
 10
713.118154
 20
778.893254
 30
0.0
 40
4.4
  0
ARC
  8
5
  6
DIVIDE
 62
     2
  5
275
 10
743.418154
 20
796.393254
 30
0.0
 40
42.700001
 50
189.435339
 51
249.433881
  0
CIRCLE
  8
5
  6
DOT
 62
     2
  5
276
 10
743.418154
 20
796.393254
 30
0.0
 40
45.0
  0
LINE
  8
5
  6
CONTINUOUS
 62
     3
  5
277
 10
703.218154
 20
782.093254
 30
0.0
 11
709.218154
 21
785.593254
 31
0.0
  0
ARC
  8
5
  6
CONTINUOUS
 62
     3
  5
278
 10
743.418154
 20
831.393254
 30
0.0
 40
7.7
 50
180.0
 51
360.0
  0
ARC
  8
5
  6
CONTINUOUS
 62
     3
  5
279
 10
743.418154
 20
831.393254
 30
0.0
 40
6.8
 50
180.0
 51
360.0
  0
LINE
  8
5
  6
CONTINUOUS
 62
     3
  5
27A
 10
735.818154
 20
838.393254
 30
0.0
 11
735.818154
 21
831.393254
 31
0.0
  0
LINE
  8
5
  6
CONTINUOUS
 62
     3
  5
27B
 10
736.718154
 20
831.393254
 30
0.0
 11
736.718154
 21
837.693254
 31
0.0
  0
ARC
  8
5
  6
CONTINUOUS
 62
     3
  5
27C
 10
743.418154
 20
796.393254
 30
0.0
 40
41.800001
 50
80.63
 51
99.02
  0
LINE
  8
5
  6
CONTINUOUS
 62
     3
  5
27D
 10
750.218154
 20
831.393254
 30
0.0
 11
750.218154
 21
837.593254
 31
0.0
  0
LINE
  8
5
  6
CONTINUOUS
 62
     3
  5
27E
 10
751.118154
 20
838.393254
 30
0.0
 11
751.118154
 21
831.393254
 31
0.0
  0
CIRCLE
  8
5
  6
CONTINUOUS
 62
     3
  5
27F
 10
743.418154
 20
831.393254
 30
0.0
 40
4.0
  0
CIRCLE
  8
5
  6
CONTINUOUS
 62
     3
  5
280
 10
743.418154
 20
831.393254
 30
0.0
 40
4.4
  0
ARC
  8
5
  6
DIVIDE
 62
     2
  5
281
 10
743.418154
 20
796.393254
 30
0.0
 40
42.700001
 50
32.59122
 51
147.40878
  0
ARC
  8
5
  6
CONTINUOUS
 62
     3
  5
282
 10
773.718155
 20
778.893254
 30
0.0
 40
7.7
 50
60.0
 51
240.0
  0
ARC
  8
5
  6
CONTINUOUS
 62
     3
  5
283
 10
773.718155
 20
778.893254
 30
0.0
 40
6.8
 50
60.0
 51
240.0
  0
LINE
  8
5
  6
CONTINUOUS
 62
     3
  5
284
 10
783.618155
 20
781.993254
 30
0.0
 11
777.518155
 21
785.493254
 31
0.0
  0
LINE
  8
5
  6
CONTINUOUS
 62
     3
  5
285
 10
777.118155
 20
784.693254
 30
0.0
 11
782.518155
 21
781.593254
 31
0.0
  0
ARC
  8
5
  6
CONTINUOUS
 62
     3
  5
286
 10
743.418154
 20
796.393254
 30
0.0
 40
41.800001
 50
320.63
 51
339.02
  0
LINE
  8
5
  6
CONTINUOUS
 62
     3
  5
287
 10
770.318155
 20
772.993253
 30
0.0
 11
775.718155
 21
769.893253
 31
0.0
  0
LINE
  8
5
  6
CONTINUOUS
 62
     3
  5
288
 10
775.918155
 20
768.693253
 30
0.0
 11
769.918155
 21
772.193253
 31
0.0
  0
CIRCLE
  8
5
  6
CONTINUOUS
 62
     3
  5
289
 10
773.718155
 20
778.893254
 30
0.0
 40
4.0
  0
CIRCLE
  8
5
  6
CONTINUOUS
 62
     3
  5
28A
 10
773.718155
 20
778.893254
 30
0.0
 40
4.4
  0
ARC
  8
5
  6
DIVIDE
 62
     2
  5
28B
 10
743.418154
 20
796.393254
 30
0.0
 40
42.700001
 50
290.566119
 51
350.564661
  0
ARC
  8
5
  6
CONTINUOUS
 62
     3
  5
28C
 10
443.41815
 20
831.393254
 30
0.0
 40
7.7
 50
180.0
 51
360.0
  0
ARC
  8
5
  6
CONTINUOUS
 62
     3
  5
28D
 10
443.41815
 20
831.393254
 30
0.0
 40
6.8
 50
180.0
 51
360.0
  0
LINE
  8
5
  6
CONTINUOUS
 62
     3
  5
28E
 10
435.81815
 20
838.393254
 30
0.0
 11
435.81815
 21
831.393254
 31
0.0
  0
LINE
  8
5
  6
CONTINUOUS
 62
     3
  5
28F
 10
436.71815
 20
831.393254
 30
0.0
 11
436.71815
 21
837.693254
 31
0.0
  0
ARC
  8
5
  6
CONTINUOUS
 62
     3
  5
290
 10
443.41815
 20
796.393254
 30
0.0
 40
41.800001
 50
80.63
 51
99.02
  0
LINE
  8
5
  6
CONTINUOUS
 62
     3
  5
291
 10
450.21815
 20
831.393254
 30
0.0
 11
450.21815
 21
837.593254
 31
0.0
  0
LINE
  8
5
  6
CONTINUOUS
 62
     3
  5
292
 10
451.11815
 20
838.393254
 30
0.0
 11
451.11815
 21
831.393254
 31
0.0
  0
CIRCLE
  8
5
  6
CONTINUOUS
 62
     3
  5
293
 10
443.41815
 20
831.393254
 30
0.0
 40
4.0
  0
CIRCLE
  8
5
  6
CONTINUOUS
 62
     3
  5
294
 10
443.41815
 20
831.393254
 30
0.0
 40
4.4
  0
ARC
  8
5
  6
DIVIDE
 62
     2
  5
295
 10
443.41815
 20
796.393254
 30
0.0
 40
42.700001
 50
32.59122
 51
147.40878
  0
CIRCLE
  8
5
  6
DOT
 62
     2
  5
296
 10
443.41815
 20
796.393254
 30
0.0
 40
45.0
  0
ARC
  8
5
  6
CONTINUOUS
 62
     3
  5
297
 10
473.71815
 20
778.893254
 30
0.0
 40
7.7
 50
60.0
 51
240.0
  0
ARC
  8
5
  6
CONTINUOUS
 62
     3
  5
298
 10
473.71815
 20
778.893254
 30
0.0
 40
6.8
 50
60.0
 51
240.0
  0
ARC
  8
5
  6
CONTINUOUS
 62
     3
  5
299
 10
443.41815
 20
796.393254
 30
0.0
 40
41.800001
 50
320.63
 51
339.02
  0
LINE
  8
5
  6
CONTINUOUS
 62
     3
  5
29A
 10
470.31815
 20
772.993253
 30
0.0
 11
475.71815
 21
769.893253
 31
0.0
  0
LINE
  8
5
  6
CONTINUOUS
 62
     3
  5
29B
 10
475.91815
 20
768.693253
 30
0.0
 11
469.91815
 21
772.193253
 31
0.0
  0
CIRCLE
  8
5
  6
CONTINUOUS
 62
     3
  5
29C
 10
473.71815
 20
778.893254
 30
0.0
 40
4.0
  0
CIRCLE
  8
5
  6
CONTINUOUS
 62
     3
  5
29D
 10
473.71815
 20
778.893254
 30
0.0
 40
4.4
  0
ARC
  8
5
  6
DIVIDE
 62
     2
  5
29E
 10
443.41815
 20
796.393254
 30
0.0
 40
42.700001
 50
290.566119
 51
350.564661
  0
LINE
  8
5
  6
CONTINUOUS
 62
     3
  5
29F
 10
483.61815
 20
781.993254
 30
0.0
 11
477.51815
 21
785.493254
 31
0.0
  0
LINE
  8
5
  6
CONTINUOUS
 62
     3
  5
2A0
 10
477.11815
 20
784.693254
 30
0.0
 11
482.51815
 21
781.593254
 31
0.0
  0
ARC
  8
5
  6
CONTINUOUS
 62
     3
  5
2A1
 10
413.118149
 20
778.893254
 30
0.0
 40
7.7
 50
300.0
 51
120.0
  0
ARC
  8
5
  6
CONTINUOUS
 62
     3
  5
2A2
 10
413.118149
 20
778.893254
 30
0.0
 40
6.8
 50
300.0
 51
120.0
  0
LINE
  8
5
  6
CONTINUOUS
 62
     3
  5
2A3
 10
410.818149
 20
768.793253
 30
0.0
 11
416.918149
 21
772.293253
 31
0.0
  0
LINE
  8
5
  6
CONTINUOUS
 62
     3
  5
2A4
 10
416.418149
 20
773.093253
 30
0.0
 11
411.018149
 21
769.893253
 31
0.0
  0
ARC
  8
5
  6
CONTINUOUS
 62
     3
  5
2A5
 10
443.41815
 20
796.393254
 30
0.0
 40
41.800001
 50
200.63
 51
219.02
  0
LINE
  8
5
  6
CONTINUOUS
 62
     3
  5
2A6
 10
409.718149
 20
784.793254
 30
0.0
 11
404.318149
 21
781.693254
 31
0.0
  0
LINE
  8
5
  6
CONTINUOUS
 62
     3
  5
2A7
 10
403.218149
 20
782.093254
 30
0.0
 11
409.218149
 21
785.593254
 31
0.0
  0
CIRCLE
  8
5
  6
CONTINUOUS
 62
     3
  5
2A8
 10
413.118149
 20
778.893254
 30
0.0
 40
4.0
  0
CIRCLE
  8
5
  6
CONTINUOUS
 62
     3
  5
2A9
 10
413.118149
 20
778.893254
 30
0.0
 40
4.4
  0
ARC
  8
5
  6
DIVIDE
 62
     2
  5
2AA
 10
443.41815
 20
796.393254
 30
0.0
 40
42.700001
 50
189.435339
 51
249.433881
  0
ARC
  8
5
  6
DIVIDE
 62
     2
  5
2AB
 10
443.41815
 20
362.393247
 30
0.0
 40
42.700001
 50
211.61
 51
328.39
  0
ARC
  8
5
  6
CONTINUOUS
 62
     3
  5
2AC
 10
443.41815
 20
327.393247
 30
0.0
 40
7.7
 50
360.0
 51
180.0
  0
ARC
  8
5
  6
CONTINUOUS
 62
     3
  5
2AD
 10
443.41815
 20
327.393247
 30
0.0
 40
6.8
 50
360.0
 51
180.0
  0
LINE
  8
5
  6
CONTINUOUS
 62
     3
  5
2AE
 10
451.01815
 20
320.393247
 30
0.0
 11
451.01815
 21
327.393247
 31
0.0
  0
LINE
  8
5
  6
CONTINUOUS
 62
     3
  5
2AF
 10
450.11815
 20
327.393247
 30
0.0
 11
450.11815
 21
321.093247
 31
0.0
  0
ARC
  8
5
  6
CONTINUOUS
 62
     3
  5
2B0
 10
443.41815
 20
362.393247
 30
0.0
 40
41.800001
 50
260.63
 51
279.02
  0
LINE
  8
5
  6
CONTINUOUS
 62
     3
  5
2B1
 10
436.61815
 20
327.393247
 30
0.0
 11
436.61815
 21
321.193247
 31
0.0
  0
LINE
  8
5
  6
CONTINUOUS
 62
     3
  5
2B2
 10
435.71815
 20
320.393247
 30
0.0
 11
435.71815
 21
327.393247
 31
0.0
  0
CIRCLE
  8
5
  6
CONTINUOUS
 62
     3
  5
2B3
 10
443.41815
 20
327.393247
 30
0.0
 40
4.0
  0
CIRCLE
  8
5
  6
CONTINUOUS
 62
     3
  5
2B4
 10
443.41815
 20
327.393247
 30
0.0
 40
4.4
  0
CIRCLE
  8
5
  6
DOT
 62
     2
  5
2B5
 10
443.41815
 20
362.393247
 30
0.0
 40
45.0
  0
ARC
  8
5
  6
DIVIDE
 62
     2
  5
2B6
 10
443.41815
 20
362.393247
 30
0.0
 40
42.700001
 50
109.71
 51
171.38
  0
ARC
  8
5
  6
CONTINUOUS
 62
     3
  5
2B7
 10
443.41815
 20
362.393247
 30
0.0
 40
41.800001
 50
140.63
 51
159.02
  0
LINE
  8
5
  6
CONTINUOUS
 62
     3
  5
2B8
 10
410.918149
 20
390.093248
 30
0.0
 11
416.918149
 21
386.593248
 31
0.0
  0
CIRCLE
  8
5
  6
CONTINUOUS
 62
     3
  5
2B9
 10
413.118149
 20
379.893248
 30
0.0
 40
4.4
  0
CIRCLE
  8
5
  6
CONTINUOUS
 62
     3
  5
2BA
 10
413.118149
 20
379.893248
 30
0.0
 40
4.0
  0
ARC
  8
5
  6
DIVIDE
 62
     2
  5
2BB
 10
443.41815
 20
362.393247
 30
0.0
 40
42.700001
 50
8.62
 51
70.29
  0
ARC
  8
5
  6
CONTINUOUS
 62
     3
  5
2BC
 10
473.71815
 20
379.893248
 30
0.0
 40
7.7
 50
120.0
 51
300.0
  0
ARC
  8
5
  6
CONTINUOUS
 62
     3
  5
2BD
 10
473.71815
 20
379.893248
 30
0.0
 40
6.8
 50
120.0
 51
300.0
  0
LINE
  8
5
  6
CONTINUOUS
 62
     3
  5
2BE
 10
476.01815
 20
389.993248
 30
0.0
 11
469.91815
 21
386.493248
 31
0.0
  0
LINE
  8
5
  6
CONTINUOUS
 62
     3
  5
2BF
 10
470.41815
 20
385.693248
 30
0.0
 11
475.81815
 21
388.893248
 31
0.0
  0
ARC
  8
5
  6
CONTINUOUS
 62
     3
  5
2C0
 10
443.41815
 20
362.393247
 30
0.0
 40
41.800001
 50
20.63
 51
39.02
  0
CIRCLE
  8
5
  6
CONTINUOUS
 62
     3
  5
2C1
 10
473.71815
 20
379.893248
 30
0.0
 40
4.0
  0
CIRCLE
  8
5
  6
CONTINUOUS
 62
     3
  5
2C2
 10
473.71815
 20
379.893248
 30
0.0
 40
4.4
  0
LINE
  8
5
  6
CONTINUOUS
 62
     3
  5
2C3
 10
477.11815
 20
373.993248
 30
0.0
 11
482.51815
 21
377.093248
 31
0.0
  0
LINE
  8
5
  6
CONTINUOUS
 62
     3
  5
2C4
 10
483.61815
 20
376.693248
 30
0.0
 11
477.61815
 21
373.193248
 31
0.0
  0
ARC
  8
5
  6
CONTINUOUS
 62
     3
  5
2C5
 10
413.118149
 20
379.893248
 30
0.0
 40
7.7
 50
240.0
 51
60.0
  0
ARC
  8
5
  6
CONTINUOUS
 62
     3
  5
2C6
 10
413.118149
 20
379.893248
 30
0.0
 40
6.8
 50
240.0
 51
60.0
  0
LINE
  8
5
  6
CONTINUOUS
 62
     3
  5
2C7
 10
403.218149
 20
376.793248
 30
0.0
 11
409.318149
 21
373.293248
 31
0.0
  0
LINE
  8
5
  6
CONTINUOUS
 62
     3
  5
2C8
 10
409.718149
 20
374.093248
 30
0.0
 11
404.318149
 21
377.193248
 31
0.0
  0
LINE
  8
5
  6
CONTINUOUS
 62
     3
  5
2C9
 10
416.518149
 20
385.793248
 30
0.0
 11
411.118149
 21
388.893248
 31
0.0
  0
LINE
  8
50
  6
CONTINUOUS
 62
     3
  5
2CA
 10
308.418148
 20
579.393251
 30
0.0
 11
319.184569
 21
579.393251
 31
0.0
  0
LINE
  8
50
  6
CONTINUOUS
 62
     3
  5
2CB
 10
308.418148
 20
579.393251
 30
0.0
 11
313.418148
 21
576.506499
 31
0.0
  0
LINE
  8
50
  6
CONTINUOUS
 62
     3
  5
2CC
 10
308.418148
 20
579.393251
 30
0.0
 11
313.418148
 21
582.280002
 31
0.0
  0
CIRCLE
  8
50
  6
DOT
 62
     5
  5
2CD
 10
293.418148
 20
579.393251
 30
0.0
 40
15.0
  0
LINE
  8
50
  6
DOT
 62
     5
  5
2CE
 10
308.418148
 20
579.393251
 30
0.0
 11
278.418147
 21
579.393251
 31
0.0
  0
TEXT
  8
50
  6
CONTINUOUS
 62
     3
  5
2CF
 10
324.184569
 20
571.893251
 30
0.0
 40
15.0
  1
φ30
 41
0.558
  7
1
 72
     5
 11
354.184569
 21
571.893251
 31
0.0
  0
LINE
  8
50
  6
CONTINUOUS
 62
     5
  5
2D0
 10
303.66941
 20
364.64451
 30
0.0
 11
328.418148
 21
389.393248
 31
0.0
  0
TEXT
  8
50
  6
CONTINUOUS
 62
     3
  5
2D1
 10
329.218275
 20
384.049979
 30
0.0
 40
15.0
  1
r35
 41
0.5
  7
1
 72
     5
 11
351.718275
 21
384.049979
 31
0.0
  0
LINE
  8
50
  6
CONTINUOUS
 62
     5
  5
2D2
 10
307.66941
 20
366.301364
 30
0.0
 11
303.66941
 21
364.64451
 31
0.0
  0
LINE
  8
50
  6
CONTINUOUS
 62
     5
  5
2D3
 10
305.326265
 20
368.64451
 30
0.0
 11
303.66941
 21
364.64451
 31
0.0
  0
CIRCLE
  8
1
  6
DOT
 62
     5
  5
2D4
 10
1123.418157
 20
504.393254
 30
0.0
 40
15.0
  0
CIRCLE
  8
1
  6
DOT
 62
     5
  5
2D5
 10
1123.418157
 20
804.320967
 30
0.0
 40
15.0
  0
LINE
  8
100
  6
CENTER
 62
     3
  5
2D6
 10
1098.418157
 20
804.393254
 30
0.0
 11
1146.743331
 21
804.393254
 31
0.0
  0
CIRCLE
  8
1
  6
DOT
 62
     5
  5
2D7
 10
1123.418157
 20
354.085088
 30
0.0
 40
15.0
  0
LINE
  8
5
  6
CONTINUOUS
 62
     1
  5
2D8
 10
1171.170553
 20
823.107587
 30
0.0
 11
1170.973758
 21
823.143254
 31
0.0
  0
LINE
  8
5
  6
CONTINUOUS
 62
     1
  5
2D9
 10
1174.967177
 20
839.036852
 30
0.0
 11
1174.775452
 21
839.093787
 31
0.0
  0
LINE
  8
5
  6
CONTINUOUS
 62
     3
  5
2DA
 10
1175.418157
 20
796.393254
 30
0.0
 11
1175.418157
 21
752.543502
 31
0.0
  0
LINE
  8
5
  6
CONTINUOUS
 62
     3
  5
2DB
 10
1174.775451
 20
768.763323
 30
0.0
 11
1172.470064
 21
772.793274
 31
0.0
  0
LINE
  8
5
  6
CONTINUOUS
 62
     3
  5
2DC
 10
1174.775451
 20
768.763323
 30
0.0
 11
1174.775451
 21
782.013512
 31
0.0
  0
ARC
  8
5
  6
CONTINUOUS
 62
     3
  5
2DD
 10
1318.569278
 20
796.393254
 30
0.0
 40
150.0
 50
180.000002
 51
186.032251
  0
LINE
  8
5
  6
CONTINUOUS
 62
     3
  5
2DE
 10
1169.760588
 20
777.525989
 30
0.0
 11
1169.760588
 21
796.393254
 31
0.0
  0
ARC
  8
5
  6
CONTINUOUS
 62
     3
  5
2DF
 10
1153.760596
 20
777.963068
 30
0.0
 40
20.422645
 50
20.327555
 51
21.115259
  0
LINE
  8
5
  6
CONTINUOUS
 62
     3
  5
2E0
 10
1174.775451
 20
782.013512
 30
0.0
 11
1172.911359
 21
785.057623
 31
0.0
  0
ARC
  8
5
  6
CONTINUOUS
 62
     3
  5
2E1
 10
1191.66613
 20
780.043978
 30
0.0
 40
20.422645
 50
165.169196
 51
200.034469
  0
ARC
  8
5
  6
CONTINUOUS
 62
     3
  5
2E2
 10
1172.37584
 20
785.15179
 30
0.0
 40
0.46757
 50
21.115259
 51
165.169196
  0
ARC
  8
5
  6
CONTINUOUS
 62
     3
  5
2E3
 10
1318.569278
 20
796.393254
 30
0.0
 40
150.0
 50
173.967749
 51
179.999998
  0
LINE
  8
5
  6
CONTINUOUS
 62
     3
  5
2E4
 10
1175.418157
 20
796.393254
 30
0.0
 11
1175.418157
 21
840.243006
 31
0.0
  0
LINE
  8
5
  6
CONTINUOUS
 62
     3
  5
2E5
 10
1169.760588
 20
815.260519
 30
0.0
 11
1169.760588
 21
796.393254
 31
0.0
  0
LINE
  8
5
  6
CONTINUOUS
 62
     1
  5
2E6
 10
1171.170553
 20
389.107581
 30
0.0
 11
1170.973758
 21
389.143247
 31
0.0
  0
LINE
  8
5
  6
CONTINUOUS
 62
     1
  5
2E7
 10
1174.967177
 20
405.036846
 30
0.0
 11
1174.775452
 21
405.09378
 31
0.0
  0
LINE
  8
5
  6
CONTINUOUS
 62
     3
  5
2E8
 10
1174.775451
 20
390.023178
 30
0.0
 11
1172.470064
 21
385.993228
 31
0.0
  0
LINE
  8
5
  6
CONTINUOUS
 62
     3
  5
2E9
 10
1174.775451
 20
390.023178
 30
0.0
 11
1174.775451
 21
376.772989
 31
0.0
  0
ARC
  8
5
  6
CONTINUOUS
 62
     3
  5
2EA
 10
1153.760596
 20
380.823433
 30
0.0
 40
20.422645
 50
338.884741
 51
339.672445
  0
LINE
  8
5
  6
CONTINUOUS
 62
     3
  5
2EB
 10
1174.775451
 20
376.772989
 30
0.0
 11
1172.911359
 21
373.728878
 31
0.0
  0
ARC
  8
5
  6
CONTINUOUS
 62
     3
  5
2EC
 10
1191.66613
 20
378.742523
 30
0.0
 40
20.422645
 50
159.965531
 51
194.830804
  0
CIRCLE
  8
1
  6
DOT
 62
     5
  5
2ED
 10
1123.418157
 20
654.393254
 30
0.0
 40
15.0
  0
LINE
  8
100
  6
CENTER
 62
     3
  5
2EE
 10
1098.418157
 20
654.393252
 30
0.0
 11
1148.418157
 21
654.393252
 31
0.0
  0
LINE
  8
50
  6
CONTINUOUS
 62
     2
  5
2EF
 10
1108.418157
 20
202.393254
 30
0.0
 11
1108.418157
 21
302.393254
 31
0.0
  0
CIRCLE
  8
50
  6
CONTINUOUS
 62
     2
  5
2F0
 10
1108.418157
 20
202.393254
 30
0.0
 40
1.0
  0
LINE
  8
50
  6
CONTINUOUS
 62
     2
  5
2F1
 10
1108.418157
 20
202.393254
 30
0.0
 11
1186.418157
 21
202.393254
 31
0.0
  0
TEXT
  8
50
  6
CONTINUOUS
 62
     2
  5
2F2
 10
1140.918157
 20
202.393254
 30
0.0
 40
13.0
  1
78
 41
0.5
  7
1
 72
     5
 11
1153.918157
 21
202.393254
 31
0.0
  0
LINE
  8
50
  6
CONTINUOUS
 62
     2
  5
2F3
 10
1138.418157
 20
252.393254
 30
0.0
 11
1138.418157
 21
302.393254
 31
0.0
  0
CIRCLE
  8
50
  6
CONTINUOUS
 62
     2
  5
2F4
 10
1108.418157
 20
252.393254
 30
0.0
 40
1.0
  0
CIRCLE
  8
50
  6
CONTINUOUS
 62
     2
  5
2F5
 10
1138.418157
 20
252.393254
 30
0.0
 40
1.0
  0
TEXT
  8
50
  6
CONTINUOUS
 62
     2
  5
2F6
 10
1116.918157
 20
252.393254
 30
0.0
 40
13.0
  1
30
 41
0.5
  7
1
 72
     5
 11
1129.918157
 21
252.393254
 31
0.0
  0
LINE
  8
50
  6
CONTINUOUS
 62
     2
  5
2F7
 10
1108.418157
 20
252.393254
 30
0.0
 11
1138.418157
 21
252.393254
 31
0.0
  0
LINE
  8
50
  6
CONTINUOUS
 62
     2
  5
2F8
 10
1186.418157
 20
202.393254
 30
0.0
 11
1186.418157
 21
302.393254
 31
0.0
  0
CIRCLE
  8
50
  6
CONTINUOUS
 62
     2
  5
2F9
 10
1186.418157
 20
202.393254
 30
0.0
 40
1.0
  0
CIRCLE
  8
50
  6
CONTINUOUS
 62
     2
  5
2FA
 10
1186.418157
 20
252.393254
 30
0.0
 40
1.0
  0
LINE
  8
50
  6
CONTINUOUS
 62
     2
  5
2FB
 10
1138.418157
 20
252.393254
 30
0.0
 11
1186.418157
 21
252.393254
 31
0.0
  0
TEXT
  8
50
  6
CONTINUOUS
 62
     2
  5
2FC
 10
1155.918157
 20
252.393254
 30
0.0
 40
13.0
  1
48
 41
0.5
  7
1
 72
     5
 11
1168.918157
 21
252.393254
 31
0.0
  0
LINE
  8
100
  6
CENTER
 62
     3
  5
2FD
 10
1098.418157
 20
504.393249
 30
0.0
 11
1148.418157
 21
504.393249
 31
0.0
  0
LINE
  8
100
  6
CENTER
 62
     3
  5
2FE
 10
1098.418157
 20
354.393247
 30
0.0
 11
1146.743331
 21
354.393247
 31
0.0
  0
LINE
  8
100
  6
CENTER
 62
     3
  5
2FF
 10
1123.418157
 20
329.085088
 30
0.0
 11
1123.418157
 21
829.393254
 31
0.0
  0
ARC
  8
5
  6
CONTINUOUS
 62
     3
  5
300
 10
1172.37584
 20
373.634712
 30
0.0
 40
0.46757
 50
194.830804
 51
338.884741
  0
LINE
  8
5
  6
CONTINUOUS
 62
     3
  5
301
 10
1175.418157
 20
362.393247
 30
0.0
 11
1175.418157
 21
318.543495
 31
0.0
  0
ARC
  8
5
  6
CONTINUOUS
 62
     3
  5
302
 10
1318.569278
 20
362.393247
 30
0.0
 40
150.0
 50
180.000002
 51
186.032251
  0
LINE
  8
5
  6
CONTINUOUS
 62
     3
  5
303
 10
1169.760588
 20
343.525982
 30
0.0
 11
1169.760588
 21
362.393247
 31
0.0
  0
ARC
  8
5
  6
CONTINUOUS
 62
     3
  5
304
 10
1318.569278
 20
362.393247
 30
0.0
 40
150.0
 50
173.967749
 51
179.999998
  0
LINE
  8
5
  6
CONTINUOUS
 62
     3
  5
305
 10
1175.418157
 20
362.393247
 30
0.0
 11
1175.418157
 21
406.243
 31
0.0
  0
LINE
  8
5
  6
CONTINUOUS
 62
     3
  5
306
 10
1169.760588
 20
381.260512
 30
0.0
 11
1169.760588
 21
362.393247
 31
0.0
  0
ARC
  8
5
  6
CONTINUOUS
 62
     4
  5
307
 10
1318.569278
 20
796.393254
 30
0.0
 40
149.8
 50
163.460863
 51
169.727304
  0
ARC
  8
5
  6
CONTINUOUS
 62
     4
  5
308
 10
1318.569278
 20
362.393247
 30
0.0
 40
149.8
 50
163.460863
 51
169.727304
  0
LINE
  8
1
  6
CONTINUOUS
 62
     4
  5
309
 10
1138.418157
 20
352.993254
 30
0.0
 11
1138.418157
 21
805.793254
 31
0.0
  0
ARC
  8
1
  6
CONTINUOUS
 62
     4
  5
30A
 10
1123.418157
 20
354.465305
 30
0.0
 40
15.072058
 50
185.604875
 51
354.395125
  0
LINE
  8
1
  6
CONTINUOUS
 62
     4
  5
30B
 10
1108.418157
 20
805.793254
 30
0.0
 11
1108.418157
 21
352.993254
 31
0.0
  0
LINE
  8
1
  6
CONTINUOUS
 62
     4
  5
30C
 10
1164.88756
 20
376.890183
 30
0.0
 11
1138.418157
 21
376.428157
 31
0.0
  0
LINE
  8
1
  6
CONTINUOUS
 62
     4
  5
30D
 10
1164.88756
 20
347.896312
 30
0.0
 11
1137.206908
 21
348.37948
 31
0.0
  0
ARC
  8
1
  6
CONTINUOUS
 62
     4
  5
30E
 10
1164.800298
 20
381.889421
 30
0.0
 40
5.0
 50
271.0
 51
352.774097
  0
ARC
  8
1
  6
CONTINUOUS
 62
     4
  5
30F
 10
1318.569278
 20
362.393247
 30
0.0
 40
150.0
 50
163.460863
 51
172.774094
  0
ARC
  8
1
  6
CONTINUOUS
 62
     4
  5
310
 10
1177.651327
 20
404.239765
 30
0.0
 40
3.0
 50
90.999997
 51
163.460863
  0
LINE
  8
1
  6
CONTINUOUS
 62
     4
  5
311
 10
1186.418157
 20
407.393247
 30
0.0
 11
1177.59897
 21
407.239308
 31
0.0
  0
LINE
  8
1
  6
CONTINUOUS
 62
     4
  5
312
 10
1186.418157
 20
407.393247
 30
0.0
 11
1186.418157
 21
317.393247
 31
0.0
  0
LINE
  8
1
  6
CONTINUOUS
 62
     4
  5
313
 10
1186.418157
 20
317.393247
 30
0.0
 11
1177.59897
 21
317.547187
 31
0.0
  0
ARC
  8
1
  6
CONTINUOUS
 62
     4
  5
314
 10
1177.651327
 20
320.54673
 30
0.0
 40
3.0
 50
196.539137
 51
269.000003
  0
ARC
  8
1
  6
CONTINUOUS
 62
     4
  5
315
 10
1318.569278
 20
362.393247
 30
0.0
 40
150.0
 50
187.225906
 51
196.539137
  0
ARC
  8
1
  6
CONTINUOUS
 62
     4
  5
316
 10
1164.800298
 20
342.897074
 30
0.0
 40
5.0
 50
7.225903
 51
89.0
  0
LINE
  8
1
  6
CONTINUOUS
 62
     4
  5
317
 10
1164.88756
 20
810.890189
 30
0.0
 11
1137.206909
 21
810.407022
 31
0.0
  0
LINE
  8
1
  6
CONTINUOUS
 62
     4
  5
318
 10
1164.88756
 20
781.896319
 30
0.0
 11
1138.418157
 21
782.358344
 31
0.0
  0
ARC
  8
1
  6
CONTINUOUS
 62
     4
  5
319
 10
1164.800298
 20
776.89708
 30
0.0
 40
5.0
 50
7.225903
 51
89.0
  0
ARC
  8
1
  6
CONTINUOUS
 62
     4
  5
31A
 10
1318.569278
 20
796.393254
 30
0.0
 40
150.0
 50
187.225906
 51
196.539137
  0
LINE
  8
1
  6
CONTINUOUS
 62
     4
  5
31B
 10
1186.418157
 20
751.393254
 30
0.0
 11
1177.59897
 21
751.547193
 31
0.0
  0
ARC
  8
1
  6
CONTINUOUS
 62
     4
  5
31C
 10
1177.651327
 20
754.546736
 30
0.0
 40
3.0
 50
196.539137
 51
269.000003
  0
LINE
  8
1
  6
CONTINUOUS
 62
     4
  5
31D
 10
1186.418157
 20
841.393254
 30
0.0
 11
1186.418157
 21
751.393254
 31
0.0
  0
LINE
  8
1
  6
CONTINUOUS
 62
     4
  5
31E
 10
1186.418157
 20
841.393254
 30
0.0
 11
1177.59897
 21
841.239314
 31
0.0
  0
ARC
  8
1
  6
CONTINUOUS
 62
     4
  5
31F
 10
1177.651327
 20
838.239771
 30
0.0
 40
3.0
 50
90.999997
 51
163.460863
  0
ARC
  8
1
  6
CONTINUOUS
 62
     4
  5
320
 10
1318.569278
 20
796.393254
 30
0.0
 40
150.0
 50
163.460863
 51
172.774094
  0
ARC
  8
1
  6
CONTINUOUS
 62
     4
  5
321
 10
1164.800298
 20
815.889428
 30
0.0
 40
5.0
 50
271.0
 51
352.774097
  0
ARC
  8
1
  6
CONTINUOUS
 62
     4
  5
322
 10
1123.418157
 20
804.321195
 30
0.0
 40
15.072059
 50
5.604903
 51
174.395097
  0
ARC
  8
1
  6
CONTINUOUS
 62
     4
  5
323
 10
863.418156
 20
774.393253
 30
0.0
 40
45.000001
 50
0.0
 51
90.0
  0
ARC
  8
1
  6
CONTINUOUS
 62
     4
  5
324
 10
860.418156
 20
771.393253
 30
0.0
 40
18.0
 50
0.0
 51
90.0
  0
LINE
  8
1
  6
CONTINUOUS
 62
     4
  5
325
 10
775.818155
 20
789.393254
 30
0.0
 11
861.018156
 21
789.393254
 31
0.0
  0
LINE
  8
1
  6
CONTINUOUS
 62
     4
  5
326
 10
878.418156
 20
471.993249
 30
0.0
 11
878.418156
 21
386.793248
 31
0.0
  0
ARC
  8
1
  6
CONTINUOUS
 62
     4
  5
327
 10
860.418156
 20
387.393248
 30
0.0
 40
18.0
 50
270.0
 51
360.0
  0
ARC
  8
1
  6
CONTINUOUS
 62
     4
  5
328
 10
863.418156
 20
384.393248
 30
0.0
 40
45.000001
 50
270.0
 51
0.0
  0
ARC
  8
1
  6
CONTINUOUS
 62
     4
  5
329
 10
410.418149
 20
387.393248
 30
0.0
 40
18.0
 50
270.0
 51
360.0
  0
ARC
  8
1
  6
CONTINUOUS
 62
     4
  5
32A
 10
476.41815
 20
387.393248
 30
0.0
 40
18.0
 50
180.0
 51
270.0
  0
LINE
  8
1
  6
CONTINUOUS
 62
     4
  5
32B
 10
411.018149
 20
369.393247
 30
0.0
 11
328.418148
 21
369.393247
 31
0.0
  0
ARC
  8
1
  6
CONTINUOUS
 62
     4
  5
32C
 10
328.418148
 20
389.393248
 30
0.0
 40
50.000001
 50
180.0
 51
270.0
  0
ARC
  8
1
  6
CONTINUOUS
 62
     4
  5
32D
 10
328.418148
 20
389.393248
 30
0.0
 40
20.0
 50
180.0
 51
270.0
  0
LINE
  8
1
  6
CONTINUOUS
 62
     4
  5
32E
 10
475.81815
 20
369.393247
 30
0.0
 11
561.018152
 21
369.393247
 31
0.0
  0
ARC
  8
1
  6
CONTINUOUS
 62
     4
  5
32F
 10
560.418152
 20
387.393248
 30
0.0
 40
18.0
 50
270.0
 51
360.0
  0
ARC
  8
1
  6
CONTINUOUS
 62
     4
  5
330
 10
626.418152
 20
387.393248
 30
0.0
 40
18.0
 50
180.0
 51
270.0
  0
ARC
  8
1
  6
CONTINUOUS
 62
     4
  5
331
 10
326.418148
 20
537.39325
 30
0.0
 40
18.0
 50
180.0
 51
270.0
  0
LINE
  8
1
  6
CONTINUOUS
 62
     4
  5
332
 10
325.818148
 20
519.39325
 30
0.0
 11
411.018149
 21
519.39325
 31
0.0
  0
ARC
  8
1
  6
CONTINUOUS
 62
     4
  5
333
 10
410.418149
 20
537.39325
 30
0.0
 40
18.0
 50
270.0
 51
360.0
  0
ARC
  8
1
  6
CONTINUOUS
 62
     4
  5
334
 10
476.41815
 20
537.39325
 30
0.0
 40
18.0
 50
180.0
 51
270.0
  0
LINE
  8
1
  6
CONTINUOUS
 62
     4
  5
335
 10
475.81815
 20
519.39325
 30
0.0
 11
561.018152
 21
519.39325
 31
0.0
  0
ARC
  8
1
  6
CONTINUOUS
 62
     4
  5
336
 10
410.418149
 20
471.393249
 30
0.0
 40
18.0
 50
0.0
 51
90.0
  0
LINE
  8
1
  6
CONTINUOUS
 62
     4
  5
337
 10
325.818148
 20
489.393249
 30
0.0
 11
411.018149
 21
489.393249
 31
0.0
  0
LINE
  8
1
  6
CONTINUOUS
 62
     4
  5
338
 10
475.81815
 20
489.393249
 30
0.0
 11
561.018152
 21
489.393249
 31
0.0
  0
ARC
  8
1
  6
CONTINUOUS
 62
     4
  5
339
 10
476.41815
 20
471.393249
 30
0.0
 40
18.0
 50
90.0
 51
180.0
  0
ARC
  8
1
  6
CONTINUOUS
 62
     4
  5
33A
 10
326.418148
 20
471.393249
 30
0.0
 40
18.0
 50
90.0
 51
180.0
  0
LINE
  8
1
  6
CONTINUOUS
 62
     4
  5
33B
 10
428.41815
 20
471.993249
 30
0.0
 11
428.41815
 21
386.793248
 31
0.0
  0
LINE
  8
1
  6
CONTINUOUS
 62
     4
  5
33C
 10
458.41815
 20
471.993249
 30
0.0
 11
458.41815
 21
386.793248
 31
0.0
  0
LINE
  8
1
  6
CONTINUOUS
 62
     4
  5
33D
 10
308.418148
 20
471.993249
 30
0.0
 11
308.418148
 21
389.393248
 31
0.0
  0
LINE
  8
1
  6
CONTINUOUS
 62
     4
  5
33E
 10
608.418152
 20
471.993249
 30
0.0
 11
608.418152
 21
386.393248
 31
0.0
  0
LINE
  8
1
  6
CONTINUOUS
 62
     4
  5
33F
 10
578.418152
 20
471.993249
 30
0.0
 11
578.418152
 21
386.793248
 31
0.0
  0
ARC
  8
1
  6
CONTINUOUS
 62
     4
  5
340
 10
476.41815
 20
687.393252
 30
0.0
 40
18.0
 50
180.0
 51
270.0
  0
ARC
  8
1
  6
CONTINUOUS
 62
     4
  5
341
 10
410.418149
 20
687.393252
 30
0.0
 40
18.0
 50
270.0
 51
360.0
  0
LINE
  8
1
  6
CONTINUOUS
 62
     4
  5
342
 10
325.818148
 20
669.393252
 30
0.0
 11
411.018149
 21
669.393252
 31
0.0
  0
LINE
  8
1
  6
CONTINUOUS
 62
     4
  5
343
 10
325.818148
 20
639.393252
 30
0.0
 11
411.018149
 21
639.393252
 31
0.0
  0
ARC
  8
1
  6
CONTINUOUS
 62
     4
  5
344
 10
410.418149
 20
621.393251
 30
0.0
 40
18.0
 50
0.0
 51
90.0
  0
ARC
  8
1
  6
CONTINUOUS
 62
     4
  5
345
 10
326.418148
 20
687.393252
 30
0.0
 40
18.0
 50
180.0
 51
270.0
  0
ARC
  8
1
  6
CONTINUOUS
 62
     4
  5
346
 10
326.418148
 20
621.393251
 30
0.0
 40
18.0
 50
90.0
 51
180.0
  0
ARC
  8
1
  6
CONTINUOUS
 62
     4
  5
347
 10
476.41815
 20
621.393251
 30
0.0
 40
18.0
 50
90.0
 51
180.0
  0
LINE
  8
1
  6
CONTINUOUS
 62
     4
  5
348
 10
428.41815
 20
621.993251
 30
0.0
 11
428.41815
 21
536.79325
 31
0.0
  0
LINE
  8
1
  6
CONTINUOUS
 62
     4
  5
349
 10
308.418148
 20
536.79325
 30
0.0
 11
308.418148
 21
621.993251
 31
0.0
  0
LINE
  8
1
  6
CONTINUOUS
 62
     4
  5
34A
 10
458.41815
 20
621.993251
 30
0.0
 11
458.41815
 21
536.79325
 31
0.0
  0
ARC
  8
1
  6
CONTINUOUS
 62
     4
  5
34B
 10
323.418148
 20
774.393253
 30
0.0
 40
45.000001
 50
90.0
 51
180.0
  0
ARC
  8
1
  6
CONTINUOUS
 62
     4
  5
34C
 10
326.418148
 20
771.393253
 30
0.0
 40
18.0
 50
90.0
 51
180.0
  0
LINE
  8
1
  6
CONTINUOUS
 62
     4
  5
34D
 10
308.418148
 20
771.993253
 30
0.0
 11
308.418148
 21
686.793252
 31
0.0
  0
LINE
  8
1
  6
CONTINUOUS
 62
     4
  5
34E
 10
278.418147
 20
773.793253
 30
0.0
 11
278.418147
 21
389.393248
 31
0.0
  0
ARC
  8
1
  6
CONTINUOUS
 62
     4
  5
34F
 10
410.418149
 20
771.393253
 30
0.0
 40
18.0
 50
0.0
 51
90.0
  0
ARC
  8
1
  6
CONTINUOUS
 62
     4
  5
350
 10
476.41815
 20
771.393253
 30
0.0
 40
18.0
 50
90.0
 51
180.0
  0
LINE
  8
1
  6
CONTINUOUS
 62
     4
  5
351
 10
428.41815
 20
686.793252
 30
0.0
 11
428.41815
 21
771.993253
 31
0.0
  0
LINE
  8
1
  6
CONTINUOUS
 62
     4
  5
352
 10
458.41815
 20
686.793252
 30
0.0
 11
458.41815
 21
771.993253
 31
0.0
  0
LINE
  8
1
  6
CONTINUOUS
 62
     4
  5
353
 10
325.818148
 20
789.393254
 30
0.0
 11
411.018149
 21
789.393254
 31
0.0
  0
LINE
  8
1
  6
CONTINUOUS
 62
     4
  5
354
 10
324.018148
 20
819.393254
 30
0.0
 11
862.818156
 21
819.393254
 31
0.0
  0
LINE
  8
1
  6
CONTINUOUS
 62
     4
  5
355
 10
475.81815
 20
789.393254
 30
0.0
 11
561.018152
 21
789.393254
 31
0.0
  0
LINE
  8
1
  6
CONTINUOUS
 62
     4
  5
356
 10
625.818152
 20
789.393254
 30
0.0
 11
711.018154
 21
789.393254
 31
0.0
  0
LINE
  8
1
  6
CONTINUOUS
 62
     4
  5
357
 10
475.81815
 20
639.393252
 30
0.0
 11
561.018152
 21
639.393252
 31
0.0
  0
LINE
  8
1
  6
CONTINUOUS
 62
     4
  5
358
 10
475.81815
 20
669.393252
 30
0.0
 11
561.018152
 21
669.393252
 31
0.0
  0
LINE
  8
1
  6
CONTINUOUS
 62
     4
  5
359
 10
775.818155
 20
369.393247
 30
0.0
 11
861.018156
 21
369.393247
 31
0.0
  0
LINE
  8
1
  6
CONTINUOUS
 62
     4
  5
35A
 10
625.818152
 20
369.393247
 30
0.0
 11
711.018154
 21
369.393247
 31
0.0
  0
ARC
  8
1
  6
CONTINUOUS
 62
     4
  5
35B
 10
710.418154
 20
387.393248
 30
0.0
 40
18.0
 50
270.0
 51
360.0
  0
ARC
  8
1
  6
CONTINUOUS
 62
     4
  5
35C
 10
776.418155
 20
387.393248
 30
0.0
 40
18.0
 50
180.0
 51
270.0
  0
LINE
  8
1
  6
CONTINUOUS
 62
     4
  5
35D
 10
862.818156
 20
339.393247
 30
0.0
 11
328.418148
 21
339.393247
 31
0.0
  0
LINE
  8
1
  6
CONTINUOUS
 62
     4
  5
35E
 10
728.418154
 20
471.993249
 30
0.0
 11
728.418154
 21
386.793248
 31
0.0
  0
LINE
  8
1
  6
CONTINUOUS
 62
     4
  5
35F
 10
758.418154
 20
471.993249
 30
0.0
 11
758.418154
 21
386.793248
 31
0.0
  0
LINE
  8
1
  6
CONTINUOUS
 62
     4
  5
360
 10
878.418156
 20
621.993251
 30
0.0
 11
878.418156
 21
536.79325
 31
0.0
  0
ARC
  8
1
  6
CONTINUOUS
 62
     4
  5
361
 10
860.418156
 20
537.39325
 30
0.0
 40
18.0
 50
270.0
 51
360.0
  0
ARC
  8
1
  6
CONTINUOUS
 62
     4
  5
362
 10
860.418156
 20
621.393251
 30
0.0
 40
18.0
 50
0.0
 51
90.0
  0
LINE
  8
1
  6
CONTINUOUS
 62
     4
  5
363
 10
878.418156
 20
686.793252
 30
0.0
 11
878.418156
 21
771.993253
 31
0.0
  0
ARC
  8
1
  6
CONTINUOUS
 62
     4
  5
364
 10
860.418156
 20
687.393252
 30
0.0
 40
18.0
 50
270.0
 51
360.0
  0
ARC
  8
1
  6
CONTINUOUS
 62
     4
  5
365
 10
860.418156
 20
471.393249
 30
0.0
 40
18.0
 50
0.0
 51
90.0
  0
LINE
  8
1
  6
CONTINUOUS
 62
     4
  5
366
 10
908.418157
 20
773.793253
 30
0.0
 11
908.418157
 21
384.993248
 31
0.0
  0
ARC
  8
1
  6
CONTINUOUS
 62
     4
  5
367
 10
776.418155
 20
771.393253
 30
0.0
 40
18.0
 50
90.0
 51
180.0
  0
LINE
  8
1
  6
CONTINUOUS
 62
     4
  5
368
 10
758.418154
 20
686.793252
 30
0.0
 11
758.418154
 21
771.993253
 31
0.0
  0
LINE
  8
1
  6
CONTINUOUS
 62
     4
  5
369
 10
728.418154
 20
686.793252
 30
0.0
 11
728.418154
 21
771.993253
 31
0.0
  0
ARC
  8
1
  6
CONTINUOUS
 62
     4
  5
36A
 10
710.418154
 20
771.393253
 30
0.0
 40
18.0
 50
0.0
 51
90.0
  0
ARC
  8
1
  6
CONTINUOUS
 62
     4
  5
36B
 10
626.418152
 20
537.39325
 30
0.0
 40
18.0
 50
180.0
 51
270.0
  0
ARC
  8
1
  6
CONTINUOUS
 62
     4
  5
36C
 10
560.418152
 20
537.39325
 30
0.0
 40
18.0
 50
270.0
 51
360.0
  0
ARC
  8
1
  6
CONTINUOUS
 62
     4
  5
36D
 10
560.418152
 20
471.393249
 30
0.0
 40
18.0
 50
0.0
 51
90.0
  0
ARC
  8
1
  6
CONTINUOUS
 62
     4
  5
36E
 10
626.418152
 20
471.393249
 30
0.0
 40
18.0
 50
90.0
 51
180.0
  0
ARC
  8
1
  6
CONTINUOUS
 62
     4
  5
36F
 10
560.418152
 20
771.393253
 30
0.0
 40
18.0
 50
0.0
 51
90.0
  0
ARC
  8
1
  6
CONTINUOUS
 62
     4
  5
370
 10
626.418152
 20
771.393253
 30
0.0
 40
18.0
 50
90.0
 51
180.0
  0
ARC
  8
1
  6
CONTINUOUS
 62
     4
  5
371
 10
560.418152
 20
621.393251
 30
0.0
 40
18.0
 50
0.0
 51
90.0
  0
ARC
  8
1
  6
CONTINUOUS
 62
     4
  5
372
 10
626.418152
 20
621.393251
 30
0.0
 40
18.0
 50
90.0
 51
180.0
  0
LINE
  8
1
  6
CONTINUOUS
 62
     4
  5
373
 10
578.418152
 20
621.993251
 30
0.0
 11
578.418152
 21
536.79325
 31
0.0
  0
LINE
  8
1
  6
CONTINUOUS
 62
     4
  5
374
 10
608.418152
 20
621.993251
 30
0.0
 11
608.418152
 21
536.49325
 31
0.0
  0
LINE
  8
1
  6
CONTINUOUS
 62
     4
  5
375
 10
578.418152
 20
686.793252
 30
0.0
 11
578.418152
 21
771.993253
 31
0.0
  0
ARC
  8
1
  6
CONTINUOUS
 62
     4
  5
376
 10
626.418152
 20
687.393252
 30
0.0
 40
18.0
 50
180.0
 51
270.0
  0
ARC
  8
1
  6
CONTINUOUS
 62
     4
  5
377
 10
560.418152
 20
687.393252
 30
0.0
 40
18.0
 50
270.0
 51
360.0
  0
LINE
  8
1
  6
CONTINUOUS
 62
     4
  5
378
 10
608.418152
 20
686.793252
 30
0.0
 11
608.418152
 21
772.393253
 31
0.0
  0
ARC
  8
1
  6
CONTINUOUS
 62
     4
  5
379
 10
710.418154
 20
687.393252
 30
0.0
 40
18.0
 50
270.0
 51
360.0
  0
ARC
  8
1
  6
CONTINUOUS
 62
     4
  5
37A
 10
776.418155
 20
621.393251
 30
0.0
 40
18.0
 50
90.0
 51
180.0
  0
ARC
  8
1
  6
CONTINUOUS
 62
     4
  5
37B
 10
710.418154
 20
621.393251
 30
0.0
 40
18.0
 50
0.0
 51
90.0
  0
LINE
  8
1
  6
CONTINUOUS
 62
     4
  5
37C
 10
758.418154
 20
621.993251
 30
0.0
 11
758.418154
 21
536.79325
 31
0.0
  0
LINE
  8
1
  6
CONTINUOUS
 62
     4
  5
37D
 10
728.418154
 20
621.993251
 30
0.0
 11
728.418154
 21
536.79325
 31
0.0
  0
ARC
  8
1
  6
CONTINUOUS
 62
     4
  5
37E
 10
776.418155
 20
687.393252
 30
0.0
 40
18.0
 50
180.0
 51
270.0
  0
ARC
  8
1
  6
CONTINUOUS
 62
     4
  5
37F
 10
710.418154
 20
471.393249
 30
0.0
 40
18.0
 50
0.0
 51
90.0
  0
ARC
  8
1
  6
CONTINUOUS
 62
     4
  5
380
 10
776.418155
 20
471.393249
 30
0.0
 40
18.0
 50
90.0
 51
180.0
  0
ARC
  8
1
  6
CONTINUOUS
 62
     4
  5
381
 10
776.418155
 20
537.39325
 30
0.0
 40
18.0
 50
180.0
 51
270.0
  0
ARC
  8
1
  6
CONTINUOUS
 62
     4
  5
382
 10
710.418154
 20
537.39325
 30
0.0
 40
18.0
 50
270.0
 51
360.0
  0
LINE
  8
1
  6
CONTINUOUS
 62
     4
  5
383
 10
625.818152
 20
489.393249
 30
0.0
 11
711.018154
 21
489.393249
 31
0.0
  0
LINE
  8
1
  6
CONTINUOUS
 62
     4
  5
384
 10
625.818152
 20
519.39325
 30
0.0
 11
711.018154
 21
519.39325
 31
0.0
  0
LINE
  8
1
  6
CONTINUOUS
 62
     4
  5
385
 10
625.818152
 20
639.393252
 30
0.0
 11
711.018154
 21
639.393252
 31
0.0
  0
LINE
  8
1
  6
CONTINUOUS
 62
     4
  5
386
 10
625.818152
 20
669.393252
 30
0.0
 11
711.018154
 21
669.393252
 31
0.0
  0
LINE
  8
1
  6
CONTINUOUS
 62
     4
  5
387
 10
775.818155
 20
639.393252
 30
0.0
 11
861.018156
 21
639.393252
 31
0.0
  0
LINE
  8
1
  6
CONTINUOUS
 62
     4
  5
388
 10
775.818155
 20
669.393252
 30
0.0
 11
861.018156
 21
669.393252
 31
0.0
  0
LINE
  8
1
  6
CONTINUOUS
 62
     4
  5
389
 10
775.818155
 20
669.393252
 30
0.0
 11
861.018156
 21
669.393252
 31
0.0
  0
LINE
  8
1
  6
CONTINUOUS
 62
     4
  5
38A
 10
775.818155
 20
519.39325
 30
0.0
 11
861.018156
 21
519.39325
 31
0.0
  0
LINE
  8
1
  6
CONTINUOUS
 62
     4
  5
38B
 10
775.818155
 20
489.393249
 30
0.0
 11
861.018156
 21
489.393249
 31
0.0
  0
TEXT
  8
150
  6
CONTINUOUS
 62
    15
  5
38C
 10
92.20779
 20
979.517763
 30
0.0
 40
12.0
  1
1
 41
0.5
  7
1
 72
     5
 11
98.20779
 21
979.517763
 31
0.0
  0
TEXT
  8
150
  6
CONTINUOUS
 62
    15
  5
38D
 10
267.33279
 20
979.517763
 30
0.0
 40
12.0
  1
2
 41
0.5
  7
1
 72
     5
 11
273.33279
 21
979.517763
 31
0.0
  0
TEXT
  8
150
  6
CONTINUOUS
 62
    15
  5
38E
 10
617.58279
 20
979.517763
 30
0.0
 40
12.0
  1
4
 41
0.5
  7
1
 72
     5
 11
623.58279
 21
979.517763
 31
0.0
  0
TEXT
  8
150
  6
CONTINUOUS
 62
    15
  5
38F
 10
792.70779
 20
979.517763
 30
0.0
 40
12.0
  1
5
 41
0.5
  7
1
 72
     5
 11
798.70779
 21
979.517763
 31
0.0
  0
TEXT
  8
150
  6
CONTINUOUS
 62
    15
  5
390
 10
967.83279
 20
979.517763
 30
0.0
 40
12.0
  1
6
 41
0.5
  7
1
 72
     5
 11
973.83279
 21
979.517763
 31
0.0
  0
TEXT
  8
150
  6
CONTINUOUS
 62
    15
  5
391
 10
1142.95779
 20
979.517763
 30
0.0
 40
12.0
  1
7
 41
0.5
  7
1
 72
     5
 11
1148.95779
 21
979.517763
 31
0.0
  0
TEXT
  8
150
  6
CONTINUOUS
 62
    15
  5
392
 10
1318.08279
 20
979.517763
 30
0.0
 40
12.0
  1
8
 41
0.5
  7
1
 72
     5
 11
1324.08279
 21
979.517763
 31
0.0
  0
TEXT
  8
150
  6
CONTINUOUS
 62
    15
  5
393
 10
442.45779
 20
979.517763
 30
0.0
 40
12.0
  1
3
 41
0.5
  7
1
 72
     5
 11
448.45779
 21
979.517763
 31
0.0
  0
TEXT
  8
150
  6
CONTINUOUS
 62
    15
  5
394
 10
1407.64529
 20
880.917763
 30
0.0
 40
12.0
  1
A
 41
0.5
  7
1
 72
     5
 11
1413.64529
 21
880.917763
 31
0.0
  0
TEXT
  8
150
  6
CONTINUOUS
 62
    15
  5
395
 10
1407.64529
 20
687.717763
 30
0.0
 40
12.0
  1
B
 41
0.5
  7
1
 72
     5
 11
1413.64529
 21
687.717763
 31
0.0
  0
TEXT
  8
150
  6
CONTINUOUS
 62
    15
  5
396
 10
1407.64529
 20
108.117763
 30
0.0
 40
12.0
  1
E
 41
0.5
  7
1
 72
     5
 11
1413.64529
 21
108.117763
 31
0.0
  0
TEXT
  8
150
  6
CONTINUOUS
 62
    15
  5
397
 10
1407.64529
 20
494.517763
 30
0.0
 40
12.0
  1
C
 41
0.5
  7
1
 72
     5
 11
1413.64529
 21
494.517763
 31
0.0
  0
TEXT
  8
150
  6
CONTINUOUS
 62
    15
  5
398
 10
1407.64529
 20
301.317763
 30
0.0
 40
12.0
  1
D
 41
0.5
  7
1
 72
     5
 11
1413.64529
 21
301.317763
 31
0.0
  0
TEXT
  8
150
  6
CONTINUOUS
 62
    15
  5
399
 10
92.20779
 20
68.954133
 30
0.0
 40
12.0
  1
1
 41
0.5
  7
1
 72
     5
 11
98.20779
 21
68.954133
 31
0.0
  0
TEXT
  8
150
  6
CONTINUOUS
 62
    15
  5
39A
 10
1318.08279
 20
68.954133
 30
0.0
 40
12.0
  1
8
 41
0.5
  7
1
 72
     5
 11
1324.08279
 21
68.954133
 31
0.0
  0
TEXT
  8
150
  6
CONTINUOUS
 62
    15
  5
39B
 10
1142.95779
 20
68.954133
 30
0.0
 40
12.0
  1
7
 41
0.5
  7
1
 72
     5
 11
1148.95779
 21
68.954133
 31
0.0
  0
TEXT
  8
150
  6
CONTINUOUS
 62
    15
  5
39C
 10
967.83279
 20
68.954133
 30
0.0
 40
12.0
  1
6
 41
0.5
  7
1
 72
     5
 11
973.83279
 21
68.954133
 31
0.0
  0
TEXT
  8
50
  6
CONTINUOUS
 62
     4
  5
39D
 10
768.77709
 20
75.231507
 30
0.0
 40
12.0
  1
　
 41
0.837
  7
1
 72
     5
 11
780.77709
 21
75.231507
 31
0.0
  0
TEXT
  8
150
  6
CONTINUOUS
 62
    15
  5
39E
 10
792.70779
 20
68.954133
 30
0.0
 40
12.0
  1
5
 41
0.5
  7
1
 72
     5
 11
798.70779
 21
68.954133
 31
0.0
  0
TEXT
  8
150
  6
CONTINUOUS
 62
    15
  5
39F
 10
617.58279
 20
68.954133
 30
0.0
 40
12.0
  1
4
 41
0.5
  7
1
 72
     5
 11
623.58279
 21
68.954133
 31
0.0
  0
TEXT
  8
150
  6
CONTINUOUS
 62
    15
  5
3A0
 10
267.33279
 20
68.954133
 30
0.0
 40
12.0
  1
2
 41
0.5
  7
1
 72
     5
 11
273.33279
 21
68.954133
 31
0.0
  0
TEXT
  8
150
  6
CONTINUOUS
 62
    15
  5
3A1
 10
442.45779
 20
68.954133
 30
0.0
 40
12.0
  1
3
 41
0.5
  7
1
 72
     5
 11
448.45779
 21
68.954133
 31
0.0
  0
TEXT
  8
150
  6
CONTINUOUS
 62
    15
  5
3A2
 10
2.64529
 20
108.117763
 30
0.0
 40
12.0
  1
E
 41
0.5
  7
1
 72
     5
 11
8.64529
 21
108.117763
 31
0.0
  0
TEXT
  8
150
  6
CONTINUOUS
 62
    15
  5
3A3
 10
2.64529
 20
301.317763
 30
0.0
 40
12.0
  1
D
 41
0.5
  7
1
 72
     5
 11
8.64529
 21
301.317763
 31
0.0
  0
TEXT
  8
150
  6
CONTINUOUS
 62
    15
  5
3A4
 10
2.64529
 20
494.517763
 30
0.0
 40
12.0
  1
C
 41
0.5
  7
1
 72
     5
 11
8.64529
 21
494.517763
 31
0.0
  0
TEXT
  8
150
  6
CONTINUOUS
 62
    15
  5
3A5
 10
2.64529
 20
687.717763
 30
0.0
 40
12.0
  1
B
 41
0.5
  7
1
 72
     5
 11
8.64529
 21
687.717763
 31
0.0
  0
TEXT
  8
150
  6
CONTINUOUS
 62
    15
  5
3A6
 10
2.64529
 20
880.917763
 30
0.0
 40
12.0
  1
A
 41
0.5
  7
1
 72
     5
 11
8.64529
 21
880.917763
 31
0.0
  0
TEXT
  8
100
  6
CONTINUOUS
 62
     3
  5
3A7
 10
1007.228754
 20
580.338879
 30
0.0
 40
12.0
  1
本体
 41
0.837
  7
1
 72
     5
 11
1031.228754
 21
580.338879
 31
0.0
  0
TEXT
  8
100
  6
CONTINUOUS
 62
     3
  5
3A8
 10
971.228754
 20
568.338879
 30
0.0
 40
12.0
  1
（木製オーク材）
 41
0.837
  7
1
 72
     5
 11
1067.228754
 21
568.338879
 31
0.0
  0
LINE
  8
100
  6
CONTINUOUS
 62
     3
  5
3A9
 10
1060.239196
 20
566.728755
 30
0.0
 11
1114.837857
 21
621.327416
 31
0.0
  0
LINE
  8
100
  6
CONTINUOUS
 62
     3
  5
3AA
 10
975.887677
 20
566.728755
 30
0.0
 11
900.613299
 21
491.454378
 31
0.0
  0
LINE
  8
100
  6
CONTINUOUS
 62
     3
  5
3AB
 10
1060.239196
 20
566.728755
 30
0.0
 11
975.887677
 21
566.728755
 31
0.0
  0
ARC
  8
5
  6
CONTINUOUS
 62
     6
  5
3AC
 10
443.41815
 20
796.393254
 30
0.0
 40
45.000001
 50
30.737869
 51
149.262131
  0
ARC
  8
5
  6
CONTINUOUS
 62
     6
  5
3AD
 10
443.41815
 20
796.393254
 30
0.0
 40
45.000001
 50
188.949018
 51
250.528779
  0
ARC
  8
5
  6
CONTINUOUS
 62
     6
  5
3AE
 10
443.41815
 20
796.393254
 30
0.0
 40
45.000001
 50
289.471221
 51
351.050982
  0
TEXT
  8
100
  6
CENTER
 62
     3
  5
3AF
 10
707.373657
 20
830.378366
 30
0.0
 40
9.0
  1
ビス穴中心線
 50
90.0
 41
0.837
  7
1
 72
     5
 11
707.373657
 21
884.378366
 31
0.0
  0
ARC
  8
5
  6
CONTINUOUS
 62
     6
  5
3B0
 10
743.418154
 20
796.393254
 30
0.0
 40
45.000001
 50
30.737869
 51
149.262131
  0
ARC
  8
5
  6
CONTINUOUS
 62
     6
  5
3B1
 10
743.418154
 20
796.393254
 30
0.0
 40
45.000001
 50
188.949018
 51
250.528779
  0
ARC
  8
5
  6
CONTINUOUS
 62
     6
  5
3B2
 10
743.418154
 20
796.393254
 30
0.0
 40
45.000001
 50
289.471221
 51
351.050982
  0
ARC
  8
5
  6
CONTINUOUS
 62
     6
  5
3B3
 10
743.418154
 20
362.393247
 30
0.0
 40
45.000001
 50
210.737869
 51
329.262131
  0
ARC
  8
5
  6
CONTINUOUS
 62
     6
  5
3B4
 10
743.418154
 20
362.393247
 30
0.0
 40
45.000001
 50
109.471221
 51
171.050982
  0
ARC
  8
5
  6
CONTINUOUS
 62
     6
  5
3B5
 10
743.418154
 20
362.393247
 30
0.0
 40
45.000001
 50
8.949018
 51
70.528779
  0
ARC
  8
5
  6
CONTINUOUS
 62
     6
  5
3B6
 10
443.41815
 20
362.393247
 30
0.0
 40
45.000001
 50
108.68
 51
171.82
  0
ARC
  8
5
  6
CONTINUOUS
 62
     6
  5
3B7
 10
443.41815
 20
362.393247
 30
0.0
 40
45.000001
 50
8.18
 51
71.32
  0
ARC
  8
5
  6
CONTINUOUS
 62
     6
  5
3B8
 10
443.41815
 20
362.393247
 30
0.0
 40
45.000001
 50
209.87
 51
330.13
  0
POLYLINE
  8
50
  6
CONTINUOUS
 62
     5
  5
3B9
 66
     1
 10
0.0
 20
0.0
 30
0.0
 70
     1
  0
VERTEX
  8
50
  6
CONTINUOUS
 62
     5
  5
3BA
 10
1154.351816
 20
177.597334
 30
0.0
  0
VERTEX
  8
50
  6
CONTINUOUS
 62
     5
  5
3BB
 10
1388.64529
 20
177.597334
 30
0.0
  0
VERTEX
  8
50
  6
CONTINUOUS
 62
     5
  5
3BC
 10
1388.64529
 20
94.954133
 30
0.0
  0
VERTEX
  8
50
  6
CONTINUOUS
 62
     5
  5
3BD
 10
1154.351816
 20
94.954133
 30
0.0
  0
SEQEND
  8
50
  6
CONTINUOUS
 62
     5
  5
3BE
  0
TEXT
  8
100
  6
CENTER
 62
     3
  5
3BF
 10
1160.13684
 20
160.524181
 30
0.0
 40
12.0
  1
○製品仕様
 41
0.837
  7
1
 72
     5
 11
1220.13684
 21
160.524181
 31
0.0
  0
TEXT
  8
100
  6
CENTER
 62
     3
  5
3C0
 10
1160.13684
 20
136.524181
 30
0.0
 40
12.0
  1
　材質　本体：木製オーク材
 41
0.837
  7
1
 72
     5
 11
1316.13684
 21
136.524181
 31
0.0
  0
TEXT
  8
100
  6
CENTER
 62
     3
  5
3C1
 10
1160.13684
 20
124.524181
 30
0.0
 40
12.0
  1
　　　　ブラケット：ポリプロピレン製
 41
0.837
  7
1
 72
     5
 11
1376.13684
 21
124.524181
 31
0.0
  0
TEXT
  8
100
  6
CENTER
 62
     3
  5
3C2
 10
1160.13684
 20
112.524181
 30
0.0
 40
12.0
  1
　色　　オーク、ナチュラル
 41
0.837
  7
1
 72
     5
 11
1316.13684
 21
112.524181
 31
0.0
  0
TEXT
  8
100
  6
CENTER
 62
     3
  5
3C3
 10
1160.13684
 20
100.524181
 30
0.0
 40
12.0
  1
　重量　2.5Kg
 41
0.6045
  7
1
 72
     5
 11
1238.13684
 21
100.524181
 31
0.0
  0
LINE
  8
1
  6
CONTINUOUS
 62
     2
  5
3C4
 10
1291.418157
 20
841.393254
 30
0.0
 11
1191.418157
 21
841.393254
 31
0.0
  0
LINE
  8
1
  6
CONTINUOUS
 62
     2
  5
3C5
 10
1291.418157
 20
317.393247
 30
0.0
 11
1191.418157
 21
317.393247
 31
0.0
  0
LINE
  8
1
  6
CONTINUOUS
 62
     2
  5
3C6
 10
1241.418157
 20
407.393247
 30
0.0
 11
1191.418157
 21
407.393247
 31
0.0
  0
LINE
  8
1
  6
CONTINUOUS
 62
     2
  5
3C7
 10
1241.418157
 20
751.393254
 30
0.0
 11
1191.418157
 21
751.393254
 31
0.0
  0
CIRCLE
  8
1
  6
CONTINUOUS
 62
     2
  5
3C8
 10
1291.418157
 20
841.393254
 30
0.0
 40
1.0
  0
CIRCLE
  8
1
  6
CONTINUOUS
 62
     2
  5
3C9
 10
1291.418157
 20
317.393247
 30
0.0
 40
1.0
  0
CIRCLE
  8
1
  6
CONTINUOUS
 62
     2
  5
3CA
 10
1241.418157
 20
317.393247
 30
0.0
 40
1.0
  0
CIRCLE
  8
1
  6
CONTINUOUS
 62
     2
  5
3CB
 10
1241.418157
 20
407.393247
 30
0.0
 40
1.0
  0
CIRCLE
  8
1
  6
CONTINUOUS
 62
     2
  5
3CC
 10
1241.418157
 20
751.393254
 30
0.0
 40
1.0
  0
CIRCLE
  8
1
  6
CONTINUOUS
 62
     2
  5
3CD
 10
1241.418157
 20
841.393254
 30
0.0
 40
1.0
  0
TEXT
  8
1
  6
CONTINUOUS
 62
     2
  5
3CE
 10
1291.418157
 20
569.643251
 30
0.0
 40
13.0
  1
524
 50
90.0
 41
0.5
  7
1
 72
     5
 11
1291.418157
 21
589.143251
 31
0.0
  0
LINE
  8
1
  6
CONTINUOUS
 62
     2
  5
3CF
 10
1291.418157
 20
841.393254
 30
0.0
 11
1291.418157
 21
317.393247
 31
0.0
  0
TEXT
  8
1
  6
CONTINUOUS
 62
     2
  5
3D0
 10
1241.418157
 20
355.893247
 30
0.0
 40
13.0
  1
90
 50
90.0
 41
0.5
  7
1
 72
     5
 11
1241.418157
 21
368.893247
 31
0.0
  0
LINE
  8
1
  6
CONTINUOUS
 62
     2
  5
3D1
 10
1241.418157
 20
317.393247
 30
0.0
 11
1241.418157
 21
407.393247
 31
0.0
  0
TEXT
  8
1
  6
CONTINUOUS
 62
     2
  5
3D2
 10
1241.418157
 20
569.643251
 30
0.0
 40
13.0
  1
344
 50
90.0
 41
0.5
  7
1
 72
     5
 11
1241.418157
 21
589.143251
 31
0.0
  0
LINE
  8
1
  6
CONTINUOUS
 62
     2
  5
3D3
 10
1241.418157
 20
407.393247
 30
0.0
 11
1241.418157
 21
751.393254
 31
0.0
  0
TEXT
  8
1
  6
CONTINUOUS
 62
     2
  5
3D4
 10
1241.418157
 20
789.893254
 30
0.0
 40
13.0
  1
90
 50
90.0
 41
0.5
  7
1
 72
     5
 11
1241.418157
 21
802.893254
 31
0.0
  0
LINE
  8
1
  6
CONTINUOUS
 62
     2
  5
3D5
 10
1241.418157
 20
751.393254
 30
0.0
 11
1241.418157
 21
841.393254
 31
0.0
  0
LINE
  8
100
  6
CENTER
 62
     3
  5
3D6
 10
1191.418157
 20
831.393254
 30
0.0
 11
1167.709757
 21
831.393254
 31
0.0
  0
LINE
  8
100
  6
CENTER
 62
     3
  5
3D7
 10
1191.418157
 20
778.893254
 30
0.0
 11
1167.709757
 21
778.893254
 31
0.0
  0
LINE
  8
100
  6
CENTER
 62
     3
  5
3D8
 10
1098.418157
 20
796.393254
 30
0.0
 11
1191.418157
 21
796.393254
 31
0.0
  0
LINE
  8
100
  6
CENTER
 62
     3
  5
3D9
 10
1191.418157
 20
379.893248
 30
0.0
 11
1164.384542
 21
379.893248
 31
0.0
  0
LINE
  8
100
  6
CENTER
 62
     3
  5
3DA
 10
1167.709841
 20
327.392899
 30
0.0
 11
1191.418157
 21
327.392899
 31
0.0
  0
LINE
  8
100
  6
CENTER
 62
     3
  5
3DB
 10
1098.418157
 20
362.393247
 30
0.0
 11
1191.418157
 21
362.393247
 31
0.0
  0
LINE
  8
100
  6
CONTINUOUS
 62
     3
  5
3DC
 10
1180.217226
 20
836.51556
 30
0.0
 11
1220.217226
 21
876.51556
 31
0.0
  0
TEXT
  8
100
  6
CONTINUOUS
 62
     3
  5
3DD
 10
1232.258286
 20
879.5331
 30
0.0
 40
12.0
  1
ブラケット
 41
0.837
  7
1
 72
     5
 11
1292.258286
 21
879.5331
 31
0.0
  0
TEXT
  8
100
  6
CONTINUOUS
 62
     3
  5
3DE
 10
1232.258286
 20
867.5331
 30
0.0
 40
12.0
  1
（ポリプロピレン製）
 41
0.837
  7
1
 72
     5
 11
1352.258286
 21
867.5331
 31
0.0
  0
LINE
  8
100
  6
CONTINUOUS
 62
     3
  5
3DF
 10
1220.217226
 20
876.51556
 30
0.0
 11
1232.258286
 21
876.51556
 31
0.0
  0
LINE
  8
100
  6
CONTINUOUS
 62
     3
  5
3E0
 10
-34.35471
 20
1025.517763
 30
0.0
 11
1450.64529
 21
1025.517763
 31
0.0
  0
LINE
  8
100
  6
CONTINUOUS
 62
     3
  5
3E1
 10
-34.35471
 20
-24.482237
 30
0.0
 11
-34.35471
 21
1025.517763
 31
0.0
  0
LINE
  8
100
  6
CONTINUOUS
 62
     3
  5
3E2
 10
1450.64529
 20
1025.517763
 30
0.0
 11
1450.64529
 21
-24.482237
 31
0.0
  0
LINE
  8
100
  6
CONTINUOUS
 62
     3
  5
3E3
 10
1450.64529
 20
-24.482237
 30
0.0
 11
-34.35471
 21
-24.482237
 31
0.0
  0
LINE
  8
100
  6
CENTER
 62
     3
  5
3E4
 10
1244.360394
 20
22.75117
 30
0.0
 11
1245.441783
 21
23.021517
 31
0.0
  0
TEXT
  8
150
  6
CONTINUOUS
 62
    14
  5
3E5
 10
1178.690154
 20
20.85874
 30
0.0
 40
6.822895
  1
一級建築士　工学博士　松塚　展門
 41
0.837
  7
1
 72
     5
 11
1287.856474
 21
20.85874
 31
0.0
  0
TEXT
  8
150
  6
CONTINUOUS
 62
    14
  5
3E6
 10
1132.933984
 20
30.833564
 30
0.0
 40
10.0
  1
松屋産業株式会社・松屋総合研究所
 41
0.837
  7
1
 72
     5
 11
1292.933984
 21
30.833564
 31
0.0
  0
ENDSEC
  0
EOF
