  0
SECTION
  2
HEADER
  9
$ACADVER
  1
AC1009
  9
$INSBASE
 10
0.0
 20
0.0
 30
0.0
  9
$EXTMIN
 10
-1819.351012
 20
741.98734
 30
0.0
  9
$EXTMAX
 10
-334.351012
 20
1791.98734
 30
0.0
  9
$LIMMIN
 10
-1819.351012
 20
741.98734
  9
$LIMMAX
 10
-334.351012
 20
1791.98734
  9
$ORTHOMODE
 70
     0
  9
$REGENMODE
 70
     1
  9
$FILLMODE
 70
     1
  9
$QTEXTMODE
 70
     0
  9
$MIRRTEXT
 70
     1
  9
$DRAGMODE
 70
     2
  9
$LTSCALE
 40
5.0
  9
$OSMODE
 70
     0
  9
$ATTMODE
 70
     1
  9
$TEXTSIZE
 40
0.2
  9
$TRACEWID
 40
0.05
  9
$TEXTSTYLE
  7
STANDARD
  9
$CLAYER
  8
0
  9
$CELTYPE
  6
CONTINUOUS
  9
$CECOLOR
 62
   256
  9
$DIMSCALE
 40
1.0
  9
$DIMASZ
 40
0.18
  9
$DIMEXO
 40
0.0625
  9
$DIMDLI
 40
0.38
  9
$DIMRND
 40
0.0
  9
$DIMDLE
 40
0.0
  9
$DIMEXE
 40
0.18
  9
$DIMTP
 40
0.0
  9
$DIMTM
 40
0.0
  9
$DIMTXT
 40
0.18
  9
$DIMCEN
 40
0.09
  9
$DIMTSZ
 40
0.0
  9
$DIMTOL
 70
     0
  9
$DIMLIM
 70
     0
  9
$DIMTIH
 70
     1
  9
$DIMTOH
 70
     1
  9
$DIMSE1
 70
     0
  9
$DIMSE2
 70
     0
  9
$DIMTAD
 70
     0
  9
$DIMZIN
 70
     0
  9
$DIMBLK
  1

  9
$DIMASO
 70
     1
  9
$DIMSHO
 70
     1
  9
$DIMPOST
  1

  9
$DIMAPOST
  1

  9
$DIMALT
 70
     0
  9
$DIMALTD
 70
     2
  9
$DIMALTF
 40
25.4
  9
$DIMLFAC
 40
1.0
  9
$DIMTOFL
 70
     0
  9
$DIMTVP
 40
0.0
  9
$DIMTIX
 70
     0
  9
$DIMSOXD
 70
     0
  9
$DIMSAH
 70
     0
  9
$DIMBLK1
  1

  9
$DIMBLK2
  1

  9
$DIMSTYLE
  2
STANDARD
  9
$DIMCLRD
 70
     0
  9
$DIMCLRE
 70
     0
  9
$DIMCLRT
 70
     0
  9
$DIMTFAC
 40
1.0
  9
$DIMGAP
 40
0.09
  9
$LUNITS
 70
     2
  9
$LUPREC
 70
     4
  9
$AXISMODE
 70
     0
  9
$AXISUNIT
 10
0.0
 20
0.0
  9
$SKETCHINC
 40
0.1
  9
$FILLETRAD
 40
0.0
  9
$AUNITS
 70
     0
  9
$AUPREC
 70
     0
  9
$MENU
  1
acad
  9
$ELEVATION
 40
0.0
  9
$PELEVATION
 40
0.0
  9
$THICKNESS
 40
0.0
  9
$LIMCHECK
 70
     0
  9
$BLIPMODE
 70
     1
  9
$CHAMFERA
 40
0.0
  9
$CHAMFERB
 40
0.0
  9
$SKPOLY
 70
     0
  9
$TDCREATE
 40
0.000000000
  9
$TDUPDATE
 40
0.000000000
  9
$TDINDWG
 40
0.0000000000
  9
$TDUSRTIMER
 40
0.0000000000
  9
$USRTIMER
 70
     1
  9
$ANGBASE
 50
0.0
  9
$ANGDIR
 70
     0
  9
$PDMODE
 70
     0
  9
$PDSIZE
 40
0.0
  9
$PLINEWID
 40
0.0
  9
$COORDS
 70
     0
  9
$SPLFRAME
 70
     0
  9
$SPLINETYPE
 70
     6
  9
$SPLINESEGS
 70
     8
  9
$ATTDIA
 70
     0
  9
$ATTREQ
 70
     1
  9
$HANDLING
 70
     1
  9
$HANDSEED
  5
40E
  9
$SURFTAB1
 70
     6
  9
$SURFTAB2
 70
     6
  9
$SURFTYPE
 70
     6
  9
$SURFU
 70
     6
  9
$SURFV
 70
     6
  9
$UCSNAME
  2

  9
$UCSORG
 10
0.0
 20
0.0
 30
0.0
  9
$UCSXDIR
 10
1.0
 20
0.0
 30
0.0
  9
$UCSYDIR
 10
0.0
 20
1.0
 30
0.0
  9
$PUCSNAME
  2

  9
$PUCSORG
 10
0.0
 20
0.0
 30
0.0
  9
$PUCSXDIR
 10
1.0
 20
0.0
 30
0.0
  9
$PUCSYDIR
 10
0.0
 20
1.0
 30
0.0
  9
$USERI1
 70
     0
  9
$USERI2
 70
     0
  9
$USERI3
 70
     0
  9
$USERI4
 70
     0
  9
$USERI5
 70
     0
  9
$USERR1
 40
0.0
  9
$USERR2
 40
0.0
  9
$USERR3
 40
0.0
  9
$USERR4
 40
0.0
  9
$USERR5
 40
0.0
  9
$WORLDVIEW
 70
     1
  9
$SHADEDGE
 70
     3
  9
$SHADEDIF
 70
    70
  9
$TILEMODE
 70
     1
  9
$MAXACTVP
 70
    16
  9
$PINSBASE
 10
0.0
 20
0.0
 30
0.0
  9
$PLIMCHECK
 70
     0
  9
$PEXTMIN
 10
1.000000E+20
 20
1.000000E+20
 30
1.000000E+20
  9
$PEXTMAX
 10
-1.000000E+20
 20
-1.000000E+20
 30
-1.000000E+20
  9
$PLIMMIN
 10
0.0
 20
0.0
  9
$PLIMMAX
 10
12.0
 20
9.0
  9
$UNITMODE
 70
     0
  9
$VISRETAIN
 70
     0
  9
$PLINEGEN
 70
     1
  9
$PSLTSCALE
 70
     0
  9
$TREEDEPTH
 70
  3020
  9
$DWGCODEPAGE
  3
dos932
  0
ENDSEC
  0
SECTION
  2
TABLES
  0
TABLE
  2
VPORT
 70
     1
  0
VPORT
  2
*ACTIVE
 70
     0
 10
0.0
 20
0.0
 11
1.0
 21
1.0
 12
-1076.851012
 22
1266.98734
 13
0.0
 23
0.0
 14
1000.0
 24
1000.0
 15
1000.0
 25
1000.0
 16
0.0
 26
0.0
 36
1.0
 17
0.0
 27
0.0
 37
0.0
 40
1050.0
 41
1.414286
 42
50.0
 43
0.0
 44
0.0
 50
0.0
 51
0.0
 71
     0
 72
   100
 73
     1
 74
     1
 75
     0
 76
     0
 77
     0
 78
     0
  0
ENDTAB
  0
TABLE
  2
LTYPE
 70
     5
  0
LTYPE
  2
CONTINUOUS
 70
    64
  3
Solid line
 72
    65
 73
     0
 40
0.0
  0
LTYPE
  2
HIDDEN
 70
    64
  3
__ __ __ __ __ __ __ __ __ __ __ __ __ __ __ __
 72
    65
 73
     5
 40
8.0
 49
1.0
 49
-2.0
 49
2.0
 49
-2.0
 49
1.0
  0
LTYPE
  2
DOT
 70
    64
  3
. . . . . . . . . . . . . . . . . . . . . . . .
 72
    65
 73
     3
 40
1.6
 49
0.4
 49
-0.8
 49
0.4
  0
LTYPE
  2
CENTER
 70
    64
  3
____ _ ____ _ ____ _ ____ _ ____ _ ____ _ ____ 
 72
    65
 73
     5
 40
12.0
 49
5.0
 49
-0.8
 49
0.4
 49
-0.8
 49
5.0
  0
LTYPE
  2
DIVIDE
 70
    64
  3
____ . . ____ . . ____ . . ____ . . ____ . . __
 72
    65
 73
     7
 40
13.2
 49
5.0
 49
-0.8
 49
0.4
 49
-0.8
 49
0.4
 49
-0.8
 49
5.0
  0
ENDTAB
  0
TABLE
  2
LAYER
 70
     7
  0
LAYER
  2
0
 70
     0
 62
     7
  6
CONTINUOUS
  0
LAYER
  2
1
 70
     0
 62
     1
  6
CONTINUOUS
  0
LAYER
  2
5
 70
     0
 62
     1
  6
CONTINUOUS
  0
LAYER
  2
50
 70
     0
 62
     1
  6
CONTINUOUS
  0
LAYER
  2
100
 70
     0
 62
     1
  6
CONTINUOUS
  0
LAYER
  2
150
 70
     0
 62
     1
  6
CONTINUOUS
  0
LAYER
  2
200
 70
     0
 62
     1
  6
CONTINUOUS
  0
ENDTAB
  0
TABLE
  2
STYLE
 70
     4
  0
STYLE
  2
STANDARD
 70
     0
 40
0.0
 41
1.0
 50
0.0
 71
     0
 42
0.0
  3
txt
  4

  0
STYLE
  2
DRACAD
 70
     0
 40
1000.0
 41
1.0
 50
0.0
 71
     0
 42
1000.0
  3
txt
  4
extfont
  0
STYLE
  2
TATEDRACAD
 70
     4
 40
1000.0
 41
1.0
 50
0.0
 71
     0
 42
1000.0
  3
txt
  4
extfont
  0
STYLE
  2
1
 70
     0
 40
1000.0
 41
1.0
 50
0.0
 71
     0
 42
1000.0
  3
txt
  4
extfont
  0
ENDTAB
  0
TABLE
  2
VIEW
 70
     0
  0
ENDTAB
  0
TABLE
  2
UCS
 70
     0
  0
ENDTAB
  0
TABLE
  2
APPID
 70
     1
  0
APPID
  2
ACAD
 70
     0
  0
ENDTAB
  0
TABLE
  2
DIMSTYLE
 70
     1
  0
DIMSTYLE
  2
STANDARD
 70
     0
  3

  4

  5

  6

  7

 40
1.0
 41
0.18
 42
0.0625
 43
0.38
 44
0.18
 45
0.0
 46
0.0
 47
0.0
 48
0.0
 71
     0
 72
     0
 73
     1
 74
     1
 75
     0
 76
     0
 77
     0
 78
     0
140
0.18
141
0.09
142
0.0
143
25.4
144
1.0
145
0.0
146
1.0
147
0.09
170
     0
171
     2
172
     0
173
     0
174
     0
175
     0
176
     0
177
     0
178
     0
  0
ENDTAB
  0
ENDSEC
  0
SECTION
  2
BLOCKS
  0
BLOCK
  8
0
  5
104
  2
1
 70
     0
 10
0.0
 20
0.0
 30
0.0
  3
1
  0
ARC
  8
0
  6
CONTINUOUS
 62
     3
  5
105
 10
-299.221596
 20
97.268463
 30
0.0
 40
0.46757
 50
-68.884741
 51
75.169196
  0
ARC
  8
0
  6
CONTINUOUS
 62
     3
  5
106
 10
-304.329408
 20
77.978173
 30
0.0
 40
20.422645
 50
75.169196
 51
110.034469
  0
ARC
  8
0
  6
CONTINUOUS
 62
     3
  5
107
 10
-306.410318
 20
115.883707
 30
0.0
 40
20.422645
 50
-69.672445
 51
-68.884741
  0
ENDBLK
  8
0
  5
108
  0
ENDSEC
  0
SECTION
  2
ENTITIES
  0
TEXT
  8
100
  6
CENTER
 62
     3
  5
109
 10
-823.130345
 20
1701.519258
 30
0.0
 40
25.0
  1
テスリックス　プラスチック製４×３
 41
0.837
  7
1
 72
     5
 11
-398.130345
 21
1701.519258
 31
0.0
  0
LINE
  8
150
  6
CONTINUOUS
 62
    15
  5
10A
 10
-1602.226012
 20
841.423711
 30
0.0
 11
-1602.226012
 21
839.423711
 31
0.0
  0
LINE
  8
150
  6
CONTINUOUS
 62
    15
  5
10B
 10
-1155.014249
 20
839.423711
 30
0.0
 11
-1155.014249
 21
783.98734
 31
0.0
  0
LINE
  8
150
  6
CONTINUOUS
 62
    15
  5
10C
 10
-1157.371249
 20
839.423711
 30
0.0
 11
-1157.371249
 21
783.98734
 31
0.0
  0
LINE
  8
150
  6
CONTINUOUS
 62
    15
  5
10D
 10
-1065.696351
 20
812.008078
 30
0.0
 11
-1065.696351
 21
783.98734
 31
0.0
  0
LINE
  8
150
  6
CONTINUOUS
 62
    15
  5
10E
 10
-1063.339351
 20
812.008078
 30
0.0
 11
-1063.339351
 21
783.98734
 31
0.0
  0
LINE
  8
150
  6
CONTINUOUS
 62
    15
  5
10F
 10
-1065.696351
 20
812.008078
 30
0.0
 11
-1065.696351
 21
839.423711
 31
0.0
  0
LINE
  8
150
  6
CONTINUOUS
 62
    15
  5
110
 10
-1063.339351
 20
812.008078
 30
0.0
 11
-1063.339351
 21
839.423711
 31
0.0
  0
LINE
  8
150
  6
CONTINUOUS
 62
    15
  5
111
 10
-461.187857
 20
839.423711
 30
0.0
 11
-461.187857
 21
783.98734
 31
0.0
  0
LINE
  8
150
  6
CONTINUOUS
 62
    15
  5
112
 10
-463.544857
 20
839.423711
 30
0.0
 11
-463.544857
 21
783.98734
 31
0.0
  0
LINE
  8
150
  6
CONTINUOUS
 62
    15
  5
113
 10
-551.476012
 20
841.423711
 30
0.0
 11
-551.476012
 21
839.423711
 31
0.0
  0
LINE
  8
150
  6
CONTINUOUS
 62
    15
  5
114
 10
-726.601012
 20
841.423711
 30
0.0
 11
-726.601012
 21
839.423711
 31
0.0
  0
LINE
  8
150
  6
CONTINUOUS
 62
    15
  5
115
 10
-901.726012
 20
841.423711
 30
0.0
 11
-901.726012
 21
839.423711
 31
0.0
  0
LINE
  8
150
  6
CONTINUOUS
 62
    15
  5
116
 10
-1076.851012
 20
841.423711
 30
0.0
 11
-1076.851012
 21
839.423711
 31
0.0
  0
LINE
  8
150
  6
CONTINUOUS
 62
    15
  5
117
 10
-1251.976012
 20
841.423711
 30
0.0
 11
-1251.976012
 21
839.423711
 31
0.0
  0
LINE
  8
150
  6
CONTINUOUS
 62
    15
  5
118
 10
-447.293961
 20
798.362288
 30
0.0
 11
-447.293961
 21
814.560018
 31
0.0
  0
LINE
  8
150
  6
CONTINUOUS
 62
    15
  5
119
 10
-447.293961
 20
814.560018
 30
0.0
 11
-443.244529
 21
814.560018
 31
0.0
  0
LINE
  8
150
  6
CONTINUOUS
 62
    15
  5
11A
 10
-443.244529
 20
814.560018
 30
0.0
 11
-439.195096
 21
810.510586
 31
0.0
  0
LINE
  8
150
  6
CONTINUOUS
 62
    15
  5
11B
 10
-439.195096
 20
810.510586
 30
0.0
 11
-435.145664
 21
814.560018
 31
0.0
  0
LINE
  8
150
  6
CONTINUOUS
 62
    15
  5
11C
 10
-435.145664
 20
814.560018
 30
0.0
 11
-431.096232
 21
814.560018
 31
0.0
  0
LINE
  8
150
  6
CONTINUOUS
 62
    15
  5
11D
 10
-431.096232
 20
814.560018
 30
0.0
 11
-431.096232
 21
798.362288
 31
0.0
  0
LINE
  8
150
  6
CONTINUOUS
 62
    15
  5
11E
 10
-431.096232
 20
798.362288
 30
0.0
 11
-435.145664
 21
798.362288
 31
0.0
  0
LINE
  8
150
  6
CONTINUOUS
 62
    15
  5
11F
 10
-447.293961
 20
798.362288
 30
0.0
 11
-443.244529
 21
798.362288
 31
0.0
  0
LINE
  8
150
  6
CONTINUOUS
 62
    15
  5
120
 10
-443.244529
 20
798.362288
 30
0.0
 11
-443.244529
 21
808.833256
 31
0.0
  0
LINE
  8
150
  6
CONTINUOUS
 62
    15
  5
121
 10
-435.145664
 20
798.362288
 30
0.0
 11
-435.145664
 21
808.833256
 31
0.0
  0
LINE
  8
150
  6
CONTINUOUS
 62
    15
  5
122
 10
-439.195096
 20
804.783823
 30
0.0
 11
-435.145664
 21
808.833256
 31
0.0
  0
LINE
  8
150
  6
CONTINUOUS
 62
    15
  5
123
 10
-443.244529
 20
808.833256
 30
0.0
 11
-439.195096
 21
804.783823
 31
0.0
  0
LINE
  8
150
  6
CONTINUOUS
 62
    15
  5
124
 10
-427.046799
 20
810.510586
 30
0.0
 11
-422.997367
 21
814.560018
 31
0.0
  0
LINE
  8
150
  6
CONTINUOUS
 62
    15
  5
125
 10
-422.997367
 20
814.560018
 30
0.0
 11
-414.898502
 21
814.560018
 31
0.0
  0
LINE
  8
150
  6
CONTINUOUS
 62
    15
  5
126
 10
-414.898502
 20
814.560018
 30
0.0
 11
-410.849069
 21
810.510586
 31
0.0
  0
LINE
  8
150
  6
CONTINUOUS
 62
    15
  5
127
 10
-427.046799
 20
810.510586
 30
0.0
 11
-427.046799
 21
802.411721
 31
0.0
  0
LINE
  8
150
  6
CONTINUOUS
 62
    15
  5
128
 10
-427.046799
 20
802.411721
 30
0.0
 11
-422.997367
 21
798.362288
 31
0.0
  0
LINE
  8
150
  6
CONTINUOUS
 62
    15
  5
129
 10
-422.997367
 20
798.362288
 30
0.0
 11
-414.898502
 21
798.362288
 31
0.0
  0
LINE
  8
150
  6
CONTINUOUS
 62
    15
  5
12A
 10
-414.898502
 20
798.362288
 30
0.0
 11
-410.849069
 21
802.411721
 31
0.0
  0
LINE
  8
150
  6
CONTINUOUS
 62
    15
  5
12B
 10
-414.898502
 20
810.510586
 30
0.0
 11
-422.997367
 21
810.510586
 31
0.0
  0
LINE
  8
150
  6
CONTINUOUS
 62
    15
  5
12C
 10
-422.997367
 20
810.510586
 30
0.0
 11
-422.997367
 21
802.411721
 31
0.0
  0
LINE
  8
150
  6
CONTINUOUS
 62
    15
  5
12D
 10
-422.997367
 20
802.411721
 30
0.0
 11
-414.898502
 21
802.411721
 31
0.0
  0
LINE
  8
150
  6
CONTINUOUS
 62
    15
  5
12E
 10
-414.898502
 20
804.436437
 30
0.0
 11
-410.849069
 21
804.436437
 31
0.0
  0
LINE
  8
150
  6
CONTINUOUS
 62
    15
  5
12F
 10
-410.849069
 20
808.48587
 30
0.0
 11
-414.898502
 21
808.48587
 31
0.0
  0
LINE
  8
150
  6
CONTINUOUS
 62
    15
  5
130
 10
-414.898502
 20
808.48587
 30
0.0
 11
-414.898502
 21
810.510586
 31
0.0
  0
LINE
  8
150
  6
CONTINUOUS
 62
    15
  5
131
 10
-410.849069
 20
810.510586
 30
0.0
 11
-410.849069
 21
808.48587
 31
0.0
  0
LINE
  8
150
  6
CONTINUOUS
 62
    15
  5
132
 10
-410.849069
 20
804.436437
 30
0.0
 11
-410.849069
 21
802.411721
 31
0.0
  0
LINE
  8
150
  6
CONTINUOUS
 62
    15
  5
133
 10
-414.898502
 20
804.436437
 30
0.0
 11
-414.898502
 21
802.411721
 31
0.0
  0
LINE
  8
150
  6
CONTINUOUS
 62
    15
  5
134
 10
-406.799637
 20
810.510586
 30
0.0
 11
-406.799637
 21
802.411721
 31
0.0
  0
LINE
  8
150
  6
CONTINUOUS
 62
    15
  5
135
 10
-376.351012
 20
1556.78734
 30
0.0
 11
-374.351012
 21
1556.78734
 31
0.0
  0
LINE
  8
150
  6
CONTINUOUS
 62
    15
  5
136
 10
-376.351012
 20
1363.58734
 30
0.0
 11
-374.351012
 21
1363.58734
 31
0.0
  0
LINE
  8
150
  6
CONTINUOUS
 62
    15
  5
137
 10
-376.351012
 20
1170.38734
 30
0.0
 11
-374.351012
 21
1170.38734
 31
0.0
  0
LINE
  8
150
  6
CONTINUOUS
 62
    15
  5
138
 10
-376.351012
 20
977.18734
 30
0.0
 11
-374.351012
 21
977.18734
 31
0.0
  0
LINE
  8
150
  6
CONTINUOUS
 62
    15
  5
139
 10
-394.651339
 20
814.560018
 30
0.0
 11
-390.601907
 21
810.510586
 31
0.0
  0
LINE
  8
150
  6
CONTINUOUS
 62
    15
  5
13A
 10
-394.651339
 20
798.362288
 30
0.0
 11
-390.601907
 21
802.411721
 31
0.0
  0
LINE
  8
150
  6
CONTINUOUS
 62
    15
  5
13B
 10
-394.651339
 20
804.436437
 30
0.0
 11
-390.601907
 21
804.436437
 31
0.0
  0
LINE
  8
150
  6
CONTINUOUS
 62
    15
  5
13C
 10
-390.601907
 20
808.48587
 30
0.0
 11
-394.651339
 21
808.48587
 31
0.0
  0
LINE
  8
150
  6
CONTINUOUS
 62
    15
  5
13D
 10
-394.651339
 20
808.48587
 30
0.0
 11
-394.651339
 21
810.510586
 31
0.0
  0
LINE
  8
150
  6
CONTINUOUS
 62
    15
  5
13E
 10
-390.601907
 20
810.510586
 30
0.0
 11
-390.601907
 21
808.48587
 31
0.0
  0
LINE
  8
150
  6
CONTINUOUS
 62
    15
  5
13F
 10
-390.601907
 20
804.436437
 30
0.0
 11
-390.601907
 21
802.411721
 31
0.0
  0
LINE
  8
150
  6
CONTINUOUS
 62
    15
  5
140
 10
-394.651339
 20
804.436437
 30
0.0
 11
-394.651339
 21
802.411721
 31
0.0
  0
LINE
  8
150
  6
CONTINUOUS
 62
    15
  5
141
 10
-406.799637
 20
810.510586
 30
0.0
 11
-402.750204
 21
814.560018
 31
0.0
  0
LINE
  8
150
  6
CONTINUOUS
 62
    15
  5
142
 10
-406.799637
 20
802.411721
 30
0.0
 11
-402.750204
 21
798.362288
 31
0.0
  0
LINE
  8
150
  6
CONTINUOUS
 62
    15
  5
143
 10
-402.750204
 20
810.510586
 30
0.0
 11
-402.750204
 21
802.411721
 31
0.0
  0
LINE
  8
150
  6
CONTINUOUS
 62
    15
  5
144
 10
-402.750204
 20
814.560018
 30
0.0
 11
-394.651339
 21
814.560018
 31
0.0
  0
LINE
  8
150
  6
CONTINUOUS
 62
    15
  5
145
 10
-402.750204
 20
798.362288
 30
0.0
 11
-394.651339
 21
798.362288
 31
0.0
  0
LINE
  8
150
  6
CONTINUOUS
 62
    15
  5
146
 10
-394.651339
 20
810.510586
 30
0.0
 11
-402.750204
 21
810.510586
 31
0.0
  0
LINE
  8
150
  6
CONTINUOUS
 62
    15
  5
147
 10
-402.750204
 20
802.411721
 30
0.0
 11
-394.651339
 21
802.411721
 31
0.0
  0
LINE
  8
150
  6
CONTINUOUS
 62
    15
  5
148
 10
-1779.351012
 20
781.98734
 30
0.0
 11
-374.351012
 21
781.98734
 31
0.0
  0
LINE
  8
150
  6
CONTINUOUS
 62
    15
  5
149
 10
-1779.351012
 20
783.98734
 30
0.0
 11
-374.351012
 21
783.98734
 31
0.0
  0
TEXT
  8
150
  6
CONTINUOUS
 62
    15
  5
14A
 10
-1639.563845
 20
1753.84813
 30
0.0
 40
7.815316
  1
感謝にまさる能力なし
 41
0.837
  7
1
 72
     5
 11
-1561.410685
 21
1753.84813
 31
0.0
  0
LINE
  8
150
  6
CONTINUOUS
 62
    15
  5
14B
 10
-1602.226012
 20
1751.98734
 30
0.0
 11
-1602.226012
 21
1749.98734
 31
0.0
  0
LINE
  8
150
  6
CONTINUOUS
 62
    15
  5
14C
 10
-1427.101012
 20
1751.98734
 30
0.0
 11
-1427.101012
 21
1749.98734
 31
0.0
  0
LINE
  8
150
  6
CONTINUOUS
 62
    15
  5
14D
 10
-1251.976012
 20
1751.98734
 30
0.0
 11
-1251.976012
 21
1749.98734
 31
0.0
  0
LINE
  8
150
  6
CONTINUOUS
 62
    15
  5
14E
 10
-1076.851012
 20
1751.98734
 30
0.0
 11
-1076.851012
 21
1749.98734
 31
0.0
  0
LINE
  8
150
  6
CONTINUOUS
 62
    15
  5
14F
 10
-901.726012
 20
1751.98734
 30
0.0
 11
-901.726012
 21
1749.98734
 31
0.0
  0
LINE
  8
150
  6
CONTINUOUS
 62
    15
  5
150
 10
-726.601012
 20
1751.98734
 30
0.0
 11
-726.601012
 21
1749.98734
 31
0.0
  0
LINE
  8
150
  6
CONTINUOUS
 62
    15
  5
151
 10
-551.476012
 20
1751.98734
 30
0.0
 11
-551.476012
 21
1749.98734
 31
0.0
  0
LINE
  8
150
  6
CONTINUOUS
 62
    15
  5
152
 10
-374.351012
 20
1749.98734
 30
0.0
 11
-1779.351012
 21
1749.98734
 31
0.0
  0
LINE
  8
150
  6
CONTINUOUS
 62
    15
  5
153
 10
-374.351012
 20
1751.98734
 30
0.0
 11
-1779.351012
 21
1751.98734
 31
0.0
  0
LINE
  8
150
  6
CONTINUOUS
 62
    15
  5
154
 10
-374.351012
 20
1751.98734
 30
0.0
 11
-374.351012
 21
781.98734
 31
0.0
  0
LINE
  8
150
  6
CONTINUOUS
 62
    15
  5
155
 10
-376.351012
 20
1751.98734
 30
0.0
 11
-376.351012
 21
781.98734
 31
0.0
  0
LINE
  8
150
  6
CONTINUOUS
 62
    15
  5
156
 10
-1779.351012
 20
977.18734
 30
0.0
 11
-1777.351012
 21
977.18734
 31
0.0
  0
LINE
  8
150
  6
CONTINUOUS
 62
    15
  5
157
 10
-1779.351012
 20
1170.38734
 30
0.0
 11
-1777.351012
 21
1170.38734
 31
0.0
  0
LINE
  8
150
  6
CONTINUOUS
 62
    15
  5
158
 10
-1779.351012
 20
1363.58734
 30
0.0
 11
-1777.351012
 21
1363.58734
 31
0.0
  0
LINE
  8
150
  6
CONTINUOUS
 62
    15
  5
159
 10
-1779.351012
 20
1556.78734
 30
0.0
 11
-1777.351012
 21
1556.78734
 31
0.0
  0
LINE
  8
150
  6
CONTINUOUS
 62
    15
  5
15A
 10
-1779.351012
 20
781.98734
 30
0.0
 11
-1779.351012
 21
1751.98734
 31
0.0
  0
LINE
  8
150
  6
CONTINUOUS
 62
    15
  5
15B
 10
-1777.351012
 20
781.98734
 30
0.0
 11
-1777.351012
 21
1751.98734
 31
0.0
  0
TEXT
  8
150
  6
CONTINUOUS
 62
    15
  5
15C
 10
-1755.180902
 20
799.85092
 30
0.0
 40
10.792579
  1
街づくり
 41
0.837
  7
1
 72
     5
 11
-1712.010585
 21
799.85092
 31
0.0
  0
TEXT
  8
150
  6
CONTINUOUS
 62
    15
  5
15D
 10
-1749.66056
 20
814.489131
 30
0.0
 40
10.792579
  1
明るい
 41
0.837
  7
1
 72
     5
 11
-1717.282822
 21
814.489131
 31
0.0
  0
LINE
  8
150
  6
CONTINUOUS
 62
    14
  5
15E
 10
-1692.658373
 20
821.187973
 30
0.0
 11
-1157.371249
 21
821.187973
 31
0.0
  0
LINE
  8
150
  6
CONTINUOUS
 62
    14
  5
15F
 10
-1692.658373
 20
812.008078
 30
0.0
 11
-1157.371249
 21
812.008078
 31
0.0
  0
LINE
  8
150
  6
CONTINUOUS
 62
    14
  5
160
 10
-1692.658373
 20
802.828183
 30
0.0
 11
-1157.371249
 21
802.828183
 31
0.0
  0
LINE
  8
150
  6
CONTINUOUS
 62
    14
  5
161
 10
-1692.658373
 20
793.648288
 30
0.0
 11
-1157.371249
 21
793.648288
 31
0.0
  0
LINE
  8
150
  6
CONTINUOUS
 62
    14
  5
162
 10
-1692.658373
 20
783.98734
 30
0.0
 11
-1692.658373
 21
839.423711
 31
0.0
  0
LINE
  8
150
  6
CONTINUOUS
 62
    14
  5
163
 10
-1692.658373
 20
830.243816
 30
0.0
 11
-1157.371249
 21
830.243816
 31
0.0
  0
LINE
  8
150
  6
CONTINUOUS
 62
    14
  5
164
 10
-1125.117564
 20
839.423711
 30
0.0
 11
-1125.117564
 21
783.98734
 31
0.0
  0
TEXT
  8
150
  6
CONTINUOUS
 62
    14
  5
165
 10
-1151.478749
 20
821.187973
 30
0.0
 40
7.319106
  1
御承認
 41
0.837
  7
1
 72
     5
 11
-1129.521433
 21
821.187973
 31
0.0
  0
LINE
  8
150
  6
CONTINUOUS
 62
    14
  5
166
 10
-1095.220879
 20
839.423711
 30
0.0
 11
-1095.220879
 21
783.98734
 31
0.0
  0
LINE
  8
150
  6
CONTINUOUS
 62
    14
  5
167
 10
-1155.014249
 20
812.008078
 30
0.0
 11
-1065.696351
 21
812.008078
 31
0.0
  0
TEXT
  8
150
  6
CONTINUOUS
 62
    14
  5
168
 10
-1061.62583
 20
789.965163
 30
0.0
 40
7.319106
  1
備　考
 41
0.837
  7
1
 72
     5
 11
-1039.668513
 21
789.965163
 31
0.0
  0
TEXT
  8
150
  6
CONTINUOUS
 62
    14
  5
169
 10
-1061.16843
 20
808.472578
 30
0.0
 40
7.319106
  1
図　名
 41
0.837
  7
1
 72
     5
 11
-1039.211114
 21
808.472578
 31
0.0
  0
TEXT
  8
150
  6
CONTINUOUS
 62
    14
  5
16A
 10
-1061.16843
 20
826.956421
 30
0.0
 40
7.319106
  1
商品名
 41
0.837
  7
1
 72
     5
 11
-1039.211114
 21
826.956421
 31
0.0
  0
TEXT
  8
150
  6
CONTINUOUS
 62
    14
  5
16B
 10
-1029.820518
 20
805.810117
 30
0.0
 40
12.0
  1
承認図
 41
0.837
  7
1
 72
     5
 11
-993.820518
 21
805.810117
 31
0.0
  0
LINE
  8
150
  6
CONTINUOUS
 62
    14
  5
16C
 10
-1036.295877
 20
839.423711
 30
0.0
 11
-1036.295877
 21
783.98734
 31
0.0
  0
LINE
  8
150
  6
CONTINUOUS
 62
    14
  5
16D
 10
-813.249237
 20
827.390605
 30
0.0
 11
-796.129974
 21
827.390605
 31
0.0
  0
LINE
  8
150
  6
CONTINUOUS
 62
    14
  5
16E
 10
-791.415973
 20
827.390605
 30
0.0
 11
-774.29671
 21
827.390605
 31
0.0
  0
TEXT
  8
150
  6
CONTINUOUS
 62
    14
  5
16F
 10
-814.737869
 20
794.702736
 30
0.0
 40
7.319106
  1
用紙
 41
0.837
  7
1
 72
     5
 11
-800.099658
 21
794.702736
 31
0.0
  0
TEXT
  8
150
  6
CONTINUOUS
 62
    14
  5
170
 10
-811.760606
 20
828.072895
 30
0.0
 40
7.319106
  1
検図
 41
0.837
  7
1
 72
     5
 11
-797.122395
 21
828.072895
 31
0.0
  0
TEXT
  8
150
  6
CONTINUOUS
 62
    14
  5
171
 10
-790.2995
 20
828.445053
 30
0.0
 40
7.319106
  1
作図
 41
0.837
  7
1
 72
     5
 11
-775.661289
 21
828.445053
 31
0.0
  0
TEXT
  8
150
  6
CONTINUOUS
 62
    14
  5
172
 10
-788.190605
 20
789.306446
 30
0.0
 40
15.754685
  1
A4
 41
0.5
  7
1
 72
     5
 11
-772.43592
 21
789.306446
 31
0.0
  0
LINE
  8
150
  6
CONTINUOUS
 62
    14
  5
173
 10
-797.494553
 20
812.008078
 30
0.0
 11
-797.494553
 21
783.98734
 31
0.0
  0
LINE
  8
150
  6
CONTINUOUS
 62
    14
  5
174
 10
-817.467027
 20
839.423711
 30
0.0
 11
-817.467027
 21
783.98734
 31
0.0
  0
LINE
  8
150
  6
CONTINUOUS
 62
    14
  5
175
 10
-817.467027
 20
802.828183
 30
0.0
 11
-1063.339351
 21
802.828183
 31
0.0
  0
LINE
  8
150
  6
CONTINUOUS
 62
    14
  5
176
 10
-817.467027
 20
821.187973
 30
0.0
 11
-1063.339351
 21
821.187973
 31
0.0
  0
TEXT
  8
150
  6
CONTINUOUS
 62
    14
  5
177
 10
-1028.806821
 20
824.185223
 30
0.0
 40
12.0
  1
テスリックスプラスチック製４×３
 41
0.837
  7
1
 72
     5
 11
-836.806821
 21
824.185223
 31
0.0
  0
TEXT
  8
150
  6
CONTINUOUS
 62
    14
  5
178
 10
-1028.806821
 20
787.730289
 30
0.0
 40
12.0
  1
レッド、アイボリー、ブラウン
 41
0.837
  7
1
 72
     5
 11
-860.806821
 21
787.730289
 31
0.0
  0
LINE
  8
150
  6
CONTINUOUS
 62
    14
  5
179
 10
-604.592704
 20
825.777921
 30
0.0
 11
-519.864753
 21
825.777921
 31
0.0
  0
LINE
  8
150
  6
CONTINUOUS
 62
    14
  5
17A
 10
-519.864753
 20
839.423711
 30
0.0
 11
-519.864753
 21
812.008078
 31
0.0
  0
LINE
  8
150
  6
CONTINUOUS
 62
    14
  5
17B
 10
-507.335437
 20
839.423711
 30
0.0
 11
-507.335437
 21
812.008078
 31
0.0
  0
LINE
  8
150
  6
CONTINUOUS
 62
    14
  5
17C
 10
-640.816073
 20
839.423711
 30
0.0
 11
-640.816073
 21
812.008078
 31
0.0
  0
LINE
  8
150
  6
CONTINUOUS
 62
    14
  5
17D
 10
-604.592704
 20
839.423711
 30
0.0
 11
-604.592704
 21
812.008078
 31
0.0
  0
TEXT
  8
150
  6
CONTINUOUS
 62
    14
  5
17E
 10
-517.197622
 20
827.452631
 30
0.0
 40
7.319106
  1
図
 41
0.837
  7
1
 72
     5
 11
-509.878516
 21
827.452631
 31
0.0
  0
TEXT
  8
150
  6
CONTINUOUS
 62
    14
  5
17F
 10
-637.3426
 20
822.118368
 30
0.0
 40
7.319106
  1
管理番号
 41
0.837
  7
1
 72
     5
 11
-608.066178
 21
822.118368
 31
0.0
  0
TEXT
  8
150
  6
CONTINUOUS
 62
    14
  5
180
 10
-517.197622
 20
815.915736
 30
0.0
 40
7.319106
  1
番
 41
0.837
  7
1
 72
     5
 11
-509.878516
 21
815.915736
 31
0.0
  0
LINE
  8
150
  6
CONTINUOUS
 62
    14
  5
181
 10
-817.467027
 20
812.008078
 30
0.0
 11
-463.544857
 21
812.008078
 31
0.0
  0
LINE
  8
150
  6
CONTINUOUS
 62
    14
  5
182
 10
-740.802498
 20
839.423711
 30
0.0
 11
-740.802498
 21
812.008078
 31
0.0
  0
TEXT
  8
150
  6
CONTINUOUS
 62
    14
  5
183
 10
-680.016706
 20
828.258974
 30
0.0
 40
7.319106
  1
月
 41
0.837
  7
1
 72
     5
 11
-672.697601
 21
828.258974
 31
0.0
  0
TEXT
  8
150
  6
CONTINUOUS
 62
    14
  5
184
 10
-657.811285
 20
828.258974
 30
0.0
 40
7.319106
  1
日
 41
0.837
  7
1
 72
     5
 11
-650.492179
 21
828.258974
 31
0.0
  0
TEXT
  8
150
  6
CONTINUOUS
 62
    14
  5
185
 10
-731.870708
 20
828.383026
 30
0.0
 40
7.319106
  1
作図
 41
0.837
  7
1
 72
     5
 11
-717.232497
 21
828.383026
 31
0.0
  0
TEXT
  8
150
  6
CONTINUOUS
 62
    14
  5
186
 10
-702.222128
 20
828.258974
 30
0.0
 40
7.319106
  1
年
 41
0.837
  7
1
 72
     5
 11
-694.903023
 21
828.258974
 31
0.0
  0
TEXT
  8
150
  6
CONTINUOUS
 62
    14
  5
187
 10
-750.106446
 20
794.702736
 30
0.0
 40
7.319106
  1
縮尺
 41
0.837
  7
1
 72
     5
 11
-735.468235
 21
794.702736
 31
0.0
  0
TEXT
  8
150
  6
CONTINUOUS
 62
    14
  5
188
 10
-725.668076
 20
788.686183
 30
0.0
 40
15.754685
  1
1:5
 41
0.5
  7
1
 72
     5
 11
-702.036049
 21
788.686183
 31
0.0
  0
TEXT
  8
150
  6
CONTINUOUS
 62
    14
  5
189
 10
-680.016706
 20
815.109394
 30
0.0
 40
7.319106
  1
月
 41
0.837
  7
1
 72
     5
 11
-672.697601
 21
815.109394
 31
0.0
  0
TEXT
  8
150
  6
CONTINUOUS
 62
    14
  5
18A
 10
-657.811285
 20
814.985342
 30
0.0
 40
7.319106
  1
日
 41
0.837
  7
1
 72
     5
 11
-650.492179
 21
814.985342
 31
0.0
  0
TEXT
  8
150
  6
CONTINUOUS
 62
    14
  5
18B
 10
-702.222128
 20
815.109394
 30
0.0
 40
7.319106
  1
年
 41
0.837
  7
1
 72
     5
 11
-694.903023
 21
815.109394
 31
0.0
  0
TEXT
  8
150
  6
CONTINUOUS
 62
    14
  5
18C
 10
-732.242866
 20
814.985342
 30
0.0
 40
7.319106
  1
訂正
 41
0.837
  7
1
 72
     5
 11
-717.604655
 21
814.985342
 31
0.0
  0
LINE
  8
150
  6
CONTINUOUS
 62
    14
  5
18D
 10
-688.080128
 20
812.008078
 30
0.0
 11
-688.080128
 21
783.98734
 31
0.0
  0
LINE
  8
150
  6
CONTINUOUS
 62
    14
  5
18E
 10
-732.739077
 20
812.008078
 30
0.0
 11
-732.739077
 21
783.98734
 31
0.0
  0
LINE
  8
150
  6
CONTINUOUS
 62
    14
  5
18F
 10
-752.711551
 20
812.008078
 30
0.0
 11
-752.711551
 21
783.98734
 31
0.0
  0
ARC
  8
100
  6
CENTER
 62
     3
  5
190
 10
-1454.978154
 20
1155.861745
 30
0.0
 40
35.000001
 50
180.0
 51
270.68
  0
ARC
  8
100
  6
CENTER
 62
     3
  5
191
 10
-1454.978154
 20
1155.861745
 30
0.0
 40
35.000001
 50
182.14
 51
270.0
  0
LINE
  8
50
  6
CONTINUOUS
 62
     2
  5
192
 10
-1070.278148
 20
1672.861752
 30
0.0
 11
-1070.278148
 21
1622.861752
 31
0.0
  0
CIRCLE
  8
50
  6
CONTINUOUS
 62
     2
  5
193
 10
-1070.278148
 20
1672.861752
 30
0.0
 40
1.0
  0
LINE
  8
50
  6
CONTINUOUS
 62
     2
  5
194
 10
-1309.678152
 20
1672.861752
 30
0.0
 11
-1309.678152
 21
1622.861752
 31
0.0
  0
LINE
  8
50
  6
CONTINUOUS
 62
     2
  5
195
 10
-1339.978152
 20
1672.861752
 30
0.0
 11
-1339.978152
 21
1622.861752
 31
0.0
  0
LINE
  8
50
  6
CONTINUOUS
 62
     2
  5
196
 10
-1370.278153
 20
1672.861752
 30
0.0
 11
-1370.278153
 21
1622.861752
 31
0.0
  0
CIRCLE
  8
50
  6
CONTINUOUS
 62
     2
  5
197
 10
-1370.278153
 20
1672.861752
 30
0.0
 40
1.0
  0
CIRCLE
  8
50
  6
CONTINUOUS
 62
     2
  5
198
 10
-1339.978152
 20
1672.861752
 30
0.0
 40
1.0
  0
CIRCLE
  8
50
  6
CONTINUOUS
 62
     2
  5
199
 10
-1309.678152
 20
1672.861752
 30
0.0
 40
1.0
  0
LINE
  8
50
  6
CONTINUOUS
 62
     2
  5
19A
 10
-1370.278153
 20
1672.861752
 30
0.0
 11
-1339.978152
 21
1672.861752
 31
0.0
  0
LINE
  8
50
  6
CONTINUOUS
 62
     2
  5
19B
 10
-1339.978152
 20
1672.861752
 30
0.0
 11
-1309.678152
 21
1672.861752
 31
0.0
  0
TEXT
  8
50
  6
CONTINUOUS
 62
     2
  5
19C
 10
-1073.128148
 20
1672.861752
 30
0.0
 40
13.0
  1
30.3
 41
0.5
  7
1
 72
     5
 11
-1047.128148
 21
1672.861752
 31
0.0
  0
TEXT
  8
50
  6
CONTINUOUS
 62
     2
  5
19D
 10
-1332.828152
 20
1672.861752
 30
0.0
 40
13.0
  1
30.3
 41
0.5
  7
1
 72
     5
 11
-1306.828152
 21
1672.861752
 31
0.0
  0
TEXT
  8
50
  6
CONTINUOUS
 62
     2
  5
19E
 10
-1373.128152
 20
1672.861752
 30
0.0
 40
13.0
  1
30.3
 41
0.5
  7
1
 72
     5
 11
-1347.128152
 21
1672.861752
 31
0.0
  0
LINE
  8
100
  6
CENTER
 62
     3
  5
19F
 10
-1070.278148
 20
1580.361751
 30
0.0
 11
-1070.278148
 21
1617.861752
 31
0.0
  0
LINE
  8
100
  6
CENTER
 62
     3
  5
1A0
 10
-1009.678147
 20
1580.361751
 30
0.0
 11
-1009.678147
 21
1617.861752
 31
0.0
  0
LINE
  8
100
  6
CENTER
 62
     3
  5
1A1
 10
-1004.978148
 20
1597.861752
 30
0.0
 11
-865.578145
 21
1597.861752
 31
0.0
  0
LINE
  8
100
  6
CENTER
 62
     3
  5
1A2
 10
-924.978146
 20
1120.861745
 30
0.0
 11
-1454.978154
 21
1120.861745
 31
0.0
  0
LINE
  8
100
  6
CENTER
 62
     3
  5
1A3
 10
-1454.562775
 20
1120.864209
 30
0.0
 11
-1514.378155
 21
1120.864209
 31
0.0
  0
LINE
  8
100
  6
CENTER
 62
     3
  5
1A4
 10
-924.978146
 20
1120.861745
 30
0.0
 11
-865.578145
 21
1120.861745
 31
0.0
  0
LINE
  8
100
  6
CENTER
 62
     3
  5
1A5
 10
-924.978146
 20
1570.861751
 30
0.0
 11
-865.578145
 21
1570.861751
 31
0.0
  0
LINE
  8
100
  6
CENTER
 62
     3
  5
1A6
 10
-1454.978154
 20
1570.861751
 30
0.0
 11
-924.978146
 21
1570.861751
 31
0.0
  0
LINE
  8
100
  6
CENTER
 62
     3
  5
1A7
 10
-1054.978148
 20
1597.861752
 30
0.0
 11
-1024.978148
 21
1597.861752
 31
0.0
  0
LINE
  8
100
  6
CENTER
 62
     3
  5
1A8
 10
-1039.978148
 20
1612.861752
 30
0.0
 11
-1039.978148
 21
1582.861752
 31
0.0
  0
LINE
  8
100
  6
CENTER
 62
     3
  5
1A9
 10
-1054.978148
 20
1562.861751
 30
0.0
 11
-1024.978148
 21
1562.861751
 31
0.0
  0
LINE
  8
100
  6
CENTER
 62
     3
  5
1AA
 10
-1039.978148
 20
1577.861751
 30
0.0
 11
-1039.978148
 21
1547.861751
 31
0.0
  0
LINE
  8
100
  6
CENTER
 62
     3
  5
1AB
 10
-1024.678147
 20
1545.361751
 30
0.0
 11
-994.678147
 21
1545.361751
 31
0.0
  0
LINE
  8
100
  6
CENTER
 62
     3
  5
1AC
 10
-1009.678147
 20
1560.361751
 30
0.0
 11
-1009.678147
 21
1530.361751
 31
0.0
  0
LINE
  8
100
  6
CENTER
 62
     3
  5
1AD
 10
-1085.278148
 20
1545.361751
 30
0.0
 11
-1055.278148
 21
1545.361751
 31
0.0
  0
LINE
  8
100
  6
CENTER
 62
     3
  5
1AE
 10
-1070.278148
 20
1560.361751
 30
0.0
 11
-1070.278148
 21
1530.361751
 31
0.0
  0
LINE
  8
100
  6
CENTER
 62
     3
  5
1AF
 10
-1324.678152
 20
1545.361751
 30
0.0
 11
-1294.678152
 21
1545.361751
 31
0.0
  0
LINE
  8
100
  6
CENTER
 62
     3
  5
1B0
 10
-1309.678152
 20
1560.361751
 30
0.0
 11
-1309.678152
 21
1530.361751
 31
0.0
  0
LINE
  8
100
  6
CENTER
 62
     3
  5
1B1
 10
-1385.278153
 20
1545.361751
 30
0.0
 11
-1355.278153
 21
1545.361751
 31
0.0
  0
LINE
  8
100
  6
CENTER
 62
     3
  5
1B2
 10
-1370.278153
 20
1560.361751
 30
0.0
 11
-1370.278153
 21
1530.361751
 31
0.0
  0
LINE
  8
100
  6
CENTER
 62
     3
  5
1B3
 10
-1354.978152
 20
1562.861751
 30
0.0
 11
-1324.978152
 21
1562.861751
 31
0.0
  0
LINE
  8
100
  6
CENTER
 62
     3
  5
1B4
 10
-1339.978152
 20
1577.861751
 30
0.0
 11
-1339.978152
 21
1547.861751
 31
0.0
  0
LINE
  8
100
  6
CENTER
 62
     3
  5
1B5
 10
-1354.978152
 20
1597.861752
 30
0.0
 11
-1324.978152
 21
1597.861752
 31
0.0
  0
LINE
  8
100
  6
CENTER
 62
     3
  5
1B6
 10
-1339.978152
 20
1612.861752
 30
0.0
 11
-1339.978152
 21
1582.861752
 31
0.0
  0
LINE
  8
100
  6
CENTER
 62
     3
  5
1B7
 10
-1385.278153
 20
1146.361745
 30
0.0
 11
-1355.278153
 21
1146.361745
 31
0.0
  0
LINE
  8
100
  6
CENTER
 62
     3
  5
1B8
 10
-1370.278153
 20
1161.361745
 30
0.0
 11
-1370.278153
 21
1131.361745
 31
0.0
  0
LINE
  8
100
  6
CENTER
 62
     3
  5
1B9
 10
-1354.978152
 20
1128.861745
 30
0.0
 11
-1324.978152
 21
1128.861745
 31
0.0
  0
LINE
  8
100
  6
CENTER
 62
     3
  5
1BA
 10
-1339.978152
 20
1143.861745
 30
0.0
 11
-1339.978152
 21
1113.861745
 31
0.0
  0
LINE
  8
100
  6
CENTER
 62
     3
  5
1BB
 10
-1324.678152
 20
1146.361745
 30
0.0
 11
-1294.678152
 21
1146.361745
 31
0.0
  0
LINE
  8
100
  6
CENTER
 62
     3
  5
1BC
 10
-1309.678152
 20
1161.361745
 30
0.0
 11
-1309.678152
 21
1131.361745
 31
0.0
  0
LINE
  8
100
  6
CENTER
 62
     3
  5
1BD
 10
-1354.978152
 20
1093.861744
 30
0.0
 11
-1324.978152
 21
1093.861744
 31
0.0
  0
LINE
  8
100
  6
CENTER
 62
     3
  5
1BE
 10
-1339.978152
 20
1108.861744
 30
0.0
 11
-1339.978152
 21
1078.861744
 31
0.0
  0
LINE
  8
100
  6
CENTER
 62
     3
  5
1BF
 10
-1054.978148
 20
1093.861744
 30
0.0
 11
-1024.978148
 21
1093.861744
 31
0.0
  0
LINE
  8
100
  6
CENTER
 62
     3
  5
1C0
 10
-1039.978148
 20
1108.861744
 30
0.0
 11
-1039.978148
 21
1078.861744
 31
0.0
  0
LINE
  8
100
  6
CENTER
 62
     3
  5
1C1
 10
-1054.978148
 20
1128.861745
 30
0.0
 11
-1024.978148
 21
1128.861745
 31
0.0
  0
LINE
  8
100
  6
CENTER
 62
     3
  5
1C2
 10
-1039.978148
 20
1143.861745
 30
0.0
 11
-1039.978148
 21
1113.861745
 31
0.0
  0
LINE
  8
100
  6
CENTER
 62
     3
  5
1C3
 10
-1024.678147
 20
1146.361745
 30
0.0
 11
-994.678147
 21
1146.361745
 31
0.0
  0
LINE
  8
100
  6
CENTER
 62
     3
  5
1C4
 10
-1009.678147
 20
1161.361745
 30
0.0
 11
-1009.678147
 21
1131.361745
 31
0.0
  0
LINE
  8
100
  6
CENTER
 62
     3
  5
1C5
 10
-1085.278148
 20
1146.361745
 30
0.0
 11
-1055.278148
 21
1146.361745
 31
0.0
  0
LINE
  8
100
  6
CENTER
 62
     3
  5
1C6
 10
-1070.278148
 20
1161.361745
 30
0.0
 11
-1070.278148
 21
1131.361745
 31
0.0
  0
LINE
  8
100
  6
CENTER
 62
     3
  5
1C7
 10
-865.578145
 20
1545.361751
 30
0.0
 11
-989.678147
 21
1545.361751
 31
0.0
  0
LINE
  8
100
  6
CENTER
 62
     3
  5
1C8
 10
-989.678147
 20
1146.361745
 30
0.0
 11
-865.578145
 21
1146.361745
 31
0.0
  0
LINE
  8
100
  6
CENTER
 62
     3
  5
1C9
 10
-1019.978148
 20
1093.861744
 30
0.0
 11
-865.578145
 21
1093.861396
 31
0.0
  0
LINE
  8
100
  6
CENTER
 62
     3
  5
1CA
 10
-1370.278153
 20
1565.361751
 30
0.0
 11
-1370.278153
 21
1617.861752
 31
0.0
  0
LINE
  8
100
  6
CENTER
 62
     3
  5
1CB
 10
-1309.678152
 20
1565.361751
 30
0.0
 11
-1309.678152
 21
1617.861752
 31
0.0
  0
LINE
  8
100
  6
CENTER
 62
     3
  5
1CC
 10
-889.978145
 20
1595.261751
 30
0.0
 11
-889.978145
 21
1078.861744
 31
0.0
  0
LINE
  8
100
  6
CENTER
 62
     3
  5
1CD
 10
-1489.978154
 20
1595.261751
 30
0.0
 11
-1489.978154
 21
1078.801623
 31
0.0
  0
LINE
  8
50
  6
CONTINUOUS
 62
     2
  5
1CE
 10
-1039.978148
 20
1672.861752
 30
0.0
 11
-1039.978148
 21
1622.861752
 31
0.0
  0
LINE
  8
50
  6
CONTINUOUS
 62
     2
  5
1CF
 10
-1009.678147
 20
1672.861752
 30
0.0
 11
-1009.678147
 21
1622.861752
 31
0.0
  0
CIRCLE
  8
50
  6
CONTINUOUS
 62
     2
  5
1D0
 10
-1039.978148
 20
1672.861752
 30
0.0
 40
1.0
  0
CIRCLE
  8
50
  6
CONTINUOUS
 62
     2
  5
1D1
 10
-1009.678147
 20
1672.861752
 30
0.0
 40
1.0
  0
LINE
  8
50
  6
CONTINUOUS
 62
     2
  5
1D2
 10
-1070.278148
 20
1672.861752
 30
0.0
 11
-1039.978148
 21
1672.861752
 31
0.0
  0
LINE
  8
50
  6
CONTINUOUS
 62
     2
  5
1D3
 10
-1039.978148
 20
1672.861752
 30
0.0
 11
-1009.678147
 21
1672.861752
 31
0.0
  0
TEXT
  8
50
  6
CONTINUOUS
 62
     2
  5
1D4
 10
-1032.828147
 20
1672.861752
 30
0.0
 40
13.0
  1
30.3
 41
0.5
  7
1
 72
     5
 11
-1006.828147
 21
1672.861752
 31
0.0
  0
TEXT
  8
50
  6
CONTINUOUS
 62
     2
  5
1D5
 10
-797.578145
 20
1535.111751
 30
0.0
 40
13.0
  1
17.5
 50
90.0
 41
0.5
  7
1
 72
     5
 11
-797.578145
 21
1561.111751
 31
0.0
  0
LINE
  8
50
  6
CONTINUOUS
 62
     2
  5
1D6
 10
-810.578145
 20
1545.361751
 30
0.0
 11
-810.578145
 21
1562.861751
 31
0.0
  0
LINE
  8
50
  6
CONTINUOUS
 62
     2
  5
1D7
 10
-810.578145
 20
1597.861752
 30
0.0
 11
-860.578145
 21
1597.861752
 31
0.0
  0
LINE
  8
50
  6
CONTINUOUS
 62
     2
  5
1D8
 10
-810.578145
 20
1545.361751
 30
0.0
 11
-860.578145
 21
1545.361751
 31
0.0
  0
LINE
  8
50
  6
CONTINUOUS
 62
     2
  5
1D9
 10
-810.578145
 20
1562.861751
 30
0.0
 11
-860.578145
 21
1562.861751
 31
0.0
  0
CIRCLE
  8
50
  6
CONTINUOUS
 62
     2
  5
1DA
 10
-810.578145
 20
1545.361751
 30
0.0
 40
1.0
  0
CIRCLE
  8
50
  6
CONTINUOUS
 62
     2
  5
1DB
 10
-810.578145
 20
1562.861751
 30
0.0
 40
1.0
  0
CIRCLE
  8
50
  6
CONTINUOUS
 62
     2
  5
1DC
 10
-810.578145
 20
1597.861752
 30
0.0
 40
1.0
  0
LINE
  8
50
  6
CONTINUOUS
 62
     2
  5
1DD
 10
-810.578145
 20
1562.861751
 30
0.0
 11
-810.578145
 21
1597.861752
 31
0.0
  0
LINE
  8
50
  6
CONTINUOUS
 62
     2
  5
1DE
 10
-840.578145
 20
1570.861751
 30
0.0
 11
-860.578145
 21
1570.861751
 31
0.0
  0
LINE
  8
50
  6
CONTINUOUS
 62
     2
  5
1DF
 10
-840.578145
 20
1562.861751
 30
0.0
 11
-860.578145
 21
1562.861751
 31
0.0
  0
CIRCLE
  8
50
  6
CONTINUOUS
 62
     2
  5
1E0
 10
-840.578145
 20
1562.861751
 30
0.0
 40
1.0
  0
CIRCLE
  8
50
  6
CONTINUOUS
 62
     2
  5
1E1
 10
-840.578145
 20
1570.861751
 30
0.0
 40
1.0
  0
LINE
  8
50
  6
CONTINUOUS
 62
     2
  5
1E2
 10
-840.578145
 20
1562.861751
 30
0.0
 11
-840.578145
 21
1570.861751
 31
0.0
  0
TEXT
  8
50
  6
CONTINUOUS
 62
     2
  5
1E3
 10
-840.578145
 20
1563.611751
 30
0.0
 40
13.0
  1
8
 50
90.0
 41
0.5
  7
1
 72
     5
 11
-840.578145
 21
1570.111751
 31
0.0
  0
TEXT
  8
50
  6
CONTINUOUS
 62
     2
  5
1E4
 10
-810.578145
 20
1573.861751
 30
0.0
 40
13.0
  1
35
 50
90.0
 41
0.5
  7
1
 72
     5
 11
-810.578145
 21
1586.861751
 31
0.0
  0
LINE
  8
50
  6
CONTINUOUS
 62
     2
  5
1E5
 10
-840.578145
 20
1128.861745
 30
0.0
 11
-860.578145
 21
1128.861745
 31
0.0
  0
LINE
  8
50
  6
CONTINUOUS
 62
     2
  5
1E6
 10
-840.578145
 20
1120.861745
 30
0.0
 11
-860.578145
 21
1120.861745
 31
0.0
  0
CIRCLE
  8
50
  6
CONTINUOUS
 62
     2
  5
1E7
 10
-840.578145
 20
1120.861745
 30
0.0
 40
1.0
  0
CIRCLE
  8
50
  6
CONTINUOUS
 62
     2
  5
1E8
 10
-840.578145
 20
1128.861745
 30
0.0
 40
1.0
  0
LINE
  8
50
  6
CONTINUOUS
 62
     2
  5
1E9
 10
-840.578145
 20
1120.861745
 30
0.0
 11
-840.578145
 21
1128.861745
 31
0.0
  0
LINE
  8
50
  6
CONTINUOUS
 62
     2
  5
1EA
 10
-810.578145
 20
1146.361745
 30
0.0
 11
-860.578145
 21
1146.361745
 31
0.0
  0
LINE
  8
50
  6
CONTINUOUS
 62
     2
  5
1EB
 10
-810.578145
 20
1128.861745
 30
0.0
 11
-860.578145
 21
1128.861745
 31
0.0
  0
CIRCLE
  8
50
  6
CONTINUOUS
 62
     2
  5
1EC
 10
-810.578145
 20
1128.861745
 30
0.0
 40
1.0
  0
CIRCLE
  8
50
  6
CONTINUOUS
 62
     2
  5
1ED
 10
-810.578145
 20
1146.361745
 30
0.0
 40
1.0
  0
LINE
  8
50
  6
CONTINUOUS
 62
     2
  5
1EE
 10
-810.578145
 20
1128.861745
 30
0.0
 11
-810.578145
 21
1146.361745
 31
0.0
  0
LINE
  8
50
  6
CONTINUOUS
 62
     2
  5
1EF
 10
-810.578145
 20
1093.861385
 30
0.0
 11
-860.578145
 21
1093.861385
 31
0.0
  0
CIRCLE
  8
50
  6
CONTINUOUS
 62
     2
  5
1F0
 10
-810.578145
 20
1093.861385
 30
0.0
 40
1.0
  0
LINE
  8
50
  6
CONTINUOUS
 62
     2
  5
1F1
 10
-810.578145
 20
1093.861385
 30
0.0
 11
-810.578145
 21
1128.861745
 31
0.0
  0
TEXT
  8
50
  6
CONTINUOUS
 62
     2
  5
1F2
 10
-840.578145
 20
1121.611745
 30
0.0
 40
13.0
  1
8
 50
90.0
 41
0.5
  7
1
 72
     5
 11
-840.578145
 21
1128.111745
 31
0.0
  0
TEXT
  8
50
  6
CONTINUOUS
 62
     2
  5
1F3
 10
-810.578145
 20
1104.861565
 30
0.0
 40
13.0
  1
35
 50
90.0
 41
0.5
  7
1
 72
     5
 11
-810.578145
 21
1117.861565
 31
0.0
  0
TEXT
  8
50
  6
CONTINUOUS
 62
     2
  5
1F4
 10
-797.578145
 20
1130.611745
 30
0.0
 40
13.0
  1
17.5
 50
90.0
 41
0.5
  7
1
 72
     5
 11
-797.578145
 21
1156.611745
 31
0.0
  0
LINE
  8
50
  6
CONTINUOUS
 62
     2
  5
1F5
 10
-889.978145
 20
968.861744
 30
0.0
 11
-889.978145
 21
1068.861744
 31
0.0
  0
LINE
  8
50
  6
CONTINUOUS
 62
     2
  5
1F6
 10
-875.578145
 20
1018.861744
 30
0.0
 11
-875.578145
 21
1068.861744
 31
0.0
  0
CIRCLE
  8
50
  6
CONTINUOUS
 62
     2
  5
1F7
 10
-889.978145
 20
968.861744
 30
0.0
 40
1.0
  0
CIRCLE
  8
50
  6
CONTINUOUS
 62
     2
  5
1F8
 10
-889.978145
 20
1018.861744
 30
0.0
 40
1.0
  0
CIRCLE
  8
50
  6
CONTINUOUS
 62
     2
  5
1F9
 10
-875.578145
 20
1018.861744
 30
0.0
 40
1.0
  0
LINE
  8
50
  6
CONTINUOUS
 62
     2
  5
1FA
 10
-1489.978154
 20
968.861744
 30
0.0
 11
-889.978145
 21
968.861744
 31
0.0
  0
TEXT
  8
50
  6
CONTINUOUS
 62
     2
  5
1FB
 10
-974.728147
 20
1018.861744
 30
0.0
 40
13.0
  1
150
 41
0.5
  7
1
 72
     5
 11
-955.228147
 21
1018.861744
 31
0.0
  0
LINE
  8
50
  6
CONTINUOUS
 62
     2
  5
1FC
 10
-1039.978148
 20
1018.861744
 30
0.0
 11
-889.978145
 21
1018.861744
 31
0.0
  0
TEXT
  8
50
  6
CONTINUOUS
 62
     2
  5
1FD
 10
-875.578145
 20
1005.861744
 30
0.0
 40
13.0
  1
14.4
 41
0.5
  7
1
 72
     5
 11
-849.578145
 21
1005.861744
 31
0.0
  0
LINE
  8
50
  6
CONTINUOUS
 62
     2
  5
1FE
 10
-889.978145
 20
1018.861744
 30
0.0
 11
-875.578145
 21
1018.861744
 31
0.0
  0
LINE
  8
50
  6
CONTINUOUS
 62
     2
  5
1FF
 10
-1189.97815
 20
1018.861744
 30
0.0
 11
-1189.97815
 21
1068.861744
 31
0.0
  0
LINE
  8
50
  6
CONTINUOUS
 62
     2
  5
200
 10
-1039.978148
 20
1018.861744
 30
0.0
 11
-1039.978148
 21
1068.861744
 31
0.0
  0
CIRCLE
  8
50
  6
CONTINUOUS
 62
     2
  5
201
 10
-1189.97815
 20
1018.861744
 30
0.0
 40
1.0
  0
CIRCLE
  8
50
  6
CONTINUOUS
 62
     2
  5
202
 10
-1039.978148
 20
1018.861744
 30
0.0
 40
1.0
  0
TEXT
  8
50
  6
CONTINUOUS
 62
     2
  5
203
 10
-1274.728151
 20
1018.861744
 30
0.0
 40
13.0
  1
150
 41
0.5
  7
1
 72
     5
 11
-1255.228151
 21
1018.861744
 31
0.0
  0
LINE
  8
50
  6
CONTINUOUS
 62
     2
  5
204
 10
-1339.978152
 20
1018.861744
 30
0.0
 11
-1189.97815
 21
1018.861744
 31
0.0
  0
TEXT
  8
50
  6
CONTINUOUS
 62
     2
  5
205
 10
-1124.728149
 20
1018.861744
 30
0.0
 40
13.0
  1
150
 41
0.5
  7
1
 72
     5
 11
-1105.228149
 21
1018.861744
 31
0.0
  0
LINE
  8
50
  6
CONTINUOUS
 62
     2
  5
206
 10
-1189.97815
 20
1018.861744
 30
0.0
 11
-1039.978148
 21
1018.861744
 31
0.0
  0
TEXT
  8
50
  6
CONTINUOUS
 62
     2
  5
207
 10
-1208.72815
 20
968.861744
 30
0.0
 40
25.0
  1
600
 41
0.5
  7
1
 72
     5
 11
-1171.22815
 21
968.861744
 31
0.0
  0
LINE
  8
50
  6
CONTINUOUS
 62
     2
  5
208
 10
-1489.978154
 20
968.861744
 30
0.0
 11
-1489.978154
 21
1068.861744
 31
0.0
  0
LINE
  8
50
  6
CONTINUOUS
 62
     2
  5
209
 10
-1504.378155
 20
1018.861744
 30
0.0
 11
-1504.378155
 21
1068.861744
 31
0.0
  0
LINE
  8
50
  6
CONTINUOUS
 62
     2
  5
20A
 10
-1339.978152
 20
1018.861744
 30
0.0
 11
-1339.978152
 21
1068.861744
 31
0.0
  0
CIRCLE
  8
50
  6
CONTINUOUS
 62
     2
  5
20B
 10
-1489.978154
 20
968.861744
 30
0.0
 40
1.0
  0
CIRCLE
  8
50
  6
CONTINUOUS
 62
     2
  5
20C
 10
-1504.378155
 20
1018.861744
 30
0.0
 40
1.0
  0
CIRCLE
  8
50
  6
CONTINUOUS
 62
     2
  5
20D
 10
-1489.978154
 20
1018.861744
 30
0.0
 40
1.0
  0
CIRCLE
  8
50
  6
CONTINUOUS
 62
     2
  5
20E
 10
-1339.978152
 20
1018.861744
 30
0.0
 40
1.0
  0
TEXT
  8
50
  6
CONTINUOUS
 62
     2
  5
20F
 10
-1530.378155
 20
1005.861744
 30
0.0
 40
13.0
  1
14.4
 41
0.5
  7
1
 72
     5
 11
-1504.378155
 21
1005.861744
 31
0.0
  0
LINE
  8
50
  6
CONTINUOUS
 62
     2
  5
210
 10
-1504.378155
 20
1018.861744
 30
0.0
 11
-1489.978154
 21
1018.861744
 31
0.0
  0
TEXT
  8
50
  6
CONTINUOUS
 62
     2
  5
211
 10
-1424.728153
 20
1018.861744
 30
0.0
 40
13.0
  1
150
 41
0.5
  7
1
 72
     5
 11
-1405.228153
 21
1018.861744
 31
0.0
  0
LINE
  8
50
  6
CONTINUOUS
 62
     2
  5
212
 10
-1489.978154
 20
1018.861744
 30
0.0
 11
-1339.978152
 21
1018.861744
 31
0.0
  0
LINE
  8
50
  6
CONTINUOUS
 62
     2
  5
213
 10
-1619.378155
 20
1120.864209
 30
0.0
 11
-1519.378155
 21
1120.864209
 31
0.0
  0
LINE
  8
50
  6
CONTINUOUS
 62
     2
  5
214
 10
-1569.378155
 20
1106.461744
 30
0.0
 11
-1519.378155
 21
1106.461744
 31
0.0
  0
CIRCLE
  8
50
  6
CONTINUOUS
 62
     2
  5
215
 10
-1619.378155
 20
1120.864209
 30
0.0
 40
1.0
  0
CIRCLE
  8
50
  6
CONTINUOUS
 62
     2
  5
216
 10
-1569.378155
 20
1106.461744
 30
0.0
 40
1.0
  0
CIRCLE
  8
50
  6
CONTINUOUS
 62
     2
  5
217
 10
-1569.378155
 20
1120.864209
 30
0.0
 40
1.0
  0
LINE
  8
50
  6
CONTINUOUS
 62
     2
  5
218
 10
-1619.378155
 20
1570.861751
 30
0.0
 11
-1619.378155
 21
1120.864209
 31
0.0
  0
LINE
  8
50
  6
CONTINUOUS
 62
     2
  5
219
 10
-1569.378155
 20
1106.461744
 30
0.0
 11
-1569.378155
 21
1120.864209
 31
0.0
  0
LINE
  8
50
  6
CONTINUOUS
 62
     2
  5
21A
 10
-1569.378155
 20
1120.864209
 30
0.0
 11
-1569.378155
 21
1270.861747
 31
0.0
  0
TEXT
  8
50
  6
CONTINUOUS
 62
     2
  5
21B
 10
-1569.378155
 20
1186.112978
 30
0.0
 40
13.0
  1
150
 50
90.0
 41
0.5
  7
1
 72
     5
 11
-1569.378155
 21
1205.612978
 31
0.0
  0
LINE
  8
50
  6
CONTINUOUS
 62
     2
  5
21C
 10
-1569.378155
 20
1270.861747
 30
0.0
 11
-1519.378155
 21
1270.861747
 31
0.0
  0
LINE
  8
50
  6
CONTINUOUS
 62
     2
  5
21D
 10
-1569.378155
 20
1420.861749
 30
0.0
 11
-1519.378155
 21
1420.861749
 31
0.0
  0
CIRCLE
  8
50
  6
CONTINUOUS
 62
     2
  5
21E
 10
-1569.378155
 20
1270.861747
 30
0.0
 40
1.0
  0
CIRCLE
  8
50
  6
CONTINUOUS
 62
     2
  5
21F
 10
-1569.378155
 20
1420.861749
 30
0.0
 40
1.0
  0
TEXT
  8
50
  6
CONTINUOUS
 62
     2
  5
220
 10
-1569.378155
 20
1336.111748
 30
0.0
 40
13.0
  1
150
 50
90.0
 41
0.5
  7
1
 72
     5
 11
-1569.378155
 21
1355.611748
 31
0.0
  0
LINE
  8
50
  6
CONTINUOUS
 62
     2
  5
221
 10
-1569.378155
 20
1270.861747
 30
0.0
 11
-1569.378155
 21
1420.861749
 31
0.0
  0
LINE
  8
50
  6
CONTINUOUS
 62
     2
  5
222
 10
-1569.378155
 20
1420.861749
 30
0.0
 11
-1569.378155
 21
1570.861751
 31
0.0
  0
TEXT
  8
50
  6
CONTINUOUS
 62
     2
  5
223
 10
-1619.378155
 20
1327.11298
 30
0.0
 40
25.0
  1
450
 50
90.0
 41
0.5
  7
1
 72
     5
 11
-1619.378155
 21
1364.61298
 31
0.0
  0
TEXT
  8
50
  6
CONTINUOUS
 62
     2
  5
224
 10
-1569.378155
 20
1486.11175
 30
0.0
 40
13.0
  1
150
 50
90.0
 41
0.5
  7
1
 72
     5
 11
-1569.378155
 21
1505.61175
 31
0.0
  0
LINE
  8
50
  6
CONTINUOUS
 62
     2
  5
225
 10
-1619.378155
 20
1570.861751
 30
0.0
 11
-1519.378155
 21
1570.861751
 31
0.0
  0
LINE
  8
50
  6
CONTINUOUS
 62
     2
  5
226
 10
-1569.378155
 20
1585.261751
 30
0.0
 11
-1519.378155
 21
1585.261751
 31
0.0
  0
CIRCLE
  8
50
  6
CONTINUOUS
 62
     2
  5
227
 10
-1619.378155
 20
1570.861751
 30
0.0
 40
1.0
  0
CIRCLE
  8
50
  6
CONTINUOUS
 62
     2
  5
228
 10
-1569.378155
 20
1570.861751
 30
0.0
 40
1.0
  0
CIRCLE
  8
50
  6
CONTINUOUS
 62
     2
  5
229
 10
-1569.378155
 20
1585.261751
 30
0.0
 40
1.0
  0
LINE
  8
50
  6
CONTINUOUS
 62
     2
  5
22A
 10
-1569.378155
 20
1570.861751
 30
0.0
 11
-1569.378155
 21
1585.261751
 31
0.0
  0
LINE
  8
50
  6
CONTINUOUS
 62
     2
  5
22B
 10
-1454.978154
 20
1155.861745
 30
0.0
 11
-1476.997512
 21
1128.656086
 31
0.0
  0
TEXT
  8
50
  6
CONTINUOUS
 62
     2
  5
22C
 10
-1453.574185
 20
1156.87141
 30
0.0
 40
13.0
  1
r35
 41
0.5
  7
1
 72
     5
 11
-1434.074185
 21
1156.87141
 31
0.0
  0
LINE
  8
50
  6
CONTINUOUS
 62
     2
  5
22D
 10
-1483.637317
 20
1197.984243
 30
0.0
 11
-1460.182502
 21
1219.619454
 31
0.0
  0
LINE
  8
50
  6
CONTINUOUS
 62
     2
  5
22E
 10
-1460.182502
 20
1219.619454
 30
0.0
 11
-1430.131022
 21
1219.619454
 31
0.0
  0
TEXT
  8
50
  6
CONTINUOUS
 62
     2
  5
22F
 10
-1458.716576
 20
1220.093204
 30
0.0
 40
13.0
  1
28.8
 41
0.5
  7
1
 72
     5
 11
-1432.716576
 21
1220.093204
 31
0.0
  0
LINE
  8
50
  6
CONTINUOUS
 62
     2
  5
230
 10
-1504.378155
 20
1196.981569
 30
0.0
 11
-1475.578154
 21
1196.981569
 31
0.0
  0
CIRCLE
  8
50
  6
CONTINUOUS
 62
     2
  5
231
 10
-1504.378155
 20
1196.981569
 30
0.0
 40
1.0
  0
CIRCLE
  8
50
  6
CONTINUOUS
 62
     2
  5
232
 10
-1475.578154
 20
1196.981569
 30
0.0
 40
1.0
  0
LINE
  8
50
  6
CONTINUOUS
 62
     2
  5
233
 10
-1476.997512
 20
1128.656086
 30
0.0
 11
-1477.055587
 21
1134.391344
 31
0.0
  0
LINE
  8
100
  6
CENTER
 62
     3
  5
234
 10
-1454.978154
 20
1570.861751
 30
0.0
 11
-1514.378155
 21
1570.861751
 31
0.0
  0
ARC
  8
5
  6
CONTINUOUS
 62
     3
  5
235
 10
-1339.978152
 20
1597.861752
 30
0.0
 40
7.7
 50
180.0
 51
360.0
  0
ARC
  8
5
  6
CONTINUOUS
 62
     3
  5
236
 10
-1339.978152
 20
1597.861752
 30
0.0
 40
6.8
 50
180.0
 51
360.0
  0
LINE
  8
5
  6
CONTINUOUS
 62
     3
  5
237
 10
-1347.578152
 20
1604.861752
 30
0.0
 11
-1347.578152
 21
1597.861752
 31
0.0
  0
LINE
  8
5
  6
CONTINUOUS
 62
     3
  5
238
 10
-1346.678152
 20
1597.861752
 30
0.0
 11
-1346.678152
 21
1604.161752
 31
0.0
  0
ARC
  8
5
  6
CONTINUOUS
 62
     3
  5
239
 10
-1339.978152
 20
1562.861751
 30
0.0
 40
41.800001
 50
80.63
 51
99.02
  0
LINE
  8
5
  6
CONTINUOUS
 62
     3
  5
23A
 10
-1333.178152
 20
1597.861752
 30
0.0
 11
-1333.178152
 21
1604.061752
 31
0.0
  0
LINE
  8
5
  6
CONTINUOUS
 62
     3
  5
23B
 10
-1332.278152
 20
1604.861752
 30
0.0
 11
-1332.278152
 21
1597.861752
 31
0.0
  0
ARC
  8
5
  6
DIVIDE
 62
     2
  5
23C
 10
-1339.978152
 20
1562.861751
 30
0.0
 40
42.700001
 50
31.61
 51
148.39
  0
CIRCLE
  8
5
  6
CONTINUOUS
 62
     3
  5
23D
 10
-1339.978152
 20
1597.861752
 30
0.0
 40
4.0
  0
CIRCLE
  8
5
  6
CONTINUOUS
 62
     3
  5
23E
 10
-1339.978152
 20
1597.861752
 30
0.0
 40
4.4
  0
CIRCLE
  8
5
  6
DOT
 62
     2
  5
23F
 10
-1339.978152
 20
1562.861751
 30
0.0
 40
45.0
  0
ARC
  8
5
  6
CONTINUOUS
 62
     3
  5
240
 10
-1309.678152
 20
1545.361751
 30
0.0
 40
7.7
 50
60.0
 51
240.0
  0
ARC
  8
5
  6
CONTINUOUS
 62
     3
  5
241
 10
-1309.678152
 20
1545.361751
 30
0.0
 40
6.8
 50
60.0
 51
240.0
  0
ARC
  8
5
  6
CONTINUOUS
 62
     3
  5
242
 10
-1339.978152
 20
1562.861751
 30
0.0
 40
41.800001
 50
320.63
 51
339.02
  0
LINE
  8
5
  6
CONTINUOUS
 62
     3
  5
243
 10
-1313.078152
 20
1539.461751
 30
0.0
 11
-1307.678152
 21
1536.361751
 31
0.0
  0
LINE
  8
5
  6
CONTINUOUS
 62
     3
  5
244
 10
-1307.478152
 20
1535.161751
 30
0.0
 11
-1313.478152
 21
1538.661751
 31
0.0
  0
ARC
  8
5
  6
DIVIDE
 62
     2
  5
245
 10
-1339.978152
 20
1562.861751
 30
0.0
 40
42.700001
 50
289.71
 51
351.38
  0
CIRCLE
  8
5
  6
CONTINUOUS
 62
     3
  5
246
 10
-1309.678152
 20
1545.361751
 30
0.0
 40
4.0
  0
CIRCLE
  8
5
  6
CONTINUOUS
 62
     3
  5
247
 10
-1309.678152
 20
1545.361751
 30
0.0
 40
4.4
  0
LINE
  8
5
  6
CONTINUOUS
 62
     3
  5
248
 10
-1299.778151
 20
1548.461751
 30
0.0
 11
-1305.878152
 21
1551.961751
 31
0.0
  0
LINE
  8
5
  6
CONTINUOUS
 62
     3
  5
249
 10
-1306.278152
 20
1551.161751
 30
0.0
 11
-1300.878152
 21
1548.061751
 31
0.0
  0
ARC
  8
5
  6
CONTINUOUS
 62
     3
  5
24A
 10
-1370.278153
 20
1545.361751
 30
0.0
 40
7.7
 50
300.0
 51
120.0
  0
ARC
  8
5
  6
CONTINUOUS
 62
     3
  5
24B
 10
-1370.278153
 20
1545.361751
 30
0.0
 40
6.8
 50
300.0
 51
120.0
  0
LINE
  8
5
  6
CONTINUOUS
 62
     3
  5
24C
 10
-1372.578153
 20
1535.261751
 30
0.0
 11
-1366.478152
 21
1538.761751
 31
0.0
  0
LINE
  8
5
  6
CONTINUOUS
 62
     3
  5
24D
 10
-1366.978152
 20
1539.561751
 30
0.0
 11
-1372.378153
 21
1536.361751
 31
0.0
  0
ARC
  8
5
  6
CONTINUOUS
 62
     3
  5
24E
 10
-1339.978152
 20
1562.861751
 30
0.0
 40
41.800001
 50
200.63
 51
219.02
  0
ARC
  8
5
  6
DIVIDE
 62
     2
  5
24F
 10
-1339.978152
 20
1562.861751
 30
0.0
 40
42.700001
 50
188.62
 51
250.29
  0
CIRCLE
  8
5
  6
CONTINUOUS
 62
     3
  5
250
 10
-1370.278153
 20
1545.361751
 30
0.0
 40
4.0
  0
CIRCLE
  8
5
  6
CONTINUOUS
 62
     3
  5
251
 10
-1370.278153
 20
1545.361751
 30
0.0
 40
4.4
  0
LINE
  8
5
  6
CONTINUOUS
 62
     3
  5
252
 10
-1373.678153
 20
1551.261751
 30
0.0
 11
-1379.078153
 21
1548.161751
 31
0.0
  0
LINE
  8
5
  6
CONTINUOUS
 62
     3
  5
253
 10
-1380.178153
 20
1548.561751
 30
0.0
 11
-1374.178153
 21
1552.061751
 31
0.0
  0
LINE
  8
5
  6
CONTINUOUS
 62
     3
  5
254
 10
-1047.578148
 20
1604.861752
 30
0.0
 11
-1047.578148
 21
1597.861752
 31
0.0
  0
LINE
  8
5
  6
CONTINUOUS
 62
     3
  5
255
 10
-1046.678148
 20
1597.861752
 30
0.0
 11
-1046.678148
 21
1604.161752
 31
0.0
  0
ARC
  8
5
  6
CONTINUOUS
 62
     3
  5
256
 10
-1039.978148
 20
1562.861751
 30
0.0
 40
41.800001
 50
80.63
 51
99.02
  0
LINE
  8
5
  6
CONTINUOUS
 62
     3
  5
257
 10
-1033.178148
 20
1597.861752
 30
0.0
 11
-1033.178148
 21
1604.061752
 31
0.0
  0
LINE
  8
5
  6
CONTINUOUS
 62
     3
  5
258
 10
-1032.278148
 20
1604.861752
 30
0.0
 11
-1032.278148
 21
1597.861752
 31
0.0
  0
ARC
  8
5
  6
DIVIDE
 62
     2
  5
259
 10
-1039.978148
 20
1562.861751
 30
0.0
 40
42.700001
 50
31.61
 51
148.39
  0
CIRCLE
  8
5
  6
CONTINUOUS
 62
     3
  5
25A
 10
-1039.978148
 20
1597.861752
 30
0.0
 40
4.4
  0
CIRCLE
  8
5
  6
CONTINUOUS
 62
     3
  5
25B
 10
-1039.978148
 20
1597.861752
 30
0.0
 40
4.0
  0
CIRCLE
  8
5
  6
DOT
 62
     2
  5
25C
 10
-1039.978148
 20
1562.861751
 30
0.0
 40
45.0
  0
ARC
  8
5
  6
CONTINUOUS
 62
     3
  5
25D
 10
-1039.978148
 20
1597.861752
 30
0.0
 40
7.7
 50
180.0
 51
360.0
  0
ARC
  8
5
  6
CONTINUOUS
 62
     3
  5
25E
 10
-1039.978148
 20
1597.861752
 30
0.0
 40
6.8
 50
180.0
 51
360.0
  0
LINE
  8
5
  6
CONTINUOUS
 62
     3
  5
25F
 10
-999.778147
 20
1548.461751
 30
0.0
 11
-1005.878147
 21
1551.961751
 31
0.0
  0
LINE
  8
5
  6
CONTINUOUS
 62
     3
  5
260
 10
-1006.278147
 20
1551.161751
 30
0.0
 11
-1000.878147
 21
1548.061751
 31
0.0
  0
ARC
  8
5
  6
CONTINUOUS
 62
     3
  5
261
 10
-1039.978148
 20
1562.861751
 30
0.0
 40
41.800001
 50
320.63
 51
339.02
  0
LINE
  8
5
  6
CONTINUOUS
 62
     3
  5
262
 10
-1013.078147
 20
1539.461751
 30
0.0
 11
-1007.678147
 21
1536.361751
 31
0.0
  0
LINE
  8
5
  6
CONTINUOUS
 62
     3
  5
263
 10
-1007.478147
 20
1535.161751
 30
0.0
 11
-1013.478147
 21
1538.661751
 31
0.0
  0
ARC
  8
5
  6
DIVIDE
 62
     2
  5
264
 10
-1039.978148
 20
1562.861751
 30
0.0
 40
42.700001
 50
289.71
 51
351.38
  0
CIRCLE
  8
5
  6
CONTINUOUS
 62
     3
  5
265
 10
-1009.678147
 20
1545.361751
 30
0.0
 40
4.0
  0
CIRCLE
  8
5
  6
CONTINUOUS
 62
     3
  5
266
 10
-1009.678147
 20
1545.361751
 30
0.0
 40
4.4
  0
ARC
  8
5
  6
CONTINUOUS
 62
     3
  5
267
 10
-1009.678147
 20
1545.361751
 30
0.0
 40
7.7
 50
60.0
 51
240.0
  0
ARC
  8
5
  6
CONTINUOUS
 62
     3
  5
268
 10
-1009.678147
 20
1545.361751
 30
0.0
 40
6.8
 50
60.0
 51
240.0
  0
ARC
  8
5
  6
CONTINUOUS
 62
     3
  5
269
 10
-1070.278148
 20
1545.361751
 30
0.0
 40
7.7
 50
300.0
 51
120.0
  0
ARC
  8
5
  6
CONTINUOUS
 62
     3
  5
26A
 10
-1070.278148
 20
1545.361751
 30
0.0
 40
6.8
 50
300.0
 51
120.0
  0
LINE
  8
5
  6
CONTINUOUS
 62
     3
  5
26B
 10
-1072.578148
 20
1535.261751
 30
0.0
 11
-1066.478148
 21
1538.761751
 31
0.0
  0
LINE
  8
5
  6
CONTINUOUS
 62
     3
  5
26C
 10
-1066.978148
 20
1539.561751
 30
0.0
 11
-1072.378148
 21
1536.361751
 31
0.0
  0
ARC
  8
5
  6
CONTINUOUS
 62
     3
  5
26D
 10
-1039.978148
 20
1562.861751
 30
0.0
 40
41.800001
 50
200.63
 51
219.02
  0
LINE
  8
5
  6
CONTINUOUS
 62
     3
  5
26E
 10
-1073.678148
 20
1551.261751
 30
0.0
 11
-1079.078148
 21
1548.161751
 31
0.0
  0
LINE
  8
5
  6
CONTINUOUS
 62
     3
  5
26F
 10
-1080.178148
 20
1548.561751
 30
0.0
 11
-1074.178148
 21
1552.061751
 31
0.0
  0
ARC
  8
5
  6
DIVIDE
 62
     2
  5
270
 10
-1039.978148
 20
1562.861751
 30
0.0
 40
42.700001
 50
188.62
 51
250.29
  0
CIRCLE
  8
5
  6
CONTINUOUS
 62
     3
  5
271
 10
-1070.278148
 20
1545.361751
 30
0.0
 40
4.0
  0
CIRCLE
  8
5
  6
CONTINUOUS
 62
     3
  5
272
 10
-1070.278148
 20
1545.361751
 30
0.0
 40
4.4
  0
ARC
  8
5
  6
DIVIDE
 62
     2
  5
273
 10
-1339.978152
 20
1128.861745
 30
0.0
 40
42.700001
 50
8.62
 51
70.29
  0
LINE
  8
5
  6
CONTINUOUS
 62
     3
  5
274
 10
-1307.378152
 20
1156.461745
 30
0.0
 11
-1313.478152
 21
1152.961745
 31
0.0
  0
LINE
  8
5
  6
CONTINUOUS
 62
     3
  5
275
 10
-1312.978152
 20
1152.161745
 30
0.0
 11
-1307.578152
 21
1155.361745
 31
0.0
  0
ARC
  8
5
  6
CONTINUOUS
 62
     3
  5
276
 10
-1339.978152
 20
1128.861745
 30
0.0
 40
41.800001
 50
20.63
 51
39.02
  0
LINE
  8
5
  6
CONTINUOUS
 62
     3
  5
277
 10
-1306.278152
 20
1140.461745
 30
0.0
 11
-1300.878152
 21
1143.561745
 31
0.0
  0
LINE
  8
5
  6
CONTINUOUS
 62
     3
  5
278
 10
-1299.778151
 20
1143.161745
 30
0.0
 11
-1305.778152
 21
1139.661745
 31
0.0
  0
CIRCLE
  8
5
  6
CONTINUOUS
 62
     3
  5
279
 10
-1309.678152
 20
1146.361745
 30
0.0
 40
4.0
  0
CIRCLE
  8
5
  6
CONTINUOUS
 62
     3
  5
27A
 10
-1309.678152
 20
1146.361745
 30
0.0
 40
4.4
  0
CIRCLE
  8
5
  6
DOT
 62
     2
  5
27B
 10
-1339.978152
 20
1128.861745
 30
0.0
 40
45.0
  0
ARC
  8
5
  6
DIVIDE
 62
     2
  5
27C
 10
-1339.978152
 20
1128.861745
 30
0.0
 40
42.700001
 50
211.61
 51
328.39
  0
ARC
  8
5
  6
CONTINUOUS
 62
     3
  5
27D
 10
-1339.978152
 20
1093.861744
 30
0.0
 40
7.7
 50
360.0
 51
180.0
  0
ARC
  8
5
  6
CONTINUOUS
 62
     3
  5
27E
 10
-1339.978152
 20
1093.861744
 30
0.0
 40
6.8
 50
360.0
 51
180.0
  0
LINE
  8
5
  6
CONTINUOUS
 62
     3
  5
27F
 10
-1332.378152
 20
1086.861744
 30
0.0
 11
-1332.378152
 21
1093.861744
 31
0.0
  0
LINE
  8
5
  6
CONTINUOUS
 62
     3
  5
280
 10
-1333.278152
 20
1093.861744
 30
0.0
 11
-1333.278152
 21
1087.561744
 31
0.0
  0
ARC
  8
5
  6
CONTINUOUS
 62
     3
  5
281
 10
-1339.978152
 20
1128.861745
 30
0.0
 40
41.800001
 50
260.63
 51
279.02
  0
LINE
  8
5
  6
CONTINUOUS
 62
     3
  5
282
 10
-1346.778152
 20
1093.861744
 30
0.0
 11
-1346.778152
 21
1087.661744
 31
0.0
  0
LINE
  8
5
  6
CONTINUOUS
 62
     3
  5
283
 10
-1347.678152
 20
1086.861744
 30
0.0
 11
-1347.678152
 21
1093.861744
 31
0.0
  0
CIRCLE
  8
5
  6
CONTINUOUS
 62
     3
  5
284
 10
-1339.978152
 20
1093.861744
 30
0.0
 40
4.0
  0
CIRCLE
  8
5
  6
CONTINUOUS
 62
     3
  5
285
 10
-1339.978152
 20
1093.861744
 30
0.0
 40
4.4
  0
ARC
  8
5
  6
CONTINUOUS
 62
     3
  5
286
 10
-1339.978152
 20
1128.861745
 30
0.0
 40
41.800001
 50
140.63
 51
159.02
  0
ARC
  8
5
  6
DIVIDE
 62
     2
  5
287
 10
-1339.978152
 20
1128.861745
 30
0.0
 40
42.700001
 50
109.71
 51
171.38
  0
ARC
  8
5
  6
CONTINUOUS
 62
     3
  5
288
 10
-1370.278153
 20
1146.361745
 30
0.0
 40
7.7
 50
240.0
 51
60.0
  0
ARC
  8
5
  6
CONTINUOUS
 62
     3
  5
289
 10
-1370.278153
 20
1146.361745
 30
0.0
 40
6.8
 50
240.0
 51
60.0
  0
LINE
  8
5
  6
CONTINUOUS
 62
     3
  5
28A
 10
-1380.178153
 20
1143.261745
 30
0.0
 11
-1374.078153
 21
1139.761745
 31
0.0
  0
LINE
  8
5
  6
CONTINUOUS
 62
     3
  5
28B
 10
-1373.678153
 20
1140.561745
 30
0.0
 11
-1379.078153
 21
1143.661745
 31
0.0
  0
LINE
  8
5
  6
CONTINUOUS
 62
     3
  5
28C
 10
-1366.878152
 20
1152.261745
 30
0.0
 11
-1372.278153
 21
1155.361745
 31
0.0
  0
LINE
  8
5
  6
CONTINUOUS
 62
     3
  5
28D
 10
-1372.478153
 20
1156.561745
 30
0.0
 11
-1366.478152
 21
1153.061745
 31
0.0
  0
CIRCLE
  8
5
  6
CONTINUOUS
 62
     3
  5
28E
 10
-1370.278153
 20
1146.361745
 30
0.0
 40
4.4
  0
CIRCLE
  8
5
  6
CONTINUOUS
 62
     3
  5
28F
 10
-1370.278153
 20
1146.361745
 30
0.0
 40
4.0
  0
ARC
  8
5
  6
CONTINUOUS
 62
     3
  5
290
 10
-1309.678152
 20
1146.361745
 30
0.0
 40
7.7
 50
120.0
 51
300.0
  0
ARC
  8
5
  6
CONTINUOUS
 62
     3
  5
291
 10
-1309.678152
 20
1146.361745
 30
0.0
 40
6.8
 50
120.0
 51
300.0
  0
ARC
  8
5
  6
CONTINUOUS
 62
     3
  5
292
 10
-1039.978148
 20
1093.861744
 30
0.0
 40
7.7
 50
360.0
 51
180.0
  0
ARC
  8
5
  6
CONTINUOUS
 62
     3
  5
293
 10
-1039.978148
 20
1093.861744
 30
0.0
 40
6.8
 50
360.0
 51
180.0
  0
LINE
  8
5
  6
CONTINUOUS
 62
     3
  5
294
 10
-1032.378148
 20
1086.861744
 30
0.0
 11
-1032.378148
 21
1093.861744
 31
0.0
  0
LINE
  8
5
  6
CONTINUOUS
 62
     3
  5
295
 10
-1033.278148
 20
1093.861744
 30
0.0
 11
-1033.278148
 21
1087.561744
 31
0.0
  0
ARC
  8
5
  6
CONTINUOUS
 62
     3
  5
296
 10
-1039.978148
 20
1128.861745
 30
0.0
 40
41.800001
 50
260.63
 51
279.02
  0
LINE
  8
5
  6
CONTINUOUS
 62
     3
  5
297
 10
-1046.778148
 20
1093.861744
 30
0.0
 11
-1046.778148
 21
1087.661744
 31
0.0
  0
LINE
  8
5
  6
CONTINUOUS
 62
     3
  5
298
 10
-1047.678148
 20
1086.861744
 30
0.0
 11
-1047.678148
 21
1093.861744
 31
0.0
  0
ARC
  8
5
  6
DIVIDE
 62
     2
  5
299
 10
-1039.978148
 20
1128.861745
 30
0.0
 40
42.700001
 50
211.61
 51
328.39
  0
CIRCLE
  8
5
  6
CONTINUOUS
 62
     3
  5
29A
 10
-1039.978148
 20
1093.861744
 30
0.0
 40
4.0
  0
CIRCLE
  8
5
  6
CONTINUOUS
 62
     3
  5
29B
 10
-1039.978148
 20
1093.861744
 30
0.0
 40
4.4
  0
CIRCLE
  8
5
  6
DOT
 62
     2
  5
29C
 10
-1039.978148
 20
1128.861745
 30
0.0
 40
45.0
  0
LINE
  8
5
  6
CONTINUOUS
 62
     3
  5
29D
 10
-1007.378147
 20
1156.461745
 30
0.0
 11
-1013.478147
 21
1152.961745
 31
0.0
  0
LINE
  8
5
  6
CONTINUOUS
 62
     3
  5
29E
 10
-1012.978147
 20
1152.161745
 30
0.0
 11
-1007.578147
 21
1155.361745
 31
0.0
  0
ARC
  8
5
  6
CONTINUOUS
 62
     3
  5
29F
 10
-1039.978148
 20
1128.861745
 30
0.0
 40
41.800001
 50
20.63
 51
39.02
  0
ARC
  8
5
  6
DIVIDE
 62
     2
  5
2A0
 10
-1039.978148
 20
1128.861745
 30
0.0
 40
42.700001
 50
8.62
 51
70.29
  0
CIRCLE
  8
5
  6
CONTINUOUS
 62
     3
  5
2A1
 10
-1009.678147
 20
1146.361745
 30
0.0
 40
4.0
  0
CIRCLE
  8
5
  6
CONTINUOUS
 62
     3
  5
2A2
 10
-1009.678147
 20
1146.361745
 30
0.0
 40
4.4
  0
ARC
  8
5
  6
CONTINUOUS
 62
     3
  5
2A3
 10
-1009.678147
 20
1146.361745
 30
0.0
 40
7.7
 50
120.0
 51
300.0
  0
ARC
  8
5
  6
CONTINUOUS
 62
     3
  5
2A4
 10
-1009.678147
 20
1146.361745
 30
0.0
 40
6.8
 50
120.0
 51
300.0
  0
LINE
  8
5
  6
CONTINUOUS
 62
     3
  5
2A5
 10
-1006.278147
 20
1140.461745
 30
0.0
 11
-1000.878147
 21
1143.561745
 31
0.0
  0
LINE
  8
5
  6
CONTINUOUS
 62
     3
  5
2A6
 10
-999.778147
 20
1143.161745
 30
0.0
 11
-1005.778147
 21
1139.661745
 31
0.0
  0
ARC
  8
5
  6
CONTINUOUS
 62
     3
  5
2A7
 10
-1070.278148
 20
1146.361745
 30
0.0
 40
7.7
 50
240.0
 51
60.0
  0
ARC
  8
5
  6
CONTINUOUS
 62
     3
  5
2A8
 10
-1070.278148
 20
1146.361745
 30
0.0
 40
6.8
 50
240.0
 51
60.0
  0
ARC
  8
5
  6
CONTINUOUS
 62
     3
  5
2A9
 10
-1039.978148
 20
1128.861745
 30
0.0
 40
41.800001
 50
140.63
 51
159.02
  0
LINE
  8
5
  6
CONTINUOUS
 62
     3
  5
2AA
 10
-1066.878148
 20
1152.261745
 30
0.0
 11
-1072.278148
 21
1155.361745
 31
0.0
  0
LINE
  8
5
  6
CONTINUOUS
 62
     3
  5
2AB
 10
-1072.478148
 20
1156.561745
 30
0.0
 11
-1066.478148
 21
1153.061745
 31
0.0
  0
ARC
  8
5
  6
DIVIDE
 62
     2
  5
2AC
 10
-1039.978148
 20
1128.861745
 30
0.0
 40
42.700001
 50
109.71
 51
171.38
  0
CIRCLE
  8
5
  6
CONTINUOUS
 62
     3
  5
2AD
 10
-1070.278148
 20
1146.361745
 30
0.0
 40
4.4
  0
CIRCLE
  8
5
  6
CONTINUOUS
 62
     3
  5
2AE
 10
-1070.278148
 20
1146.361745
 30
0.0
 40
4.0
  0
LINE
  8
5
  6
CONTINUOUS
 62
     3
  5
2AF
 10
-1080.178148
 20
1143.261745
 30
0.0
 11
-1074.078148
 21
1139.761745
 31
0.0
  0
LINE
  8
5
  6
CONTINUOUS
 62
     3
  5
2B0
 10
-1073.678148
 20
1140.561745
 30
0.0
 11
-1079.078148
 21
1143.661745
 31
0.0
  0
CIRCLE
  8
1
  6
CONTINUOUS
 62
     1
  5
2B1
 10
-1339.978152
 20
1562.861751
 30
0.0
 40
10.5
  0
LINE
  8
1
  6
CONTINUOUS
 62
     1
  5
2B2
 10
-1329.678152
 20
1560.661751
 30
0.0
 11
-1332.378152
 21
1560.661751
 31
0.0
  0
LINE
  8
1
  6
CONTINUOUS
 62
     1
  5
2B3
 10
-1329.778152
 20
1565.161751
 30
0.0
 11
-1332.378152
 21
1565.161751
 31
0.0
  0
LINE
  8
1
  6
CONTINUOUS
 62
     1
  5
2B4
 10
-1350.278152
 20
1564.661751
 30
0.0
 11
-1347.678152
 21
1564.661751
 31
0.0
  0
LINE
  8
1
  6
CONTINUOUS
 62
     1
  5
2B5
 10
-1350.378152
 20
1561.161751
 30
0.0
 11
-1347.778152
 21
1561.161751
 31
0.0
  0
ARC
  8
1
  6
CONTINUOUS
 62
     1
  5
2B6
 10
-1339.978152
 20
1562.861751
 30
0.0
 40
8.0
 50
16.63
 51
167.01
  0
ARC
  8
1
  6
CONTINUOUS
 62
     1
  5
2B7
 10
-1339.978152
 20
1562.861751
 30
0.0
 40
8.0
 50
192.3
 51
344.05
  0
CIRCLE
  8
1
  6
CONTINUOUS
 62
     3
  5
2B8
 10
-1339.978152
 20
1562.861751
 30
0.0
 40
3.5
  0
CIRCLE
  8
1
  6
CONTINUOUS
 62
     3
  5
2B9
 10
-1339.978152
 20
1562.861751
 30
0.0
 40
4.0
  0
CIRCLE
  8
1
  6
CONTINUOUS
 62
     1
  5
2BA
 10
-1039.978148
 20
1562.861751
 30
0.0
 40
10.5
  0
LINE
  8
1
  6
CONTINUOUS
 62
     1
  5
2BB
 10
-1029.678147
 20
1560.661751
 30
0.0
 11
-1032.378148
 21
1560.661751
 31
0.0
  0
LINE
  8
1
  6
CONTINUOUS
 62
     1
  5
2BC
 10
-1029.778147
 20
1565.161751
 30
0.0
 11
-1032.378148
 21
1565.161751
 31
0.0
  0
LINE
  8
1
  6
CONTINUOUS
 62
     1
  5
2BD
 10
-1050.278148
 20
1564.661751
 30
0.0
 11
-1047.678148
 21
1564.661751
 31
0.0
  0
LINE
  8
1
  6
CONTINUOUS
 62
     1
  5
2BE
 10
-1050.378148
 20
1561.161751
 30
0.0
 11
-1047.778148
 21
1561.161751
 31
0.0
  0
ARC
  8
1
  6
CONTINUOUS
 62
     1
  5
2BF
 10
-1039.978148
 20
1562.861751
 30
0.0
 40
8.0
 50
16.63
 51
167.01
  0
ARC
  8
1
  6
CONTINUOUS
 62
     1
  5
2C0
 10
-1039.978148
 20
1562.861751
 30
0.0
 40
8.0
 50
192.3
 51
344.05
  0
CIRCLE
  8
1
  6
CONTINUOUS
 62
     3
  5
2C1
 10
-1039.978148
 20
1562.861751
 30
0.0
 40
4.0
  0
CIRCLE
  8
1
  6
CONTINUOUS
 62
     3
  5
2C2
 10
-1039.978148
 20
1562.861751
 30
0.0
 40
3.5
  0
CIRCLE
  8
1
  6
CONTINUOUS
 62
     1
  5
2C3
 10
-1039.978148
 20
1128.861745
 30
0.0
 40
10.5
  0
LINE
  8
1
  6
CONTINUOUS
 62
     1
  5
2C4
 10
-1050.278148
 20
1131.061745
 30
0.0
 11
-1047.578148
 21
1131.061745
 31
0.0
  0
LINE
  8
1
  6
CONTINUOUS
 62
     1
  5
2C5
 10
-1050.178148
 20
1126.561745
 30
0.0
 11
-1047.578148
 21
1126.561745
 31
0.0
  0
LINE
  8
1
  6
CONTINUOUS
 62
     1
  5
2C6
 10
-1029.678147
 20
1127.061745
 30
0.0
 11
-1032.278148
 21
1127.061745
 31
0.0
  0
LINE
  8
1
  6
CONTINUOUS
 62
     1
  5
2C7
 10
-1029.578147
 20
1130.561745
 30
0.0
 11
-1032.178148
 21
1130.561745
 31
0.0
  0
ARC
  8
1
  6
CONTINUOUS
 62
     1
  5
2C8
 10
-1039.978148
 20
1128.861745
 30
0.0
 40
8.0
 50
196.63
 51
347.01
  0
ARC
  8
1
  6
CONTINUOUS
 62
     1
  5
2C9
 10
-1039.978148
 20
1128.861745
 30
0.0
 40
8.0
 50
12.3
 51
164.05
  0
CIRCLE
  8
1
  6
CONTINUOUS
 62
     3
  5
2CA
 10
-1039.978148
 20
1128.861745
 30
0.0
 40
3.5
  0
CIRCLE
  8
1
  6
CONTINUOUS
 62
     3
  5
2CB
 10
-1039.978148
 20
1128.861745
 30
0.0
 40
4.0
  0
CIRCLE
  8
1
  6
CONTINUOUS
 62
     1
  5
2CC
 10
-1339.978152
 20
1128.861745
 30
0.0
 40
10.5
  0
LINE
  8
1
  6
CONTINUOUS
 62
     1
  5
2CD
 10
-1350.278152
 20
1131.061745
 30
0.0
 11
-1347.578152
 21
1131.061745
 31
0.0
  0
LINE
  8
1
  6
CONTINUOUS
 62
     1
  5
2CE
 10
-1350.178152
 20
1126.561745
 30
0.0
 11
-1347.578152
 21
1126.561745
 31
0.0
  0
LINE
  8
1
  6
CONTINUOUS
 62
     1
  5
2CF
 10
-1329.678152
 20
1127.061745
 30
0.0
 11
-1332.278152
 21
1127.061745
 31
0.0
  0
LINE
  8
1
  6
CONTINUOUS
 62
     1
  5
2D0
 10
-1329.578152
 20
1130.561745
 30
0.0
 11
-1332.178152
 21
1130.561745
 31
0.0
  0
ARC
  8
1
  6
CONTINUOUS
 62
     1
  5
2D1
 10
-1339.978152
 20
1128.861745
 30
0.0
 40
8.0
 50
196.63
 51
347.01
  0
ARC
  8
1
  6
CONTINUOUS
 62
     1
  5
2D2
 10
-1339.978152
 20
1128.861745
 30
0.0
 40
8.0
 50
12.3
 51
164.05
  0
CIRCLE
  8
1
  6
CONTINUOUS
 62
     3
  5
2D3
 10
-1339.978152
 20
1128.861745
 30
0.0
 40
3.5
  0
CIRCLE
  8
1
  6
CONTINUOUS
 62
     3
  5
2D4
 10
-1339.978152
 20
1128.861745
 30
0.0
 40
4.0
  0
LINE
  8
5
  6
CONTINUOUS
 62
     1
  5
2D5
 10
-609.029125
 20
1086.218153
 30
0.0
 11
-609.22085
 21
1086.161218
 31
0.0
  0
LINE
  8
5
  6
CONTINUOUS
 62
     3
  5
2D6
 10
-609.220851
 20
1143.241493
 30
0.0
 11
-611.084942
 21
1140.197382
 31
0.0
  0
LINE
  8
5
  6
CONTINUOUS
 62
     3
  5
2D7
 10
-609.220851
 20
1156.491682
 30
0.0
 11
-609.220851
 21
1143.241493
 31
0.0
  0
LINE
  8
5
  6
CONTINUOUS
 62
     3
  5
2D8
 10
-609.220851
 20
1156.491682
 30
0.0
 11
-611.526237
 21
1152.461732
 31
0.0
  0
ARC
  8
5
  6
CONTINUOUS
 62
     3
  5
2D9
 10
-465.427023
 20
1128.861751
 30
0.0
 40
150.0
 50
173.967749
 51
179.999998
  0
LINE
  8
5
  6
CONTINUOUS
 62
     3
  5
2DA
 10
-614.235714
 20
1147.729016
 30
0.0
 11
-614.235714
 21
1128.861751
 31
0.0
  0
ARC
  8
5
  6
CONTINUOUS
 62
     3
  5
2DB
 10
-630.235706
 20
1147.291937
 30
0.0
 40
20.422645
 50
338.884741
 51
339.672445
  0
LINE
  8
5
  6
CONTINUOUS
 62
     3
  5
2DC
 10
-608.578145
 20
1128.861751
 30
0.0
 11
-608.578145
 21
1172.711504
 31
0.0
  0
ARC
  8
5
  6
CONTINUOUS
 62
     3
  5
2DD
 10
-592.330172
 20
1145.211027
 30
0.0
 40
20.422645
 50
159.965531
 51
194.830804
  0
ARC
  8
5
  6
CONTINUOUS
 62
     3
  5
2DE
 10
-611.620462
 20
1140.103216
 30
0.0
 40
0.46757
 50
194.830804
 51
338.884741
  0
ARC
  8
5
  6
CONTINUOUS
 62
     3
  5
2DF
 10
-465.427023
 20
1128.861751
 30
0.0
 40
150.0
 50
180.000002
 51
186.032251
  0
LINE
  8
5
  6
CONTINUOUS
 62
     3
  5
2E0
 10
-614.235714
 20
1109.994486
 30
0.0
 11
-614.235714
 21
1128.861751
 31
0.0
  0
LINE
  8
5
  6
CONTINUOUS
 62
     3
  5
2E1
 10
-608.578145
 20
1128.861751
 30
0.0
 11
-608.578145
 21
1085.011999
 31
0.0
  0
LINE
  8
100
  6
CENTER
 62
     3
  5
2E2
 10
-645.190823
 20
1120.861751
 30
0.0
 11
-680.578145
 21
1120.861751
 31
0.0
  0
LINE
  8
100
  6
CENTER
 62
     3
  5
2E3
 10
-637.578145
 20
1270.861751
 30
0.0
 11
-680.578145
 21
1270.861751
 31
0.0
  0
LINE
  8
100
  6
CENTER
 62
     3
  5
2E4
 10
-637.578145
 20
1420.861751
 30
0.0
 11
-680.578145
 21
1420.861751
 31
0.0
  0
LINE
  8
100
  6
CENTER
 62
     3
  5
2E5
 10
-645.190823
 20
1570.861751
 30
0.0
 11
-680.578145
 21
1570.861751
 31
0.0
  0
LINE
  8
100
  6
CENTER
 62
     3
  5
2E6
 10
-587.578145
 20
1128.861751
 30
0.0
 11
-680.578145
 21
1128.861751
 31
0.0
  0
LINE
  8
100
  6
CENTER
 62
     3
  5
2E7
 10
-675.578145
 20
1120.861751
 30
0.0
 11
-675.578145
 21
1078.861751
 31
0.0
  0
LINE
  8
100
  6
CENTER
 62
     3
  5
2E8
 10
-647.578145
 20
1114.861751
 30
0.0
 11
-647.578145
 21
1078.861751
 31
0.0
  0
LINE
  8
100
  6
CENTER
 62
     3
  5
2E9
 10
-587.578145
 20
1562.861751
 30
0.0
 11
-680.578145
 21
1562.861751
 31
0.0
  0
LINE
  8
100
  6
CENTER
 62
     3
  5
2EA
 10
-587.578145
 20
1545.361751
 30
0.0
 11
-624.61176
 21
1545.361751
 31
0.0
  0
LINE
  8
100
  6
CENTER
 62
     3
  5
2EB
 10
-624.61176
 20
1597.861752
 30
0.0
 11
-587.578145
 21
1597.861752
 31
0.0
  0
LINE
  8
100
  6
CENTER
 62
     3
  5
2EC
 10
-621.28646
 20
1093.861396
 30
0.0
 11
-587.578145
 21
1093.861396
 31
0.0
  0
LINE
  8
100
  6
CENTER
 62
     3
  5
2ED
 10
-621.28646
 20
1146.361745
 30
0.0
 11
-587.578145
 21
1146.361745
 31
0.0
  0
TEXT
  8
50
  6
CONTINUOUS
 62
     2
  5
2EE
 10
-1571.416295
 20
1585.805299
 30
0.0
 40
13.0
  1
14.4
 50
90.0
 41
0.5
  7
1
 72
     5
 11
-1571.416295
 21
1611.805299
 31
0.0
  0
TEXT
  8
50
  6
CONTINUOUS
 62
     2
  5
2EF
 10
-1571.77866
 20
1080.280562
 30
0.0
 40
13.0
  1
14.4
 50
90.0
 41
0.5
  7
1
 72
     5
 11
-1571.77866
 21
1106.280562
 31
0.0
  0
LINE
  8
50
  6
CONTINUOUS
 62
     2
  5
2F0
 10
-597.578145
 20
968.861744
 30
0.0
 11
-597.578145
 21
1068.861744
 31
0.0
  0
LINE
  8
50
  6
CONTINUOUS
 62
     2
  5
2F1
 10
-675.578145
 20
968.861744
 30
0.0
 11
-675.578145
 21
1068.861744
 31
0.0
  0
LINE
  8
50
  6
CONTINUOUS
 62
     2
  5
2F2
 10
-647.578145
 20
1018.861744
 30
0.0
 11
-647.578145
 21
1068.861744
 31
0.0
  0
CIRCLE
  8
50
  6
CONTINUOUS
 62
     2
  5
2F3
 10
-597.578145
 20
968.861744
 30
0.0
 40
1.0
  0
CIRCLE
  8
50
  6
CONTINUOUS
 62
     2
  5
2F4
 10
-675.578145
 20
968.861744
 30
0.0
 40
1.0
  0
CIRCLE
  8
50
  6
CONTINUOUS
 62
     2
  5
2F5
 10
-675.578145
 20
1018.861744
 30
0.0
 40
1.0
  0
CIRCLE
  8
50
  6
CONTINUOUS
 62
     2
  5
2F6
 10
-647.578145
 20
1018.861744
 30
0.0
 40
1.0
  0
CIRCLE
  8
50
  6
CONTINUOUS
 62
     2
  5
2F7
 10
-597.578145
 20
1018.861744
 30
0.0
 40
1.0
  0
TEXT
  8
50
  6
CONTINUOUS
 62
     2
  5
2F8
 10
-643.078145
 20
968.861744
 30
0.0
 40
13.0
  1
78
 41
0.5
  7
1
 72
     5
 11
-630.078145
 21
968.861744
 31
0.0
  0
LINE
  8
50
  6
CONTINUOUS
 62
     2
  5
2F9
 10
-597.578145
 20
968.861744
 30
0.0
 11
-675.578145
 21
968.861744
 31
0.0
  0
TEXT
  8
50
  6
CONTINUOUS
 62
     2
  5
2FA
 10
-668.078145
 20
1018.861744
 30
0.0
 40
13.0
  1
28
 41
0.5
  7
1
 72
     5
 11
-655.078145
 21
1018.861744
 31
0.0
  0
LINE
  8
50
  6
CONTINUOUS
 62
     2
  5
2FB
 10
-675.578145
 20
1018.861744
 30
0.0
 11
-647.578145
 21
1018.861744
 31
0.0
  0
TEXT
  8
50
  6
CONTINUOUS
 62
     2
  5
2FC
 10
-629.078145
 20
1018.861744
 30
0.0
 40
13.0
  1
50
 41
0.5
  7
1
 72
     5
 11
-616.078145
 21
1018.861744
 31
0.0
  0
LINE
  8
50
  6
CONTINUOUS
 62
     2
  5
2FD
 10
-647.578145
 20
1018.861744
 30
0.0
 11
-597.578145
 21
1018.861744
 31
0.0
  0
LINE
  8
50
  6
CONTINUOUS
 62
     2
  5
2FE
 10
-597.578145
 20
1043.861744
 30
0.0
 11
-597.578145
 21
1068.861744
 31
0.0
  0
LINE
  8
50
  6
CONTINUOUS
 62
     2
  5
2FF
 10
-647.578145
 20
1043.861744
 30
0.0
 11
-647.578145
 21
1068.861744
 31
0.0
  0
LINE
  8
50
  6
CONTINUOUS
 62
     2
  5
300
 10
-597.578145
 20
1043.861744
 30
0.0
 11
-597.578145
 21
1068.861744
 31
0.0
  0
LINE
  8
50
  6
CONTINUOUS
 62
     2
  5
301
 10
-647.578145
 20
1043.861744
 30
0.0
 11
-647.578145
 21
1068.861744
 31
0.0
  0
TEXT
  8
150
  6
CONTINUOUS
 62
    15
  5
302
 10
-1692.788512
 20
1745.98734
 30
0.0
 40
12.0
  1
1
 41
0.5
  7
1
 72
     5
 11
-1686.788512
 21
1745.98734
 31
0.0
  0
TEXT
  8
150
  6
CONTINUOUS
 62
    15
  5
303
 10
-1517.663512
 20
1745.98734
 30
0.0
 40
12.0
  1
2
 41
0.5
  7
1
 72
     5
 11
-1511.663512
 21
1745.98734
 31
0.0
  0
TEXT
  8
150
  6
CONTINUOUS
 62
    15
  5
304
 10
-1342.538512
 20
1745.98734
 30
0.0
 40
12.0
  1
3
 41
0.5
  7
1
 72
     5
 11
-1336.538512
 21
1745.98734
 31
0.0
  0
TEXT
  8
150
  6
CONTINUOUS
 62
    15
  5
305
 10
-1167.413512
 20
1745.98734
 30
0.0
 40
12.0
  1
4
 41
0.5
  7
1
 72
     5
 11
-1161.413512
 21
1745.98734
 31
0.0
  0
TEXT
  8
150
  6
CONTINUOUS
 62
    15
  5
306
 10
-992.288512
 20
1745.98734
 30
0.0
 40
12.0
  1
5
 41
0.5
  7
1
 72
     5
 11
-986.288512
 21
1745.98734
 31
0.0
  0
TEXT
  8
150
  6
CONTINUOUS
 62
    15
  5
307
 10
-817.163512
 20
1745.98734
 30
0.0
 40
12.0
  1
6
 41
0.5
  7
1
 72
     5
 11
-811.163512
 21
1745.98734
 31
0.0
  0
TEXT
  8
150
  6
CONTINUOUS
 62
    15
  5
308
 10
-642.038512
 20
1745.98734
 30
0.0
 40
12.0
  1
7
 41
0.5
  7
1
 72
     5
 11
-636.038512
 21
1745.98734
 31
0.0
  0
TEXT
  8
150
  6
CONTINUOUS
 62
    15
  5
309
 10
-466.913512
 20
1745.98734
 30
0.0
 40
12.0
  1
8
 41
0.5
  7
1
 72
     5
 11
-460.913512
 21
1745.98734
 31
0.0
  0
TEXT
  8
150
  6
CONTINUOUS
 62
    15
  5
30A
 10
-377.351012
 20
1647.38734
 30
0.0
 40
12.0
  1
A
 41
0.5
  7
1
 72
     5
 11
-371.351012
 21
1647.38734
 31
0.0
  0
TEXT
  8
150
  6
CONTINUOUS
 62
    15
  5
30B
 10
-377.351012
 20
1454.18734
 30
0.0
 40
12.0
  1
B
 41
0.5
  7
1
 72
     5
 11
-371.351012
 21
1454.18734
 31
0.0
  0
TEXT
  8
150
  6
CONTINUOUS
 62
    15
  5
30C
 10
-377.351012
 20
1260.98734
 30
0.0
 40
12.0
  1
C
 41
0.5
  7
1
 72
     5
 11
-371.351012
 21
1260.98734
 31
0.0
  0
TEXT
  8
150
  6
CONTINUOUS
 62
    15
  5
30D
 10
-377.351012
 20
1067.78734
 30
0.0
 40
12.0
  1
D
 41
0.5
  7
1
 72
     5
 11
-371.351012
 21
1067.78734
 31
0.0
  0
TEXT
  8
150
  6
CONTINUOUS
 62
    15
  5
30E
 10
-377.351012
 20
874.58734
 30
0.0
 40
12.0
  1
E
 41
0.5
  7
1
 72
     5
 11
-371.351012
 21
874.58734
 31
0.0
  0
TEXT
  8
150
  6
CONTINUOUS
 62
    15
  5
30F
 10
-1342.538512
 20
835.423711
 30
0.0
 40
12.0
  1
3
 41
0.5
  7
1
 72
     5
 11
-1336.538512
 21
835.423711
 31
0.0
  0
TEXT
  8
150
  6
CONTINUOUS
 62
    15
  5
310
 10
-1692.788512
 20
835.423711
 30
0.0
 40
12.0
  1
1
 41
0.5
  7
1
 72
     5
 11
-1686.788512
 21
835.423711
 31
0.0
  0
TEXT
  8
150
  6
CONTINUOUS
 62
    15
  5
311
 10
-1517.663512
 20
835.423711
 30
0.0
 40
12.0
  1
2
 41
0.5
  7
1
 72
     5
 11
-1511.663512
 21
835.423711
 31
0.0
  0
TEXT
  8
150
  6
CONTINUOUS
 62
    15
  5
312
 10
-642.038512
 20
835.423711
 30
0.0
 40
12.0
  1
7
 41
0.5
  7
1
 72
     5
 11
-636.038512
 21
835.423711
 31
0.0
  0
TEXT
  8
150
  6
CONTINUOUS
 62
    15
  5
313
 10
-817.163512
 20
835.423711
 30
0.0
 40
12.0
  1
6
 41
0.5
  7
1
 72
     5
 11
-811.163512
 21
835.423711
 31
0.0
  0
TEXT
  8
150
  6
CONTINUOUS
 62
    15
  5
314
 10
-992.288512
 20
835.423711
 30
0.0
 40
12.0
  1
5
 41
0.5
  7
1
 72
     5
 11
-986.288512
 21
835.423711
 31
0.0
  0
TEXT
  8
150
  6
CONTINUOUS
 62
    15
  5
315
 10
-1167.413512
 20
835.423711
 30
0.0
 40
12.0
  1
4
 41
0.5
  7
1
 72
     5
 11
-1161.413512
 21
835.423711
 31
0.0
  0
TEXT
  8
150
  6
CONTINUOUS
 62
    15
  5
316
 10
-466.913512
 20
835.423711
 30
0.0
 40
12.0
  1
8
 41
0.5
  7
1
 72
     5
 11
-460.913512
 21
835.423711
 31
0.0
  0
TEXT
  8
150
  6
CONTINUOUS
 62
    15
  5
317
 10
-1782.351012
 20
1067.78734
 30
0.0
 40
12.0
  1
D
 41
0.5
  7
1
 72
     5
 11
-1776.351012
 21
1067.78734
 31
0.0
  0
TEXT
  8
150
  6
CONTINUOUS
 62
    15
  5
318
 10
-1782.351012
 20
1260.98734
 30
0.0
 40
12.0
  1
C
 41
0.5
  7
1
 72
     5
 11
-1776.351012
 21
1260.98734
 31
0.0
  0
TEXT
  8
150
  6
CONTINUOUS
 62
    15
  5
319
 10
-1782.351012
 20
1454.18734
 30
0.0
 40
12.0
  1
B
 41
0.5
  7
1
 72
     5
 11
-1776.351012
 21
1454.18734
 31
0.0
  0
TEXT
  8
150
  6
CONTINUOUS
 62
    15
  5
31A
 10
-1782.351012
 20
1647.38734
 30
0.0
 40
12.0
  1
A
 41
0.5
  7
1
 72
     5
 11
-1776.351012
 21
1647.38734
 31
0.0
  0
TEXT
  8
150
  6
CONTINUOUS
 62
    15
  5
31B
 10
-1782.351012
 20
874.58734
 30
0.0
 40
12.0
  1
E
 41
0.5
  7
1
 72
     5
 11
-1776.351012
 21
874.58734
 31
0.0
  0
ARC
  8
1
  6
CONTINUOUS
 62
     4
  5
31C
 10
-1459.378154
 20
1540.261751
 30
0.0
 40
45.000001
 50
90.0
 51
180.0
  0
ARC
  8
1
  6
CONTINUOUS
 62
     4
  5
31D
 10
-1457.578154
 20
1303.261747
 30
0.0
 40
18.0
 50
180.0
 51
270.0
  0
ARC
  8
1
  6
CONTINUOUS
 62
     4
  5
31E
 10
-1457.578154
 20
1538.461751
 30
0.0
 40
18.0
 50
90.0
 51
180.0
  0
ARC
  8
1
  6
CONTINUOUS
 62
     4
  5
31F
 10
-1457.578154
 20
1153.261745
 30
0.0
 40
18.0
 50
180.0
 51
270.0
  0
ARC
  8
1
  6
CONTINUOUS
 62
     4
  5
320
 10
-1457.578154
 20
1238.461746
 30
0.0
 40
18.0
 50
90.0
 51
180.0
  0
LINE
  8
1
  6
CONTINUOUS
 62
     4
  5
321
 10
-1475.578154
 20
1153.261745
 30
0.0
 11
-1475.578154
 21
1238.461746
 31
0.0
  0
ARC
  8
1
  6
CONTINUOUS
 62
     4
  5
322
 10
-1459.378154
 20
1151.461745
 30
0.0
 40
45.000001
 50
180.0
 51
270.0
  0
LINE
  8
1
  6
CONTINUOUS
 62
     4
  5
323
 10
-1457.578154
 20
1556.461751
 30
0.0
 11
-1372.378153
 21
1556.461751
 31
0.0
  0
LINE
  8
1
  6
CONTINUOUS
 62
     4
  5
324
 10
-1457.578154
 20
1135.261745
 30
0.0
 11
-1372.378153
 21
1135.261745
 31
0.0
  0
ARC
  8
1
  6
CONTINUOUS
 62
     4
  5
325
 10
-1372.378153
 20
1388.461748
 30
0.0
 40
18.0
 50
0.0
 51
90.0
  0
ARC
  8
1
  6
CONTINUOUS
 62
     4
  5
326
 10
-1307.578152
 20
1388.461748
 30
0.0
 40
18.0
 50
90.0
 51
180.0
  0
ARC
  8
1
  6
CONTINUOUS
 62
     4
  5
327
 10
-1372.378153
 20
1453.261749
 30
0.0
 40
18.0
 50
270.0
 51
360.0
  0
ARC
  8
1
  6
CONTINUOUS
 62
     4
  5
328
 10
-1307.578152
 20
1453.261749
 30
0.0
 40
18.0
 50
180.0
 51
270.0
  0
LINE
  8
1
  6
CONTINUOUS
 62
     4
  5
329
 10
-1354.378152
 20
1453.261749
 30
0.0
 11
-1354.378152
 21
1538.461751
 31
0.0
  0
LINE
  8
1
  6
CONTINUOUS
 62
     4
  5
32A
 10
-1325.578152
 20
1453.261749
 30
0.0
 11
-1325.578152
 21
1538.461751
 31
0.0
  0
LINE
  8
1
  6
CONTINUOUS
 62
     4
  5
32B
 10
-1457.578154
 20
1406.461749
 30
0.0
 11
-1372.378153
 21
1406.461749
 31
0.0
  0
ARC
  8
1
  6
CONTINUOUS
 62
     4
  5
32C
 10
-1457.578154
 20
1388.461748
 30
0.0
 40
18.0
 50
90.0
 51
180.0
  0
LINE
  8
1
  6
CONTINUOUS
 62
     4
  5
32D
 10
-1475.578154
 20
1303.261747
 30
0.0
 11
-1475.578154
 21
1388.461748
 31
0.0
  0
LINE
  8
1
  6
CONTINUOUS
 62
     4
  5
32E
 10
-1457.578154
 20
1435.261749
 30
0.0
 11
-1372.378153
 21
1435.261749
 31
0.0
  0
ARC
  8
1
  6
CONTINUOUS
 62
     4
  5
32F
 10
-1457.578154
 20
1453.261749
 30
0.0
 40
18.0
 50
180.0
 51
270.0
  0
LINE
  8
1
  6
CONTINUOUS
 62
     4
  5
330
 10
-1475.578154
 20
1538.461751
 30
0.0
 11
-1475.578154
 21
1453.261749
 31
0.0
  0
LINE
  8
1
  6
CONTINUOUS
 62
     4
  5
331
 10
-1504.378155
 20
1540.261751
 30
0.0
 11
-1504.378155
 21
1151.461745
 31
0.0
  0
ARC
  8
1
  6
CONTINUOUS
 62
     4
  5
332
 10
-1372.378153
 20
1303.261747
 30
0.0
 40
18.0
 50
270.0
 51
360.0
  0
ARC
  8
1
  6
CONTINUOUS
 62
     4
  5
333
 10
-1307.578152
 20
1303.261747
 30
0.0
 40
18.0
 50
180.0
 51
270.0
  0
ARC
  8
1
  6
CONTINUOUS
 62
     4
  5
334
 10
-1372.378153
 20
1238.461746
 30
0.0
 40
18.0
 50
0.0
 51
90.0
  0
ARC
  8
1
  6
CONTINUOUS
 62
     4
  5
335
 10
-1307.578152
 20
1238.461746
 30
0.0
 40
18.0
 50
90.0
 51
180.0
  0
LINE
  8
1
  6
CONTINUOUS
 62
     4
  5
336
 10
-1354.378152
 20
1238.461746
 30
0.0
 11
-1354.378152
 21
1153.261745
 31
0.0
  0
LINE
  8
1
  6
CONTINUOUS
 62
     4
  5
337
 10
-1325.578152
 20
1238.461746
 30
0.0
 11
-1325.578152
 21
1153.261745
 31
0.0
  0
LINE
  8
1
  6
CONTINUOUS
 62
     4
  5
338
 10
-1457.578154
 20
1285.261747
 30
0.0
 11
-1372.378153
 21
1285.261747
 31
0.0
  0
LINE
  8
1
  6
CONTINUOUS
 62
     4
  5
339
 10
-1457.578154
 20
1256.461747
 30
0.0
 11
-1372.378153
 21
1256.461747
 31
0.0
  0
LINE
  8
1
  6
CONTINUOUS
 62
     4
  5
33A
 10
-1354.378152
 20
1388.461748
 30
0.0
 11
-1354.378152
 21
1303.261747
 31
0.0
  0
LINE
  8
1
  6
CONTINUOUS
 62
     4
  5
33B
 10
-1325.578152
 20
1388.461748
 30
0.0
 11
-1325.578152
 21
1303.261747
 31
0.0
  0
ARC
  8
1
  6
CONTINUOUS
 62
     4
  5
33C
 10
-1222.37815
 20
1303.261747
 30
0.0
 40
18.0
 50
270.0
 51
360.0
  0
ARC
  8
1
  6
CONTINUOUS
 62
     4
  5
33D
 10
-1157.578149
 20
1303.261747
 30
0.0
 40
18.0
 50
180.0
 51
270.0
  0
ARC
  8
1
  6
CONTINUOUS
 62
     4
  5
33E
 10
-1222.37815
 20
1238.461746
 30
0.0
 40
18.0
 50
0.0
 51
90.0
  0
LINE
  8
1
  6
CONTINUOUS
 62
     4
  5
33F
 10
-1307.578152
 20
1285.261747
 30
0.0
 11
-1222.37815
 21
1285.261747
 31
0.0
  0
LINE
  8
1
  6
CONTINUOUS
 62
     4
  5
340
 10
-1307.578152
 20
1256.461747
 30
0.0
 11
-1222.37815
 21
1256.461747
 31
0.0
  0
ARC
  8
1
  6
CONTINUOUS
 62
     4
  5
341
 10
-1072.378148
 20
1303.261747
 30
0.0
 40
18.0
 50
270.0
 51
360.0
  0
ARC
  8
1
  6
CONTINUOUS
 62
     4
  5
342
 10
-1007.578147
 20
1303.261747
 30
0.0
 40
18.0
 50
180.0
 51
270.0
  0
LINE
  8
1
  6
CONTINUOUS
 62
     4
  5
343
 10
-1157.578149
 20
1285.261747
 30
0.0
 11
-1072.378148
 21
1285.261747
 31
0.0
  0
ARC
  8
1
  6
CONTINUOUS
 62
     4
  5
344
 10
-922.378146
 20
1303.261747
 30
0.0
 40
18.0
 50
270.0
 51
360.0
  0
LINE
  8
1
  6
CONTINUOUS
 62
     4
  5
345
 10
-1007.578147
 20
1285.261747
 30
0.0
 11
-922.378146
 21
1285.261747
 31
0.0
  0
ARC
  8
1
  6
CONTINUOUS
 62
     4
  5
346
 10
-922.378146
 20
1238.461746
 30
0.0
 40
18.0
 50
0.0
 51
90.0
  0
ARC
  8
1
  6
CONTINUOUS
 62
     4
  5
347
 10
-1007.578147
 20
1238.461746
 30
0.0
 40
18.0
 50
90.0
 51
180.0
  0
ARC
  8
1
  6
CONTINUOUS
 62
     4
  5
348
 10
-1072.378148
 20
1238.461746
 30
0.0
 40
18.0
 50
0.0
 51
90.0
  0
LINE
  8
1
  6
CONTINUOUS
 62
     4
  5
349
 10
-1054.378148
 20
1238.461746
 30
0.0
 11
-1054.378148
 21
1153.261745
 31
0.0
  0
LINE
  8
1
  6
CONTINUOUS
 62
     4
  5
34A
 10
-1025.578147
 20
1238.461746
 30
0.0
 11
-1025.578147
 21
1153.261745
 31
0.0
  0
ARC
  8
1
  6
CONTINUOUS
 62
     4
  5
34B
 10
-1072.378148
 20
1153.261745
 30
0.0
 40
18.0
 50
270.0
 51
360.0
  0
LINE
  8
1
  6
CONTINUOUS
 62
     4
  5
34C
 10
-1157.578149
 20
1256.461747
 30
0.0
 11
-1072.378148
 21
1256.461747
 31
0.0
  0
LINE
  8
1
  6
CONTINUOUS
 62
     4
  5
34D
 10
-1007.578147
 20
1256.461747
 30
0.0
 11
-922.378146
 21
1256.461747
 31
0.0
  0
ARC
  8
1
  6
CONTINUOUS
 62
     4
  5
34E
 10
-1007.578147
 20
1153.261745
 30
0.0
 40
18.0
 50
180.0
 51
270.0
  0
LINE
  8
1
  6
CONTINUOUS
 62
     4
  5
34F
 10
-1157.578149
 20
1135.261745
 30
0.0
 11
-1072.378148
 21
1135.261745
 31
0.0
  0
ARC
  8
1
  6
CONTINUOUS
 62
     4
  5
350
 10
-1157.578149
 20
1153.261745
 30
0.0
 40
18.0
 50
180.0
 51
270.0
  0
ARC
  8
1
  6
CONTINUOUS
 62
     4
  5
351
 10
-1157.578149
 20
1238.461746
 30
0.0
 40
18.0
 50
90.0
 51
180.0
  0
LINE
  8
1
  6
CONTINUOUS
 62
     4
  5
352
 10
-1175.57815
 20
1238.461746
 30
0.0
 11
-1175.57815
 21
1152.861745
 31
0.0
  0
LINE
  8
1
  6
CONTINUOUS
 62
     4
  5
353
 10
-1307.578152
 20
1135.261745
 30
0.0
 11
-1222.37815
 21
1135.261745
 31
0.0
  0
ARC
  8
1
  6
CONTINUOUS
 62
     4
  5
354
 10
-1222.37815
 20
1153.261745
 30
0.0
 40
18.0
 50
270.0
 51
360.0
  0
LINE
  8
1
  6
CONTINUOUS
 62
     4
  5
355
 10
-1204.37815
 20
1238.461746
 30
0.0
 11
-1204.37815
 21
1153.261745
 31
0.0
  0
ARC
  8
1
  6
CONTINUOUS
 62
     4
  5
356
 10
-1307.578152
 20
1153.261745
 30
0.0
 40
18.0
 50
180.0
 51
270.0
  0
ARC
  8
1
  6
CONTINUOUS
 62
     4
  5
357
 10
-1372.378153
 20
1153.261745
 30
0.0
 40
18.0
 50
270.0
 51
360.0
  0
ARC
  8
1
  6
CONTINUOUS
 62
     4
  5
358
 10
-920.578146
 20
1151.461745
 30
0.0
 40
45.000001
 50
270.0
 51
0.0
  0
LINE
  8
1
  6
CONTINUOUS
 62
     4
  5
359
 10
-904.378146
 20
1238.461746
 30
0.0
 11
-904.378146
 21
1153.261745
 31
0.0
  0
ARC
  8
1
  6
CONTINUOUS
 62
     4
  5
35A
 10
-922.378146
 20
1153.261745
 30
0.0
 40
18.0
 50
270.0
 51
360.0
  0
LINE
  8
1
  6
CONTINUOUS
 62
     4
  5
35B
 10
-1007.578147
 20
1135.261745
 30
0.0
 11
-922.378146
 21
1135.261745
 31
0.0
  0
LINE
  8
1
  6
CONTINUOUS
 62
     4
  5
35C
 10
-1459.378154
 20
1106.461744
 30
0.0
 11
-920.578146
 21
1106.461744
 31
0.0
  0
ARC
  8
1
  6
CONTINUOUS
 62
     4
  5
35D
 10
-922.378146
 20
1453.261749
 30
0.0
 40
18.0
 50
270.0
 51
360.0
  0
LINE
  8
1
  6
CONTINUOUS
 62
     4
  5
35E
 10
-904.378146
 20
1388.461748
 30
0.0
 11
-904.378146
 21
1303.261747
 31
0.0
  0
ARC
  8
1
  6
CONTINUOUS
 62
     4
  5
35F
 10
-922.378146
 20
1388.461748
 30
0.0
 40
18.0
 50
0.0
 51
90.0
  0
LINE
  8
1
  6
CONTINUOUS
 62
     4
  5
360
 10
-1007.578147
 20
1406.461749
 30
0.0
 11
-922.378146
 21
1406.461749
 31
0.0
  0
ARC
  8
1
  6
CONTINUOUS
 62
     4
  5
361
 10
-920.578146
 20
1540.261751
 30
0.0
 40
45.000001
 50
0.0
 51
90.0
  0
ARC
  8
1
  6
CONTINUOUS
 62
     4
  5
362
 10
-922.378146
 20
1538.461751
 30
0.0
 40
18.0
 50
0.0
 51
90.0
  0
LINE
  8
1
  6
CONTINUOUS
 62
     4
  5
363
 10
-1007.578147
 20
1556.461751
 30
0.0
 11
-922.378146
 21
1556.461751
 31
0.0
  0
LINE
  8
1
  6
CONTINUOUS
 62
     4
  5
364
 10
-1459.378154
 20
1585.261751
 30
0.0
 11
-920.578146
 21
1585.261751
 31
0.0
  0
LINE
  8
1
  6
CONTINUOUS
 62
     4
  5
365
 10
-875.578145
 20
1540.261751
 30
0.0
 11
-875.578145
 21
1151.461745
 31
0.0
  0
LINE
  8
1
  6
CONTINUOUS
 62
     4
  5
366
 10
-904.378146
 20
1453.261749
 30
0.0
 11
-904.378146
 21
1538.461751
 31
0.0
  0
ARC
  8
1
  6
CONTINUOUS
 62
     4
  5
367
 10
-1007.578147
 20
1538.461751
 30
0.0
 40
18.0
 50
90.0
 51
180.0
  0
ARC
  8
1
  6
CONTINUOUS
 62
     4
  5
368
 10
-1072.378148
 20
1538.461751
 30
0.0
 40
18.0
 50
0.0
 51
90.0
  0
LINE
  8
1
  6
CONTINUOUS
 62
     4
  5
369
 10
-1157.578149
 20
1556.461751
 30
0.0
 11
-1072.378148
 21
1556.461751
 31
0.0
  0
LINE
  8
1
  6
CONTINUOUS
 62
     4
  5
36A
 10
-1007.578147
 20
1435.261749
 30
0.0
 11
-922.378146
 21
1435.261749
 31
0.0
  0
ARC
  8
1
  6
CONTINUOUS
 62
     4
  5
36B
 10
-1222.37815
 20
1453.261749
 30
0.0
 40
18.0
 50
270.0
 51
360.0
  0
LINE
  8
1
  6
CONTINUOUS
 62
     4
  5
36C
 10
-1307.578152
 20
1435.261749
 30
0.0
 11
-1222.37815
 21
1435.261749
 31
0.0
  0
ARC
  8
1
  6
CONTINUOUS
 62
     4
  5
36D
 10
-1222.37815
 20
1388.461748
 30
0.0
 40
18.0
 50
0.0
 51
90.0
  0
ARC
  8
1
  6
CONTINUOUS
 62
     4
  5
36E
 10
-1157.578149
 20
1388.461748
 30
0.0
 40
18.0
 50
90.0
 51
180.0
  0
LINE
  8
1
  6
CONTINUOUS
 62
     4
  5
36F
 10
-1307.578152
 20
1406.461749
 30
0.0
 11
-1222.37815
 21
1406.461749
 31
0.0
  0
LINE
  8
1
  6
CONTINUOUS
 62
     4
  5
370
 10
-1204.37815
 20
1388.461748
 30
0.0
 11
-1204.37815
 21
1303.261747
 31
0.0
  0
LINE
  8
1
  6
CONTINUOUS
 62
     4
  5
371
 10
-1175.57815
 20
1388.461748
 30
0.0
 11
-1175.57815
 21
1302.961747
 31
0.0
  0
ARC
  8
1
  6
CONTINUOUS
 62
     4
  5
372
 10
-1007.578147
 20
1388.461748
 30
0.0
 40
18.0
 50
90.0
 51
180.0
  0
ARC
  8
1
  6
CONTINUOUS
 62
     4
  5
373
 10
-1072.378148
 20
1388.461748
 30
0.0
 40
18.0
 50
0.0
 51
90.0
  0
LINE
  8
1
  6
CONTINUOUS
 62
     4
  5
374
 10
-1157.578149
 20
1406.461749
 30
0.0
 11
-1072.378148
 21
1406.461749
 31
0.0
  0
LINE
  8
1
  6
CONTINUOUS
 62
     4
  5
375
 10
-1054.378148
 20
1388.461748
 30
0.0
 11
-1054.378148
 21
1303.261747
 31
0.0
  0
LINE
  8
1
  6
CONTINUOUS
 62
     4
  5
376
 10
-1025.578147
 20
1388.461748
 30
0.0
 11
-1025.578147
 21
1303.261747
 31
0.0
  0
ARC
  8
1
  6
CONTINUOUS
 62
     4
  5
377
 10
-1157.578149
 20
1453.261749
 30
0.0
 40
18.0
 50
180.0
 51
270.0
  0
LINE
  8
1
  6
CONTINUOUS
 62
     4
  5
378
 10
-1157.578149
 20
1435.261749
 30
0.0
 11
-1072.378148
 21
1435.261749
 31
0.0
  0
ARC
  8
1
  6
CONTINUOUS
 62
     4
  5
379
 10
-1072.378148
 20
1453.261749
 30
0.0
 40
18.0
 50
270.0
 51
360.0
  0
LINE
  8
1
  6
CONTINUOUS
 62
     4
  5
37A
 10
-1054.378148
 20
1453.261749
 30
0.0
 11
-1054.378148
 21
1538.461751
 31
0.0
  0
ARC
  8
1
  6
CONTINUOUS
 62
     4
  5
37B
 10
-1007.578147
 20
1453.261749
 30
0.0
 40
18.0
 50
180.0
 51
270.0
  0
LINE
  8
1
  6
CONTINUOUS
 62
     4
  5
37C
 10
-1025.578147
 20
1453.261749
 30
0.0
 11
-1025.578147
 21
1538.461751
 31
0.0
  0
ARC
  8
1
  6
CONTINUOUS
 62
     4
  5
37D
 10
-1222.37815
 20
1538.461751
 30
0.0
 40
18.0
 50
0.0
 51
90.0
  0
ARC
  8
1
  6
CONTINUOUS
 62
     4
  5
37E
 10
-1157.578149
 20
1538.461751
 30
0.0
 40
18.0
 50
90.0
 51
180.0
  0
LINE
  8
1
  6
CONTINUOUS
 62
     4
  5
37F
 10
-1204.37815
 20
1453.261749
 30
0.0
 11
-1204.37815
 21
1538.461751
 31
0.0
  0
LINE
  8
1
  6
CONTINUOUS
 62
     4
  5
380
 10
-1175.57815
 20
1453.261749
 30
0.0
 11
-1175.57815
 21
1538.861751
 31
0.0
  0
LINE
  8
1
  6
CONTINUOUS
 62
     4
  5
381
 10
-1307.578152
 20
1556.461751
 30
0.0
 11
-1222.37815
 21
1556.461751
 31
0.0
  0
ARC
  8
1
  6
CONTINUOUS
 62
     4
  5
382
 10
-1307.578152
 20
1538.461751
 30
0.0
 40
18.0
 50
90.0
 51
180.0
  0
ARC
  8
1
  6
CONTINUOUS
 62
     4
  5
383
 10
-1372.378153
 20
1538.461751
 30
0.0
 40
18.0
 50
0.0
 51
90.0
  0
LINE
  8
1
  6
CONTINUOUS
 62
     4
  5
384
 10
-648.578145
 20
1119.861751
 30
0.0
 11
-648.578145
 21
1119.861751
 31
0.0
  0
ARC
  8
1
  6
CONTINUOUS
 62
     4
  5
385
 10
-649.798926
 20
1115.361751
 30
0.0
 40
1.0
 50
270.500007
 51
0.0
  0
LINE
  8
1
  6
CONTINUOUS
 62
     4
  5
386
 10
-648.569419
 20
1119.861789
 30
0.0
 11
-648.798926
 21
1119.859786
 31
0.0
  0
ARC
  8
1
  6
CONTINUOUS
 62
     4
  5
387
 10
-648.578145
 20
1120.861751
 30
0.0
 40
1.0
 50
270.500007
 51
0.00004
  0
LINE
  8
1
  6
CONTINUOUS
 62
     4
  5
388
 10
-649.7902
 20
1114.361789
 30
0.0
 11
-647.578145
 21
1114.361789
 31
0.0
  0
ARC
  8
1
  6
CONTINUOUS
 62
     4
  5
389
 10
-661.578145
 20
1120.861751
 30
0.0
 40
14.0
 50
179.999999
 51
267.000007
  0
LINE
  8
1
  6
CONTINUOUS
 62
     4
  5
38A
 10
-662.310849
 20
1106.880938
 30
0.0
 11
-654.328145
 21
1106.462582
 31
0.0
  0
ARC
  8
1
  6
CONTINUOUS
 62
     4
  5
38B
 10
-654.328145
 20
1108.214984
 30
0.0
 40
1.75
 50
270.000007
 51
359.999999
  0
LINE
  8
1
  6
CONTINUOUS
 62
     4
  5
38C
 10
-649.7902
 20
1114.361789
 30
0.0
 11
-652.578145
 21
1114.337459
 31
0.0
  0
LINE
  8
5
  6
CONTINUOUS
 62
     1
  5
38D
 10
-609.029125
 20
1605.50535
 30
0.0
 11
-609.22085
 21
1605.562284
 31
0.0
  0
LINE
  8
5
  6
CONTINUOUS
 62
     3
  5
38E
 10
-608.578145
 20
1562.861751
 30
0.0
 11
-608.578145
 21
1519.011999
 31
0.0
  0
LINE
  8
5
  6
CONTINUOUS
 62
     3
  5
38F
 10
-609.220851
 20
1535.23182
 30
0.0
 11
-611.526237
 21
1539.261771
 31
0.0
  0
LINE
  8
5
  6
CONTINUOUS
 62
     3
  5
390
 10
-609.220851
 20
1535.23182
 30
0.0
 11
-609.220851
 21
1548.482009
 31
0.0
  0
ARC
  8
5
  6
CONTINUOUS
 62
     3
  5
391
 10
-465.427023
 20
1562.861751
 30
0.0
 40
150.0
 50
180.000002
 51
186.032251
  0
LINE
  8
5
  6
CONTINUOUS
 62
     3
  5
392
 10
-614.235714
 20
1543.994486
 30
0.0
 11
-614.235714
 21
1562.861751
 31
0.0
  0
ARC
  8
5
  6
CONTINUOUS
 62
     3
  5
393
 10
-630.235706
 20
1544.431565
 30
0.0
 40
20.422645
 50
20.327555
 51
21.115259
  0
LINE
  8
5
  6
CONTINUOUS
 62
     3
  5
394
 10
-609.220851
 20
1548.482009
 30
0.0
 11
-611.084942
 21
1551.52612
 31
0.0
  0
ARC
  8
5
  6
CONTINUOUS
 62
     3
  5
395
 10
-592.330172
 20
1546.512475
 30
0.0
 40
20.422645
 50
165.169196
 51
200.034469
  0
ARC
  8
5
  6
CONTINUOUS
 62
     3
  5
396
 10
-611.620462
 20
1551.620287
 30
0.0
 40
0.46757
 50
21.115259
 51
165.169196
  0
ARC
  8
5
  6
CONTINUOUS
 62
     3
  5
397
 10
-465.427023
 20
1562.861751
 30
0.0
 40
150.0
 50
173.967749
 51
179.999998
  0
LINE
  8
5
  6
CONTINUOUS
 62
     3
  5
398
 10
-608.578145
 20
1562.861751
 30
0.0
 11
-608.578145
 21
1606.711503
 31
0.0
  0
LINE
  8
5
  6
CONTINUOUS
 62
     3
  5
399
 10
-614.235714
 20
1581.729016
 30
0.0
 11
-614.235714
 21
1562.861751
 31
0.0
  0
ARC
  8
5
  6
CONTINUOUS
 62
     4
  5
39A
 10
-465.427023
 20
1562.861751
 30
0.0
 40
149.8
 50
163.460863
 51
169.727304
  0
ARC
  8
1
  6
CONTINUOUS
 62
     4
  5
39B
 10
-649.798926
 20
1576.361751
 30
0.0
 40
1.0
 50
0.0
 51
89.499993
  0
LINE
  8
1
  6
CONTINUOUS
 62
     4
  5
39C
 10
-648.569419
 20
1571.861713
 30
0.0
 11
-648.798926
 21
1571.863716
 31
0.0
  0
ARC
  8
1
  6
CONTINUOUS
 62
     4
  5
39D
 10
-648.578145
 20
1570.861751
 30
0.0
 40
1.0
 50
359.99996
 51
89.499993
  0
ARC
  8
1
  6
CONTINUOUS
 62
     4
  5
39E
 10
-661.578145
 20
1570.861751
 30
0.0
 40
14.0
 50
92.999993
 51
180.000001
  0
LINE
  8
1
  6
CONTINUOUS
 62
     4
  5
39F
 10
-662.310849
 20
1584.842565
 30
0.0
 11
-654.328145
 21
1585.26092
 31
0.0
  0
ARC
  8
1
  6
CONTINUOUS
 62
     4
  5
3A0
 10
-654.328145
 20
1583.508519
 30
0.0
 40
1.75
 50
0.000001
 51
89.999993
  0
LINE
  8
1
  6
CONTINUOUS
 62
     4
  5
3A1
 10
-649.7902
 20
1577.361713
 30
0.0
 11
-652.578145
 21
1577.386043
 31
0.0
  0
LINE
  8
1
  6
CONTINUOUS
 62
     4
  5
3A2
 10
-649.7902
 20
1577.361713
 30
0.0
 11
-647.578145
 21
1577.361713
 31
0.0
  0
LINE
  8
1
  6
CONTINUOUS
 62
     4
  5
3A3
 10
-647.578145
 20
1577.361713
 30
0.0
 11
-647.578145
 21
1114.361789
 31
0.0
  0
LINE
  8
1
  6
CONTINUOUS
 62
     4
  5
3A4
 10
-648.798926
 20
1576.361751
 30
0.0
 11
-648.798926
 21
1115.361751
 31
0.0
  0
LINE
  8
1
  6
CONTINUOUS
 62
     4
  5
3A5
 10
-675.578145
 20
1570.861751
 30
0.0
 11
-675.578145
 21
1120.861751
 31
0.0
  0
LINE
  8
1
  6
CONTINUOUS
 62
     4
  5
3A6
 10
-652.578145
 20
1583.508519
 30
0.0
 11
-652.578145
 21
1108.214984
 31
0.0
  0
LINE
  8
1
  6
CONTINUOUS
 62
     4
  5
3A7
 10
-647.578145
 20
1576.861751
 30
0.0
 11
-619.108741
 21
1577.358686
 31
0.0
  0
LINE
  8
1
  6
CONTINUOUS
 62
     4
  5
3A8
 10
-647.578145
 20
1548.861751
 30
0.0
 11
-619.108741
 21
1548.364816
 31
0.0
  0
ARC
  8
1
  6
CONTINUOUS
 62
     4
  5
3A9
 10
-619.196003
 20
1543.365577
 30
0.0
 40
5.0
 50
7.225903
 51
89.0
  0
ARC
  8
1
  6
CONTINUOUS
 62
     4
  5
3AA
 10
-619.196003
 20
1582.357925
 30
0.0
 40
5.0
 50
271.0
 51
352.774097
  0
ARC
  8
1
  6
CONTINUOUS
 62
     4
  5
3AB
 10
-465.427023
 20
1562.861751
 30
0.0
 40
150.0
 50
163.460863
 51
172.774094
  0
ARC
  8
1
  6
CONTINUOUS
 62
     4
  5
3AC
 10
-606.344975
 20
1604.708269
 30
0.0
 40
3.0
 50
90.999997
 51
163.460863
  0
LINE
  8
1
  6
CONTINUOUS
 62
     4
  5
3AD
 10
-597.578145
 20
1607.861751
 30
0.0
 11
-597.578145
 21
1517.861751
 31
0.0
  0
LINE
  8
1
  6
CONTINUOUS
 62
     4
  5
3AE
 10
-597.578145
 20
1607.861751
 30
0.0
 11
-606.397332
 21
1607.707812
 31
0.0
  0
LINE
  8
1
  6
CONTINUOUS
 62
     4
  5
3AF
 10
-597.578145
 20
1517.861751
 30
0.0
 11
-606.397332
 21
1518.015691
 31
0.0
  0
ARC
  8
1
  6
CONTINUOUS
 62
     4
  5
3B0
 10
-606.344975
 20
1521.015234
 30
0.0
 40
3.0
 50
196.539137
 51
269.000003
  0
ARC
  8
1
  6
CONTINUOUS
 62
     4
  5
3B1
 10
-465.427023
 20
1562.861751
 30
0.0
 40
150.0
 50
187.225906
 51
196.539137
  0
LINE
  8
1
  6
CONTINUOUS
 62
     4
  5
3B2
 10
-647.578145
 20
1114.861751
 30
0.0
 11
-619.108741
 21
1114.364816
 31
0.0
  0
LINE
  8
1
  6
CONTINUOUS
 62
     4
  5
3B3
 10
-647.578145
 20
1142.861751
 30
0.0
 11
-619.108741
 21
1143.358687
 31
0.0
  0
ARC
  8
1
  6
CONTINUOUS
 62
     4
  5
3B4
 10
-619.196003
 20
1148.357925
 30
0.0
 40
5.0
 50
271.0
 51
352.774097
  0
ARC
  8
1
  6
CONTINUOUS
 62
     4
  5
3B5
 10
-465.427023
 20
1128.861751
 30
0.0
 40
150.0
 50
163.460863
 51
172.774094
  0
ARC
  8
1
  6
CONTINUOUS
 62
     4
  5
3B6
 10
-606.344975
 20
1170.708269
 30
0.0
 40
3.0
 50
90.999997
 51
163.460863
  0
LINE
  8
1
  6
CONTINUOUS
 62
     4
  5
3B7
 10
-597.578145
 20
1173.861751
 30
0.0
 11
-606.397332
 21
1173.707812
 31
0.0
  0
LINE
  8
1
  6
CONTINUOUS
 62
     4
  5
3B8
 10
-597.578145
 20
1083.861751
 30
0.0
 11
-597.578145
 21
1173.861751
 31
0.0
  0
LINE
  8
1
  6
CONTINUOUS
 62
     4
  5
3B9
 10
-597.578145
 20
1083.861751
 30
0.0
 11
-606.397332
 21
1084.015691
 31
0.0
  0
ARC
  8
1
  6
CONTINUOUS
 62
     4
  5
3BA
 10
-606.344975
 20
1087.015234
 30
0.0
 40
3.0
 50
196.539137
 51
269.000003
  0
ARC
  8
1
  6
CONTINUOUS
 62
     4
  5
3BB
 10
-465.427023
 20
1128.861751
 30
0.0
 40
150.0
 50
187.225906
 51
196.539137
  0
ARC
  8
1
  6
CONTINUOUS
 62
     4
  5
3BC
 10
-619.196003
 20
1109.365578
 30
0.0
 40
5.0
 50
7.225903
 51
89.0
  0
ARC
  8
5
  6
CONTINUOUS
 62
     6
  5
3BD
 10
-1339.978152
 20
1562.861751
 30
0.0
 40
45.000001
 50
29.87
 51
150.13
  0
ARC
  8
5
  6
CONTINUOUS
 62
     6
  5
3BE
 10
-1339.978152
 20
1562.861751
 30
0.0
 40
45.000001
 50
288.68
 51
351.82
  0
ARC
  8
5
  6
CONTINUOUS
 62
     6
  5
3BF
 10
-1339.978152
 20
1562.861751
 30
0.0
 40
45.000001
 50
188.18
 51
251.32
  0
ARC
  8
5
  6
CONTINUOUS
 62
     6
  5
3C0
 10
-1039.978148
 20
1562.861751
 30
0.0
 40
45.000001
 50
188.18
 51
251.32
  0
ARC
  8
5
  6
CONTINUOUS
 62
     6
  5
3C1
 10
-1039.978148
 20
1562.861751
 30
0.0
 40
45.000001
 50
288.68
 51
351.82
  0
ARC
  8
5
  6
CONTINUOUS
 62
     6
  5
3C2
 10
-1039.978148
 20
1562.861751
 30
0.0
 40
45.000001
 50
29.87
 51
150.13
  0
ARC
  8
5
  6
CONTINUOUS
 62
     6
  5
3C3
 10
-1039.978148
 20
1128.861745
 30
0.0
 40
45.000001
 50
8.18
 51
71.32
  0
ARC
  8
5
  6
CONTINUOUS
 62
     6
  5
3C4
 10
-1039.978148
 20
1128.861745
 30
0.0
 40
45.000001
 50
108.68
 51
171.82
  0
ARC
  8
5
  6
CONTINUOUS
 62
     6
  5
3C5
 10
-1039.978148
 20
1128.861745
 30
0.0
 40
45.000001
 50
209.87
 51
330.13
  0
ARC
  8
5
  6
CONTINUOUS
 62
     6
  5
3C6
 10
-1339.978152
 20
1128.861745
 30
0.0
 40
45.000001
 50
209.87
 51
330.13
  0
ARC
  8
5
  6
CONTINUOUS
 62
     6
  5
3C7
 10
-1339.978152
 20
1128.861745
 30
0.0
 40
45.000001
 50
108.68
 51
171.82
  0
ARC
  8
5
  6
CONTINUOUS
 62
     6
  5
3C8
 10
-1339.978152
 20
1128.861745
 30
0.0
 40
45.000001
 50
8.18
 51
71.32
  0
LINE
  8
150
  6
CONTINUOUS
 62
    15
  5
3C9
 10
-1427.101012
 20
841.423711
 30
0.0
 11
-1427.101012
 21
839.423711
 31
0.0
  0
LINE
  8
150
  6
CONTINUOUS
 62
    15
  5
3CA
 10
-1777.351012
 20
839.423711
 30
0.0
 11
-376.351012
 21
839.423711
 31
0.0
  0
LINE
  8
150
  6
CONTINUOUS
 62
    15
  5
3CB
 10
-1777.351012
 20
841.423711
 30
0.0
 11
-376.351012
 21
841.423711
 31
0.0
  0
POLYLINE
  8
50
  6
CONTINUOUS
 62
     5
  5
3CC
 66
     1
 10
0.0
 20
0.0
 30
0.0
 70
     1
  0
VERTEX
  8
50
  6
CONTINUOUS
 62
     5
  5
3CD
 10
-673.834579
 20
943.330058
 30
0.0
  0
VERTEX
  8
50
  6
CONTINUOUS
 62
     5
  5
3CE
 10
-398.006345
 20
943.330058
 30
0.0
  0
VERTEX
  8
50
  6
CONTINUOUS
 62
     5
  5
3CF
 10
-398.006345
 20
860.686858
 30
0.0
  0
VERTEX
  8
50
  6
CONTINUOUS
 62
     5
  5
3D0
 10
-673.834579
 20
860.686858
 30
0.0
  0
SEQEND
  8
50
  6
CONTINUOUS
 62
     5
  5
3D1
  0
TEXT
  8
100
  6
CENTER
 62
     3
  5
3D2
 10
-668.049555
 20
920.256906
 30
0.0
 40
12.0
  1
○製品仕様
 41
0.837
  7
1
 72
     5
 11
-608.049555
 21
920.256906
 31
0.0
  0
TEXT
  8
100
  6
CENTER
 62
     3
  5
3D3
 10
-668.049555
 20
896.256906
 30
0.0
 40
12.0
  1
　材質　本体ブラケット共：ポリプロピレン製
 41
0.837
  7
1
 72
     5
 11
-416.049555
 21
896.256906
 31
0.0
  0
TEXT
  8
100
  6
CENTER
 62
     3
  5
3D4
 10
-668.049555
 20
884.256906
 30
0.0
 40
12.0
  1
　色　　レッド、アイボリー、ブラウン
 41
0.837
  7
1
 72
     5
 11
-452.049555
 21
884.256906
 31
0.0
  0
TEXT
  8
100
  6
CENTER
 62
     3
  5
3D5
 10
-668.049555
 20
872.256906
 30
0.0
 40
12.0
  1
　重量　1.7Kg
 41
0.6045
  7
1
 72
     5
 11
-590.049555
 21
872.256906
 31
0.0
  0
TEXT
  8
100
  6
CENTER
 62
     3
  5
3D6
 10
-945.947384
 20
1600.65036
 30
0.0
 40
9.0
  1
ビス穴中心線
 41
0.837
  7
1
 72
     5
 11
-891.947384
 21
1600.65036
 31
0.0
  0
TEXT
  8
100
  6
CENTER
 62
     3
  5
3D7
 10
-1074.067259
 20
1598.136009
 30
0.0
 40
9.0
  1
ビス穴中心線
 50
90.0
 41
0.837
  7
1
 72
     5
 11
-1074.067259
 21
1652.136009
 31
0.0
  0
LINE
  8
1
  6
CONTINUOUS
 62
     2
  5
3D8
 10
-492.578145
 20
1607.861751
 30
0.0
 11
-592.578145
 21
1607.861751
 31
0.0
  0
LINE
  8
1
  6
CONTINUOUS
 62
     2
  5
3D9
 10
-492.578145
 20
1083.861751
 30
0.0
 11
-592.578145
 21
1083.861751
 31
0.0
  0
LINE
  8
1
  6
CONTINUOUS
 62
     2
  5
3DA
 10
-542.578145
 20
1517.861751
 30
0.0
 11
-592.578145
 21
1517.861751
 31
0.0
  0
LINE
  8
1
  6
CONTINUOUS
 62
     2
  5
3DB
 10
-542.578145
 20
1173.861751
 30
0.0
 11
-592.578145
 21
1173.861751
 31
0.0
  0
CIRCLE
  8
1
  6
CONTINUOUS
 62
     2
  5
3DC
 10
-492.578145
 20
1607.861751
 30
0.0
 40
1.0
  0
CIRCLE
  8
1
  6
CONTINUOUS
 62
     2
  5
3DD
 10
-492.578145
 20
1083.861751
 30
0.0
 40
1.0
  0
CIRCLE
  8
1
  6
CONTINUOUS
 62
     2
  5
3DE
 10
-542.578145
 20
1083.861751
 30
0.0
 40
1.0
  0
CIRCLE
  8
1
  6
CONTINUOUS
 62
     2
  5
3DF
 10
-542.578145
 20
1173.861751
 30
0.0
 40
1.0
  0
CIRCLE
  8
1
  6
CONTINUOUS
 62
     2
  5
3E0
 10
-542.578145
 20
1517.861751
 30
0.0
 40
1.0
  0
CIRCLE
  8
1
  6
CONTINUOUS
 62
     2
  5
3E1
 10
-542.578145
 20
1607.861751
 30
0.0
 40
1.0
  0
TEXT
  8
1
  6
CONTINUOUS
 62
     2
  5
3E2
 10
-492.578145
 20
1336.111751
 30
0.0
 40
13.0
  1
524
 50
90.0
 41
0.5
  7
1
 72
     5
 11
-492.578145
 21
1355.611751
 31
0.0
  0
LINE
  8
1
  6
CONTINUOUS
 62
     2
  5
3E3
 10
-492.578145
 20
1607.861751
 30
0.0
 11
-492.578145
 21
1083.861751
 31
0.0
  0
TEXT
  8
1
  6
CONTINUOUS
 62
     2
  5
3E4
 10
-542.578145
 20
1122.361751
 30
0.0
 40
13.0
  1
90
 50
90.0
 41
0.5
  7
1
 72
     5
 11
-542.578145
 21
1135.361751
 31
0.0
  0
LINE
  8
1
  6
CONTINUOUS
 62
     2
  5
3E5
 10
-542.578145
 20
1083.861751
 30
0.0
 11
-542.578145
 21
1173.861751
 31
0.0
  0
TEXT
  8
1
  6
CONTINUOUS
 62
     2
  5
3E6
 10
-542.578145
 20
1336.111751
 30
0.0
 40
13.0
  1
344
 50
90.0
 41
0.5
  7
1
 72
     5
 11
-542.578145
 21
1355.611751
 31
0.0
  0
LINE
  8
1
  6
CONTINUOUS
 62
     2
  5
3E7
 10
-542.578145
 20
1173.861751
 30
0.0
 11
-542.578145
 21
1517.861751
 31
0.0
  0
TEXT
  8
1
  6
CONTINUOUS
 62
     2
  5
3E8
 10
-542.578145
 20
1556.361751
 30
0.0
 40
13.0
  1
90
 50
90.0
 41
0.5
  7
1
 72
     5
 11
-542.578145
 21
1569.361751
 31
0.0
  0
LINE
  8
1
  6
CONTINUOUS
 62
     2
  5
3E9
 10
-542.578145
 20
1517.861751
 30
0.0
 11
-542.578145
 21
1607.861751
 31
0.0
  0
LINE
  8
100
  6
CENTER
 62
     3
  5
3EA
 10
-680.578145
 20
1570.861751
 30
0.0
 11
-647.578745
 21
1570.861751
 31
0.0
  0
LINE
  8
100
  6
CENTER
 62
     3
  5
3EB
 10
-661.578145
 20
1546.553698
 30
0.0
 11
-661.578145
 21
1595.9663
 31
0.0
  0
ARC
  8
1
  6
DOT
 62
     5
  5
3EC
 10
-661.578145
 20
1570.86055
 30
0.0
 40
14.0
 50
93.000002
 51
267.000007
  0
LINE
  8
1
  6
DOT
 62
     5
  5
3ED
 10
-662.310849
 20
1584.841364
 30
0.0
 11
-654.328145
 21
1585.25972
 31
0.0
  0
ARC
  8
1
  6
DOT
 62
     5
  5
3EE
 10
-654.328145
 20
1583.507318
 30
0.0
 40
1.75
 50
272.999984
 51
89.999993
  0
ARC
  8
1
  6
DOT
 62
     5
  5
3EF
 10
-654.328145
 20
1558.213783
 30
0.0
 40
1.75
 50
270.000007
 51
87.000016
  0
LINE
  8
1
  6
DOT
 62
     5
  5
3F0
 10
-662.310849
 20
1556.879737
 30
0.0
 11
-654.328145
 21
1556.461381
 31
0.0
  0
LINE
  8
100
  6
CENTER
 62
     3
  5
3F1
 10
-680.578145
 20
1420.861751
 30
0.0
 11
-647.578745
 21
1420.861751
 31
0.0
  0
LINE
  8
100
  6
CENTER
 62
     3
  5
3F2
 10
-661.578145
 20
1396.553698
 30
0.0
 11
-661.578145
 21
1445.9663
 31
0.0
  0
ARC
  8
1
  6
DOT
 62
     5
  5
3F3
 10
-661.578145
 20
1420.86055
 30
0.0
 40
14.0
 50
93.000002
 51
267.000007
  0
LINE
  8
1
  6
DOT
 62
     5
  5
3F4
 10
-662.310849
 20
1434.841364
 30
0.0
 11
-654.328145
 21
1435.25972
 31
0.0
  0
ARC
  8
1
  6
DOT
 62
     5
  5
3F5
 10
-654.328145
 20
1433.507318
 30
0.0
 40
1.75
 50
272.999984
 51
89.999993
  0
ARC
  8
1
  6
DOT
 62
     5
  5
3F6
 10
-654.328145
 20
1408.213783
 30
0.0
 40
1.75
 50
270.000007
 51
87.000016
  0
LINE
  8
1
  6
DOT
 62
     5
  5
3F7
 10
-662.310849
 20
1406.879737
 30
0.0
 11
-654.328145
 21
1406.461381
 31
0.0
  0
LINE
  8
100
  6
CENTER
 62
     3
  5
3F8
 10
-680.578145
 20
1270.861751
 30
0.0
 11
-647.578745
 21
1270.861751
 31
0.0
  0
LINE
  8
100
  6
CENTER
 62
     3
  5
3F9
 10
-661.578145
 20
1246.553698
 30
0.0
 11
-661.578145
 21
1295.9663
 31
0.0
  0
ARC
  8
1
  6
DOT
 62
     5
  5
3FA
 10
-661.578145
 20
1270.86055
 30
0.0
 40
14.0
 50
93.000002
 51
267.000007
  0
LINE
  8
1
  6
DOT
 62
     5
  5
3FB
 10
-662.310849
 20
1284.841364
 30
0.0
 11
-654.328145
 21
1285.25972
 31
0.0
  0
ARC
  8
1
  6
DOT
 62
     5
  5
3FC
 10
-654.328145
 20
1283.507318
 30
0.0
 40
1.75
 50
272.999984
 51
89.999993
  0
ARC
  8
1
  6
DOT
 62
     5
  5
3FD
 10
-654.328145
 20
1258.213783
 30
0.0
 40
1.75
 50
270.000007
 51
87.000016
  0
LINE
  8
1
  6
DOT
 62
     5
  5
3FE
 10
-662.310849
 20
1256.879737
 30
0.0
 11
-654.328145
 21
1256.461381
 31
0.0
  0
LINE
  8
100
  6
CENTER
 62
     3
  5
3FF
 10
-680.578145
 20
1120.861751
 30
0.0
 11
-647.578745
 21
1120.861751
 31
0.0
  0
LINE
  8
100
  6
CENTER
 62
     3
  5
400
 10
-661.578145
 20
1096.553697
 30
0.0
 11
-661.578145
 21
1145.9663
 31
0.0
  0
ARC
  8
1
  6
DOT
 62
     5
  5
401
 10
-661.578145
 20
1120.86055
 30
0.0
 40
14.0
 50
93.000002
 51
267.000007
  0
LINE
  8
1
  6
DOT
 62
     5
  5
402
 10
-662.310849
 20
1134.841364
 30
0.0
 11
-654.328145
 21
1135.259719
 31
0.0
  0
ARC
  8
1
  6
DOT
 62
     5
  5
403
 10
-654.328145
 20
1133.507318
 30
0.0
 40
1.75
 50
272.999984
 51
89.999993
  0
ARC
  8
1
  6
DOT
 62
     5
  5
404
 10
-654.328145
 20
1108.213782
 30
0.0
 40
1.75
 50
270.000007
 51
87.000016
  0
LINE
  8
1
  6
DOT
 62
     5
  5
405
 10
-662.310849
 20
1106.879737
 30
0.0
 11
-654.328145
 21
1106.461381
 31
0.0
  0
LINE
  8
100
  6
CONTINUOUS
 62
     3
  5
406
 10
-1819.351012
 20
1791.98734
 30
0.0
 11
-334.351012
 21
1791.98734
 31
0.0
  0
LINE
  8
100
  6
CONTINUOUS
 62
     3
  5
407
 10
-1819.351012
 20
741.98734
 30
0.0
 11
-1819.351012
 21
1791.98734
 31
0.0
  0
LINE
  8
100
  6
CONTINUOUS
 62
     3
  5
408
 10
-334.351012
 20
1791.98734
 30
0.0
 11
-334.351012
 21
741.98734
 31
0.0
  0
LINE
  8
100
  6
CONTINUOUS
 62
     3
  5
409
 10
-334.351012
 20
741.98734
 30
0.0
 11
-1819.351012
 21
741.98734
 31
0.0
  0
TEXT
  8
150
  6
CONTINUOUS
 62
    14
  5
40A
 10
-606.306147
 20
787.328318
 30
0.0
 40
6.822895
  1
一級建築士　工学博士　松塚　展門
 41
0.837
  7
1
 72
     5
 11
-497.139828
 21
787.328318
 31
0.0
  0
TEXT
  8
150
  6
CONTINUOUS
 62
    14
  5
40B
 10
-652.062318
 20
797.303142
 30
0.0
 40
10.0
  1
松屋産業株式会社・松屋総合研究所
 41
0.837
  7
1
 72
     5
 11
-492.062318
 21
797.303142
 31
0.0
  0
ENDSEC
  0
EOF
