  0
SECTION
  2
HEADER
  9
$ACADVER
  1
AC1009
  9
$INSBASE
 10
0.0
 20
0.0
 30
0.0
  9
$EXTMIN
 10
-170.0
 20
1661.0
 30
0.0
  9
$EXTMAX
 10
2477.0
 20
5300.0
 30
0.0
  9
$LIMMIN
 10
-100.0
 20
1661.0
  9
$LIMMAX
 10
2470.0
 20
5301.0
  9
$ORTHOMODE
 70
     0
  9
$REGENMODE
 70
     1
  9
$FILLMODE
 70
     1
  9
$QTEXTMODE
 70
     0
  9
$MIRRTEXT
 70
     1
  9
$DRAGMODE
 70
     2
  9
$LTSCALE
 40
10.0
  9
$OSMODE
 70
     0
  9
$ATTMODE
 70
     1
  9
$TEXTSIZE
 40
0.2
  9
$TRACEWID
 40
0.05
  9
$TEXTSTYLE
  7
STANDARD
  9
$CLAYER
  8
0
  9
$CELTYPE
  6
CONTINUOUS
  9
$CECOLOR
 62
   256
  9
$DIMSCALE
 40
1.0
  9
$DIMASZ
 40
0.18
  9
$DIMEXO
 40
0.0625
  9
$DIMDLI
 40
0.38
  9
$DIMRND
 40
0.0
  9
$DIMDLE
 40
0.0
  9
$DIMEXE
 40
0.18
  9
$DIMTP
 40
0.0
  9
$DIMTM
 40
0.0
  9
$DIMTXT
 40
0.18
  9
$DIMCEN
 40
0.09
  9
$DIMTSZ
 40
0.0
  9
$DIMTOL
 70
     0
  9
$DIMLIM
 70
     0
  9
$DIMTIH
 70
     1
  9
$DIMTOH
 70
     1
  9
$DIMSE1
 70
     0
  9
$DIMSE2
 70
     0
  9
$DIMTAD
 70
     0
  9
$DIMZIN
 70
     0
  9
$DIMBLK
  1

  9
$DIMASO
 70
     1
  9
$DIMSHO
 70
     1
  9
$DIMPOST
  1

  9
$DIMAPOST
  1

  9
$DIMALT
 70
     0
  9
$DIMALTD
 70
     2
  9
$DIMALTF
 40
25.4
  9
$DIMLFAC
 40
1.0
  9
$DIMTOFL
 70
     0
  9
$DIMTVP
 40
0.0
  9
$DIMTIX
 70
     0
  9
$DIMSOXD
 70
     0
  9
$DIMSAH
 70
     0
  9
$DIMBLK1
  1

  9
$DIMBLK2
  1

  9
$DIMSTYLE
  2
STANDARD
  9
$DIMCLRD
 70
     0
  9
$DIMCLRE
 70
     0
  9
$DIMCLRT
 70
     0
  9
$DIMTFAC
 40
1.0
  9
$DIMGAP
 40
0.09
  9
$LUNITS
 70
     2
  9
$LUPREC
 70
     4
  9
$AXISMODE
 70
     0
  9
$AXISUNIT
 10
0.0
 20
0.0
  9
$SKETCHINC
 40
0.1
  9
$FILLETRAD
 40
0.0
  9
$AUNITS
 70
     0
  9
$AUPREC
 70
     0
  9
$MENU
  1
acad
  9
$ELEVATION
 40
0.0
  9
$PELEVATION
 40
0.0
  9
$THICKNESS
 40
0.0
  9
$LIMCHECK
 70
     0
  9
$BLIPMODE
 70
     1
  9
$CHAMFERA
 40
0.0
  9
$CHAMFERB
 40
0.0
  9
$SKPOLY
 70
     0
  9
$TDCREATE
 40
0.000000000
  9
$TDUPDATE
 40
0.000000000
  9
$TDINDWG
 40
0.0000000000
  9
$TDUSRTIMER
 40
0.0000000000
  9
$USRTIMER
 70
     1
  9
$ANGBASE
 50
0.0
  9
$ANGDIR
 70
     0
  9
$PDMODE
 70
     0
  9
$PDSIZE
 40
0.0
  9
$PLINEWID
 40
0.0
  9
$COORDS
 70
     0
  9
$SPLFRAME
 70
     0
  9
$SPLINETYPE
 70
     6
  9
$SPLINESEGS
 70
     8
  9
$ATTDIA
 70
     0
  9
$ATTREQ
 70
     1
  9
$HANDLING
 70
     1
  9
$HANDSEED
  5
5F1
  9
$SURFTAB1
 70
     6
  9
$SURFTAB2
 70
     6
  9
$SURFTYPE
 70
     6
  9
$SURFU
 70
     6
  9
$SURFV
 70
     6
  9
$UCSNAME
  2

  9
$UCSORG
 10
0.0
 20
0.0
 30
0.0
  9
$UCSXDIR
 10
1.0
 20
0.0
 30
0.0
  9
$UCSYDIR
 10
0.0
 20
1.0
 30
0.0
  9
$PUCSNAME
  2

  9
$PUCSORG
 10
0.0
 20
0.0
 30
0.0
  9
$PUCSXDIR
 10
1.0
 20
0.0
 30
0.0
  9
$PUCSYDIR
 10
0.0
 20
1.0
 30
0.0
  9
$USERI1
 70
     0
  9
$USERI2
 70
     0
  9
$USERI3
 70
     0
  9
$USERI4
 70
     0
  9
$USERI5
 70
     0
  9
$USERR1
 40
0.0
  9
$USERR2
 40
0.0
  9
$USERR3
 40
0.0
  9
$USERR4
 40
0.0
  9
$USERR5
 40
0.0
  9
$WORLDVIEW
 70
     1
  9
$SHADEDGE
 70
     3
  9
$SHADEDIF
 70
    70
  9
$TILEMODE
 70
     1
  9
$MAXACTVP
 70
    16
  9
$PINSBASE
 10
0.0
 20
0.0
 30
0.0
  9
$PLIMCHECK
 70
     0
  9
$PEXTMIN
 10
1.000000E+20
 20
1.000000E+20
 30
1.000000E+20
  9
$PEXTMAX
 10
-1.000000E+20
 20
-1.000000E+20
 30
-1.000000E+20
  9
$PLIMMIN
 10
0.0
 20
0.0
  9
$PLIMMAX
 10
12.0
 20
9.0
  9
$UNITMODE
 70
     0
  9
$VISRETAIN
 70
     0
  9
$PLINEGEN
 70
     1
  9
$PSLTSCALE
 70
     0
  9
$TREEDEPTH
 70
  3020
  9
$DWGCODEPAGE
  3
dos932
  0
ENDSEC
  0
SECTION
  2
TABLES
  0
TABLE
  2
VPORT
 70
     1
  0
VPORT
  2
*ACTIVE
 70
     0
 10
0.0
 20
0.0
 11
1.0
 21
1.0
 12
1185.0
 22
3481.0
 13
0.0
 23
0.0
 14
1000.0
 24
1000.0
 15
1000.0
 25
1000.0
 16
0.0
 26
0.0
 36
1.0
 17
0.0
 27
0.0
 37
0.0
 40
3640.0
 41
0.706044
 42
50.0
 43
0.0
 44
0.0
 50
0.0
 51
0.0
 71
     0
 72
   100
 73
     1
 74
     1
 75
     0
 76
     0
 77
     0
 78
     0
  0
ENDTAB
  0
TABLE
  2
LTYPE
 70
     5
  0
LTYPE
  2
CONTINUOUS
 70
    64
  3
Solid line
 72
    65
 73
     0
 40
0.0
  0
LTYPE
  2
HIDDEN
 70
    64
  3
__ __ __ __ __ __ __ __ __ __ __ __ __ __ __ __
 72
    65
 73
     5
 40
8.0
 49
1.0
 49
-2.0
 49
2.0
 49
-2.0
 49
1.0
  0
LTYPE
  2
DOT
 70
    64
  3
. . . . . . . . . . . . . . . . . . . . . . . .
 72
    65
 73
     3
 40
1.6
 49
0.4
 49
-0.8
 49
0.4
  0
LTYPE
  2
CENTER
 70
    64
  3
____ _ ____ _ ____ _ ____ _ ____ _ ____ _ ____ 
 72
    65
 73
     5
 40
12.0
 49
5.0
 49
-0.8
 49
0.4
 49
-0.8
 49
5.0
  0
LTYPE
  2
DIVIDE
 70
    64
  3
____ . . ____ . . ____ . . ____ . . ____ . . __
 72
    65
 73
     7
 40
13.2
 49
5.0
 49
-0.8
 49
0.4
 49
-0.8
 49
0.4
 49
-0.8
 49
5.0
  0
ENDTAB
  0
TABLE
  2
LAYER
 70
    17
  0
LAYER
  2
0
 70
     0
 62
     7
  6
CONTINUOUS
  0
LAYER
  2
1
 70
     0
 62
     1
  6
CONTINUOUS
  0
LAYER
  2
2
 70
     0
 62
     1
  6
CONTINUOUS
  0
LAYER
  2
3
 70
     0
 62
     1
  6
CONTINUOUS
  0
LAYER
  2
4
 70
     0
 62
     1
  6
CONTINUOUS
  0
LAYER
  2
6
 70
     0
 62
     1
  6
CONTINUOUS
  0
LAYER
  2
10
 70
     0
 62
     1
  6
CONTINUOUS
  0
LAYER
  2
13
 70
     0
 62
     1
  6
CONTINUOUS
  0
LAYER
  2
41
 70
     0
 62
     1
  6
CONTINUOUS
  0
LAYER
  2
42
 70
     0
 62
     1
  6
CONTINUOUS
  0
LAYER
  2
43
 70
     0
 62
     1
  6
CONTINUOUS
  0
LAYER
  2
50
 70
     0
 62
     1
  6
CONTINUOUS
  0
LAYER
  2
55
 70
     0
 62
     1
  6
CONTINUOUS
  0
LAYER
  2
60
 70
     0
 62
     1
  6
CONTINUOUS
  0
LAYER
  2
100
 70
     0
 62
     1
  6
CONTINUOUS
  0
LAYER
  2
110
 70
     0
 62
     1
  6
CONTINUOUS
  0
LAYER
  2
113
 70
     0
 62
     1
  6
CONTINUOUS
  0
ENDTAB
  0
TABLE
  2
STYLE
 70
     3
  0
STYLE
  2
STANDARD
 70
     0
 40
0.0
 41
1.0
 50
0.0
 71
     0
 42
0.0
  3
txt
  4

  0
STYLE
  2
DRACAD
 70
     0
 40
1000.0
 41
1.0
 50
0.0
 71
     0
 42
1000.0
  3
txt
  4
extfont
  0
STYLE
  2
TATEDRACAD
 70
     4
 40
1000.0
 41
1.0
 50
0.0
 71
     0
 42
1000.0
  3
txt
  4
extfont
  0
ENDTAB
  0
TABLE
  2
VIEW
 70
     0
  0
ENDTAB
  0
TABLE
  2
UCS
 70
     0
  0
ENDTAB
  0
TABLE
  2
APPID
 70
     1
  0
APPID
  2
ACAD
 70
     0
  0
ENDTAB
  0
TABLE
  2
DIMSTYLE
 70
     1
  0
DIMSTYLE
  2
STANDARD
 70
     0
  3

  4

  5

  6

  7

 40
1.0
 41
0.18
 42
0.0625
 43
0.38
 44
0.18
 45
0.0
 46
0.0
 47
0.0
 48
0.0
 71
     0
 72
     0
 73
     1
 74
     1
 75
     0
 76
     0
 77
     0
 78
     0
140
0.18
141
0.09
142
0.0
143
25.4
144
1.0
145
0.0
146
1.0
147
0.09
170
     0
171
     2
172
     0
173
     0
174
     0
175
     0
176
     0
177
     0
178
     0
  0
ENDTAB
  0
ENDSEC
  0
SECTION
  2
BLOCKS
  0
ENDSEC
  0
SECTION
  2
ENTITIES
  0
LINE
  8
60
  6
CONTINUOUS
 62
     2
  5
102
 10
945.0
 20
1781.0
 30
0.0
 11
945.0
 21
1773.5
 31
0.0
  0
LINE
  8
60
  6
CONTINUOUS
 62
     2
  5
103
 10
1421.0
 20
1781.0
 30
0.0
 11
1421.0
 21
1773.5
 31
0.0
  0
CIRCLE
  8
60
  6
CONTINUOUS
 62
     2
  5
104
 10
570.0
 20
1778.5
 30
0.0
 40
2.0
  0
CIRCLE
  8
60
  6
CONTINUOUS
 62
     2
  5
105
 10
834.5
 20
1776.0
 30
0.0
 40
2.0
  0
TEXT
  8
60
  6
CONTINUOUS
 62
     1
  5
106
 10
709.5
 20
1766.5
 30
0.0
 40
33.5
  1
B
 50
90.0
 41
0.641791
  7
DRACAD
 72
     5
 11
709.5
 21
1788.0
 31
0.0
  0
TEXT
  8
60
  6
CONTINUOUS
 62
     1
  5
107
 10
1169.0
 20
1766.5
 30
0.0
 40
33.5
  1
C
 50
90.0
 41
0.641791
  7
DRACAD
 72
     5
 11
1169.0
 21
1788.0
 31
0.0
  0
TEXT
  8
60
  6
CONTINUOUS
 62
     1
  5
108
 10
1673.0
 20
1769.5
 30
0.0
 40
33.5
  1
D
 50
90.0
 41
0.641791
  7
DRACAD
 72
     5
 11
1673.0
 21
1791.0
 31
0.0
  0
CIRCLE
  8
60
  6
CONTINUOUS
 62
     2
  5
109
 10
1710.0
 20
1778.5
 30
0.0
 40
2.0
  0
CIRCLE
  8
60
  6
CONTINUOUS
 62
     2
  5
10A
 10
1539.0
 20
1776.0
 30
0.0
 40
2.0
  0
LINE
  8
60
  6
CONTINUOUS
 62
     2
  5
10B
 10
464.5
 20
1781.0
 30
0.0
 11
464.5
 21
1773.5
 31
0.0
  0
TEXT
  8
60
  6
CONTINUOUS
 62
     1
  5
10C
 10
236.5
 20
1766.5
 30
0.0
 40
33.5
  1
A
 50
90.0
 41
0.641791
  7
DRACAD
 72
     5
 11
236.5
 21
1788.0
 31
0.0
  0
LINE
  8
60
  6
CONTINUOUS
 62
     2
  5
10D
 10
1903.5
 20
1781.0
 30
0.0
 11
1903.5
 21
1773.5
 31
0.0
  0
CIRCLE
  8
60
  6
CONTINUOUS
 62
     2
  5
10E
 10
11.5
 20
3658.5
 30
0.0
 40
2.0
  0
CIRCLE
  8
60
  6
CONTINUOUS
 62
     2
  5
10F
 10
11.5
 20
3771.5
 30
0.0
 40
2.0
  0
CIRCLE
  8
60
  6
CONTINUOUS
 62
     2
  5
110
 10
9.0
 20
2763.0
 30
0.0
 40
2.0
  0
CIRCLE
  8
60
  6
CONTINUOUS
 62
     2
  5
111
 10
9.0
 20
2888.0
 30
0.0
 40
2.0
  0
CIRCLE
  8
60
  6
CONTINUOUS
 62
     2
  5
112
 10
11.5
 20
1916.0
 30
0.0
 40
2.0
  0
CIRCLE
  8
60
  6
CONTINUOUS
 62
     2
  5
113
 10
11.5
 20
2080.0
 30
0.0
 40
2.0
  0
LINE
  8
60
  6
CONTINUOUS
 62
     2
  5
114
 10
14.0
 20
1781.0
 30
0.0
 11
2354.0
 21
1781.0
 31
0.0
  0
TEXT
  8
60
  6
CONTINUOUS
 62
     1
  5
115
 10
1668.0
 20
5173.0
 30
0.0
 40
33.5
  1
D
 50
90.0
 41
0.641791
  7
DRACAD
 72
     5
 11
1668.0
 21
5194.5
 31
0.0
  0
TEXT
  8
60
  6
CONTINUOUS
 62
     1
  5
116
 10
1203.0
 20
5173.0
 30
0.0
 40
33.5
  1
C
 50
90.0
 41
0.641791
  7
DRACAD
 72
     5
 11
1203.0
 21
5194.5
 31
0.0
  0
TEXT
  8
60
  6
CONTINUOUS
 62
     1
  5
117
 10
702.0
 20
5173.0
 30
0.0
 40
33.5
  1
B
 50
90.0
 41
0.641791
  7
DRACAD
 72
     5
 11
702.0
 21
5194.5
 31
0.0
  0
LINE
  8
60
  6
CONTINUOUS
 62
     2
  5
118
 10
945.0
 20
5179.5
 30
0.0
 11
945.0
 21
5184.5
 31
0.0
  0
LINE
  8
60
  6
CONTINUOUS
 62
     2
  5
119
 10
1421.0
 20
5179.5
 30
0.0
 11
1421.0
 21
5184.5
 31
0.0
  0
CIRCLE
  8
60
  6
CONTINUOUS
 62
     2
  5
11A
 10
1592.5
 20
5182.5
 30
0.0
 40
2.0
  0
CIRCLE
  8
60
  6
CONTINUOUS
 62
     2
  5
11B
 10
927.5
 20
5182.5
 30
0.0
 40
2.0
  0
CIRCLE
  8
60
  6
CONTINUOUS
 62
     2
  5
11C
 10
639.0
 20
5182.5
 30
0.0
 40
2.0
  0
TEXT
  8
60
  6
CONTINUOUS
 62
     1
  5
11D
 10
229.5
 20
5173.0
 30
0.0
 40
33.5
  1
A
 50
90.0
 41
0.641791
  7
DRACAD
 72
     5
 11
229.5
 21
5194.5
 31
0.0
  0
LINE
  8
60
  6
CONTINUOUS
 62
     2
  5
11E
 10
464.5
 20
5179.5
 30
0.0
 11
464.5
 21
5184.5
 31
0.0
  0
LINE
  8
60
  6
CONTINUOUS
 62
     2
  5
11F
 10
1903.5
 20
5179.5
 30
0.0
 11
1903.5
 21
5184.5
 31
0.0
  0
CIRCLE
  8
60
  6
CONTINUOUS
 62
     2
  5
120
 10
1886.5
 20
5182.5
 30
0.0
 40
2.0
  0
CIRCLE
  8
60
  6
CONTINUOUS
 62
     2
  5
121
 10
11.5
 20
4609.0
 30
0.0
 40
2.0
  0
CIRCLE
  8
60
  6
CONTINUOUS
 62
     2
  5
122
 10
11.5
 20
4525.5
 30
0.0
 40
2.0
  0
LINE
  8
60
  6
CONTINUOUS
 62
     2
  5
123
 10
2354.0
 20
5179.5
 30
0.0
 11
14.0
 21
5179.5
 31
0.0
  0
LINE
  8
60
  6
CONTINUOUS
 62
     2
  5
124
 10
14.0
 20
1773.5
 30
0.0
 11
14.0
 21
5184.5
 31
0.0
  0
LINE
  8
60
  6
CONTINUOUS
 62
     2
  5
125
 10
6.5
 20
5184.5
 30
0.0
 11
6.5
 21
1773.5
 31
0.0
  0
LINE
  8
60
  6
CONTINUOUS
 62
     2
  5
126
 10
6.5
 20
2633.5
 30
0.0
 11
14.0
 21
2633.5
 31
0.0
  0
LINE
  8
60
  6
CONTINUOUS
 62
     2
  5
127
 10
6.5
 20
3072.0
 30
0.0
 11
14.0
 21
3072.0
 31
0.0
  0
LINE
  8
60
  6
CONTINUOUS
 62
     2
  5
128
 10
6.5
 20
3499.0
 30
0.0
 11
14.0
 21
3499.0
 31
0.0
  0
LINE
  8
60
  6
CONTINUOUS
 62
     2
  5
129
 10
6.5
 20
3937.5
 30
0.0
 11
14.0
 21
3937.5
 31
0.0
  0
LINE
  8
60
  6
CONTINUOUS
 62
     2
  5
12A
 10
6.5
 20
4373.5
 30
0.0
 11
14.0
 21
4373.5
 31
0.0
  0
LINE
  8
60
  6
CONTINUOUS
 62
     2
  5
12B
 10
6.5
 20
2210.0
 30
0.0
 11
14.0
 21
2210.0
 31
0.0
  0
LINE
  8
60
  6
CONTINUOUS
 62
     2
  5
12C
 10
2361.5
 20
1773.5
 30
0.0
 11
6.5
 21
1773.5
 31
0.0
  0
LINE
  8
60
  6
CONTINUOUS
 62
     2
  5
12D
 10
6.5
 20
4793.0
 30
0.0
 11
14.0
 21
4793.0
 31
0.0
  0
LINE
  8
60
  6
CONTINUOUS
 62
     2
  5
12E
 10
6.5
 20
5184.5
 30
0.0
 11
2361.5
 21
5184.5
 31
0.0
  0
LINE
  8
60
  6
CONTINUOUS
 62
     2
  5
12F
 10
2354.0
 20
4974.0
 30
0.0
 11
2220.0
 21
4974.0
 31
0.0
  0
LINE
  8
60
  6
CONTINUOUS
 62
     2
  5
130
 10
2361.5
 20
1773.5
 30
0.0
 11
2361.5
 21
5184.5
 31
0.0
  0
LINE
  8
60
  6
CONTINUOUS
 62
     2
  5
131
 10
2354.0
 20
5179.5
 30
0.0
 11
2354.0
 21
1773.5
 31
0.0
  0
TEXT
  8
60
  6
CONTINUOUS
 62
     1
  5
132
 10
2114.5
 20
1769.5
 30
0.0
 40
33.5
  1
E
 50
90.0
 41
0.641791
  7
DRACAD
 72
     5
 11
2114.5
 21
1791.0
 31
0.0
  0
TEXT
  8
60
  6
CONTINUOUS
 62
     1
  5
133
 10
2114.5
 20
5175.0
 30
0.0
 40
33.5
  1
E
 50
90.0
 41
0.641791
  7
DRACAD
 72
     5
 11
2114.5
 21
5196.5
 31
0.0
  0
LINE
  8
60
  6
CONTINUOUS
 62
     2
  5
134
 10
2354.0
 20
3570.0
 30
0.0
 11
2220.0
 21
3570.0
 31
0.0
  0
LINE
  8
60
  6
CONTINUOUS
 62
     2
  5
135
 10
2354.0
 20
4967.0
 30
0.0
 11
2220.0
 21
4967.0
 31
0.0
  0
LINE
  8
60
  6
CONTINUOUS
 62
     2
  5
136
 10
2220.0
 20
4829.5
 30
0.0
 11
2288.0
 21
4829.5
 31
0.0
  0
LINE
  8
60
  6
CONTINUOUS
 62
     2
  5
137
 10
2220.0
 20
4861.0
 30
0.0
 11
2288.0
 21
4861.0
 31
0.0
  0
LINE
  8
60
  6
CONTINUOUS
 62
     2
  5
138
 10
2220.0
 20
4623.5
 30
0.0
 11
2288.0
 21
4623.5
 31
0.0
  0
LINE
  8
60
  6
CONTINUOUS
 62
     2
  5
139
 10
2220.0
 20
4535.0
 30
0.0
 11
2288.0
 21
4535.0
 31
0.0
  0
LINE
  8
60
  6
CONTINUOUS
 62
     2
  5
13A
 10
2354.0
 20
4420.0
 30
0.0
 11
2288.0
 21
4420.0
 31
0.0
  0
LINE
  8
60
  6
CONTINUOUS
 62
     2
  5
13B
 10
2220.0
 20
4107.0
 30
0.0
 11
2354.0
 21
4107.0
 31
0.0
  0
LINE
  8
60
  6
CONTINUOUS
 62
     2
  5
13C
 10
2354.0
 20
4263.5
 30
0.0
 11
2288.0
 21
4263.5
 31
0.0
  0
LINE
  8
60
  6
CONTINUOUS
 62
     2
  5
13D
 10
2220.0
 20
4293.0
 30
0.0
 11
2288.0
 21
4293.0
 31
0.0
  0
LINE
  8
60
  6
CONTINUOUS
 62
     2
  5
13E
 10
2215.0
 20
3072.0
 30
0.0
 11
2220.0
 21
3072.0
 31
0.0
  0
LINE
  8
60
  6
CONTINUOUS
 62
     2
  5
13F
 10
2215.0
 20
3499.0
 30
0.0
 11
2220.0
 21
3499.0
 31
0.0
  0
LINE
  8
60
  6
CONTINUOUS
 62
     2
  5
140
 10
2215.0
 20
3937.5
 30
0.0
 11
2220.0
 21
3937.5
 31
0.0
  0
LINE
  8
60
  6
CONTINUOUS
 62
     2
  5
141
 10
2215.0
 20
4373.5
 30
0.0
 11
2220.0
 21
4373.5
 31
0.0
  0
LINE
  8
60
  6
CONTINUOUS
 62
     2
  5
142
 10
2215.0
 20
2633.5
 30
0.0
 11
2220.0
 21
2633.5
 31
0.0
  0
LINE
  8
60
  6
CONTINUOUS
 62
     2
  5
143
 10
2215.0
 20
2210.0
 30
0.0
 11
2220.0
 21
2210.0
 31
0.0
  0
LINE
  8
60
  6
CONTINUOUS
 62
     2
  5
144
 10
2220.0
 20
1781.0
 30
0.0
 11
2220.0
 21
5179.5
 31
0.0
  0
LINE
  8
60
  6
CONTINUOUS
 62
     2
  5
145
 10
2215.0
 20
5179.5
 30
0.0
 11
2215.0
 21
1781.0
 31
0.0
  0
CIRCLE
  8
60
  6
CONTINUOUS
 62
     2
  5
146
 10
2217.0
 20
1906.0
 30
0.0
 40
2.0
  0
CIRCLE
  8
60
  6
CONTINUOUS
 62
     2
  5
147
 10
2217.0
 20
1937.5
 30
0.0
 40
2.0
  0
CIRCLE
  8
60
  6
CONTINUOUS
 62
     2
  5
148
 10
2217.0
 20
2822.0
 30
0.0
 40
2.0
  0
CIRCLE
  8
60
  6
CONTINUOUS
 62
     2
  5
149
 10
2217.0
 20
2920.5
 30
0.0
 40
2.0
  0
CIRCLE
  8
60
  6
CONTINUOUS
 62
     2
  5
14A
 10
2217.0
 20
2829.0
 30
0.0
 40
2.0
  0
CIRCLE
  8
60
  6
CONTINUOUS
 62
     2
  5
14B
 10
2217.0
 20
3671.0
 30
0.0
 40
2.0
  0
CIRCLE
  8
60
  6
CONTINUOUS
 62
     2
  5
14C
 10
2217.0
 20
3676.0
 30
0.0
 40
2.0
  0
CIRCLE
  8
60
  6
CONTINUOUS
 62
     2
  5
14D
 10
2217.0
 20
3756.5
 30
0.0
 40
2.0
  0
LINE
  8
60
  6
CONTINUOUS
 62
     2
  5
14E
 10
2215.0
 20
4793.0
 30
0.0
 11
2220.0
 21
4793.0
 31
0.0
  0
CIRCLE
  8
60
  6
CONTINUOUS
 62
     2
  5
14F
 10
2217.0
 20
4564.5
 30
0.0
 40
2.0
  0
CIRCLE
  8
60
  6
CONTINUOUS
 62
     2
  5
150
 10
2217.0
 20
4459.5
 30
0.0
 40
2.0
  0
CIRCLE
  8
60
  6
CONTINUOUS
 62
     2
  5
151
 10
2217.0
 20
4540.0
 30
0.0
 40
2.0
  0
LINE
  8
60
  6
CONTINUOUS
 62
     2
  5
152
 10
2288.0
 20
3499.0
 30
0.0
 11
2354.0
 21
3499.0
 31
0.0
  0
LINE
  8
60
  6
CONTINUOUS
 62
     2
  5
153
 10
2288.0
 20
3499.0
 30
0.0
 11
2220.0
 21
3499.0
 31
0.0
  0
LINE
  8
60
  6
CONTINUOUS
 62
     2
  5
154
 10
2220.0
 20
3499.0
 30
0.0
 11
2215.0
 21
3499.0
 31
0.0
  0
LINE
  8
60
  6
CONTINUOUS
 62
     2
  5
155
 10
2253.5
 20
4623.5
 30
0.0
 11
2253.5
 21
4829.5
 31
0.0
  0
TEXT
  8
60
  6
CONTINUOUS
 62
     2
  5
156
 10
2329.5
 20
4114.5
 30
0.0
 40
14.0
  1
用紙
 50
90.0
 41
0.837
  7
DRACAD
 72
     5
 11
2329.5
 21
4142.5
 31
0.0
  0
TEXT
  8
60
  6
CONTINUOUS
 62
     2
  5
157
 10
2329.5
 20
4271.5
 30
0.0
 40
14.0
  1
縮尺
 50
90.0
 41
0.837
  7
DRACAD
 72
     5
 11
2329.5
 21
4299.5
 31
0.0
  0
TEXT
  8
60
  6
CONTINUOUS
 62
     2
  5
158
 10
2260.5
 20
4551.5
 30
0.0
 40
14.0
  1
管理番号
 50
90.0
 41
0.837
  7
DRACAD
 72
     5
 11
2260.5
 21
4607.5
 31
0.0
  0
TEXT
  8
60
  6
CONTINUOUS
 62
     2
  5
159
 10
2275.5
 20
4840.0
 30
0.0
 40
14.0
  1
番
 50
90.0
 41
0.837
  7
DRACAD
 72
     5
 11
2275.5
 21
4854.0
 31
0.0
  0
TEXT
  8
60
  6
CONTINUOUS
 62
     2
  5
15A
 10
2249.5
 20
4315.0
 30
0.0
 40
14.0
  1
設計
 50
90.0
 41
0.837
  7
DRACAD
 72
     5
 11
2249.5
 21
4343.0
 31
0.0
  0
TEXT
  8
60
  6
CONTINUOUS
 62
     2
  5
15B
 10
2249.5
 20
4385.5
 30
0.0
 40
14.0
  1
年
 50
90.0
 41
0.837
  7
DRACAD
 72
     5
 11
2249.5
 21
4399.5
 31
0.0
  0
TEXT
  8
60
  6
CONTINUOUS
 62
     2
  5
15C
 10
2249.5
 20
4439.5
 30
0.0
 40
14.0
  1
月
 50
90.0
 41
0.837
  7
DRACAD
 72
     5
 11
2249.5
 21
4453.5
 31
0.0
  0
TEXT
  8
60
  6
CONTINUOUS
 62
     2
  5
15D
 10
2249.5
 20
4494.0
 30
0.0
 40
14.0
  1
日
 50
90.0
 41
0.837
  7
DRACAD
 72
     5
 11
2249.5
 21
4508.0
 31
0.0
  0
LINE
  8
60
  6
CONTINUOUS
 62
     2
  5
15E
 10
2220.0
 20
1979.0
 30
0.0
 11
2354.0
 21
1979.0
 31
0.0
  0
TEXT
  8
60
  6
CONTINUOUS
 62
     2
  5
15F
 10
2241.5
 20
2019.5
 30
0.0
 40
14.0
  1
備　考
 50
90.0
 41
0.837
  7
DRACAD
 72
     5
 11
2241.5
 21
2061.5
 31
0.0
  0
TEXT
  8
60
  6
CONTINUOUS
 62
     2
  5
160
 10
2352.0
 20
4458.0
 30
0.0
 40
14.0
  1
一級建築士事務所　登録Ｆ第４７５号
 50
90.0
 41
0.717429
  7
DRACAD
 72
     5
 11
2352.0
 21
4662.0
 31
0.0
  0
LINE
  8
60
  6
CONTINUOUS
 62
     2
  5
161
 10
2354.0
 20
5179.5
 30
0.0
 11
2354.0
 21
5184.5
 31
0.0
  0
TEXT
  8
60
  6
CONTINUOUS
 62
     2
  5
162
 10
2322.5
 20
4750.5
 30
0.0
 40
14.0
  1
一級建築士
 50
90.0
 41
0.538071
  7
DRACAD
 72
     5
 11
2322.5
 21
4795.5
 31
0.0
  0
TEXT
  8
60
  6
CONTINUOUS
 62
     2
  5
163
 10
2322.5
 20
4828.0
 30
0.0
 40
14.0
  1
第１０５１６４号
 50
90.0
 41
0.4185
  7
DRACAD
 72
     5
 11
2322.5
 21
4884.0
 31
0.0
  0
LINE
  8
60
  6
CONTINUOUS
 62
     2
  5
164
 10
2288.0
 20
3504.0
 30
0.0
 11
2220.0
 21
3504.0
 31
0.0
  0
LINE
  8
60
  6
CONTINUOUS
 62
     2
  5
165
 10
2288.0
 20
3504.0
 30
0.0
 11
2354.0
 21
3504.0
 31
0.0
  0
LINE
  8
60
  6
CONTINUOUS
 62
     2
  5
166
 10
2220.0
 20
3282.5
 30
0.0
 11
2354.0
 21
3282.5
 31
0.0
  0
LINE
  8
60
  6
CONTINUOUS
 62
     2
  5
167
 10
2220.0
 20
3361.0
 30
0.0
 11
2354.0
 21
3361.0
 31
0.0
  0
LINE
  8
60
  6
CONTINUOUS
 62
     2
  5
168
 10
2220.0
 20
3428.5
 30
0.0
 11
2354.0
 21
3428.5
 31
0.0
  0
TEXT
  8
60
  6
CONTINUOUS
 62
     2
  5
169
 10
2266.0
 20
3303.0
 30
0.0
 40
14.0
  1
御承認
 50
90.0
 41
0.837
  7
DRACAD
 72
     5
 11
2266.0
 21
3345.0
 31
0.0
  0
TEXT
  8
60
  6
CONTINUOUS
 62
     1
  5
16A
 10
19.0
 20
1974.75
 30
0.0
 40
21.5
  1
1
 50
90.0
 41
1.55814
  7
DRACAD
 72
     5
 11
19.0
 21
2008.25
 31
0.0
  0
TEXT
  8
60
  6
CONTINUOUS
 62
     1
  5
16B
 10
2227.0
 20
1974.75
 30
0.0
 40
21.5
  1
1
 50
90.0
 41
1.55814
  7
DRACAD
 72
     5
 11
2227.0
 21
2008.25
 31
0.0
  0
TEXT
  8
60
  6
CONTINUOUS
 62
     1
  5
16C
 10
16.0
 20
2405.75
 30
0.0
 40
21.5
  1
2
 50
90.0
 41
1.55814
  7
DRACAD
 72
     5
 11
16.0
 21
2439.25
 31
0.0
  0
TEXT
  8
60
  6
CONTINUOUS
 62
     1
  5
16D
 10
2225.0
 20
2405.75
 30
0.0
 40
21.5
  1
2
 50
90.0
 41
1.55814
  7
DRACAD
 72
     5
 11
2225.0
 21
2439.25
 31
0.0
  0
TEXT
  8
60
  6
CONTINUOUS
 62
     1
  5
16E
 10
16.0
 20
2827.25
 30
0.0
 40
21.5
  1
3
 50
90.0
 41
1.55814
  7
DRACAD
 72
     5
 11
16.0
 21
2860.75
 31
0.0
  0
TEXT
  8
60
  6
CONTINUOUS
 62
     1
  5
16F
 10
2225.0
 20
2827.25
 30
0.0
 40
21.5
  1
3
 50
90.0
 41
1.55814
  7
DRACAD
 72
     5
 11
2225.0
 21
2860.75
 31
0.0
  0
TEXT
  8
60
  6
CONTINUOUS
 62
     1
  5
170
 10
19.0
 20
3268.25
 30
0.0
 40
21.5
  1
4
 50
90.0
 41
1.55814
  7
DRACAD
 72
     5
 11
19.0
 21
3301.75
 31
0.0
  0
TEXT
  8
60
  6
CONTINUOUS
 62
     1
  5
171
 10
2225.0
 20
3268.25
 30
0.0
 40
21.5
  1
4
 50
90.0
 41
1.55814
  7
DRACAD
 72
     5
 11
2225.0
 21
3301.75
 31
0.0
  0
TEXT
  8
60
  6
CONTINUOUS
 62
     1
  5
172
 10
19.0
 20
3692.75
 30
0.0
 40
21.5
  1
5
 50
90.0
 41
1.55814
  7
DRACAD
 72
     5
 11
19.0
 21
3726.25
 31
0.0
  0
TEXT
  8
60
  6
CONTINUOUS
 62
     1
  5
173
 10
2225.0
 20
3692.75
 30
0.0
 40
21.5
  1
5
 50
90.0
 41
1.55814
  7
DRACAD
 72
     5
 11
2225.0
 21
3726.25
 31
0.0
  0
TEXT
  8
60
  6
CONTINUOUS
 62
     1
  5
174
 10
21.0
 20
4128.75
 30
0.0
 40
21.5
  1
6
 50
90.0
 41
1.55814
  7
DRACAD
 72
     5
 11
21.0
 21
4162.25
 31
0.0
  0
TEXT
  8
60
  6
CONTINUOUS
 62
     1
  5
175
 10
2229.5
 20
4128.75
 30
0.0
 40
21.5
  1
6
 50
90.0
 41
1.55814
  7
DRACAD
 72
     5
 11
2229.5
 21
4162.25
 31
0.0
  0
TEXT
  8
60
  6
CONTINUOUS
 62
     1
  5
176
 10
19.0
 20
4567.75
 30
0.0
 40
21.5
  1
7
 50
90.0
 41
1.55814
  7
DRACAD
 72
     5
 11
19.0
 21
4601.25
 31
0.0
  0
TEXT
  8
60
  6
CONTINUOUS
 62
     1
  5
177
 10
2225.0
 20
4567.75
 30
0.0
 40
21.5
  1
7
 50
90.0
 41
1.55814
  7
DRACAD
 72
     5
 11
2225.0
 21
4601.25
 31
0.0
  0
TEXT
  8
60
  6
CONTINUOUS
 62
     1
  5
178
 10
19.0
 20
4971.75
 30
0.0
 40
21.5
  1
8
 50
90.0
 41
1.55814
  7
DRACAD
 72
     5
 11
19.0
 21
5005.25
 31
0.0
  0
TEXT
  8
60
  6
CONTINUOUS
 62
     1
  5
179
 10
2227.0
 20
4971.75
 30
0.0
 40
21.5
  1
8
 50
90.0
 41
1.55814
  7
DRACAD
 72
     5
 11
2227.0
 21
5005.25
 31
0.0
  0
TEXT
  8
60
  6
CONTINUOUS
 62
     1
  5
17A
 10
2317.5
 20
1815.5
 30
0.0
 40
21.5
  1
街づくり
 50
90.0
 41
1.226302
  7
DRACAD
 72
     5
 11
2317.5
 21
1941.5
 31
0.0
  0
TEXT
  8
60
  6
CONTINUOUS
 62
     2
  5
17B
 10
2352.0
 20
4772.5
 30
0.0
 40
14.0
  1
松　塚　展　門
 50
90.0
 41
0.717429
  7
DRACAD
 72
     5
 11
2352.0
 21
4856.5
 31
0.0
  0
LINE
  8
60
  6
CONTINUOUS
 62
     2
  5
17C
 10
2288.0
 20
4967.0
 30
0.0
 11
2288.0
 21
4107.0
 31
0.0
  0
TEXT
  8
60
  6
CONTINUOUS
 62
     1
  5
17D
 10
2283.0
 20
1817.0
 30
0.0
 40
21.5
  1
明るい
 50
90.0
 41
1.59614
  7
DRACAD
 72
     5
 11
2283.0
 21
1940.0
 31
0.0
  0
TEXT
  8
60
  6
CONTINUOUS
 62
     2
  5
17E
 10
2248.5
 20
4840.0
 30
0.0
 40
14.0
  1
図
 50
90.0
 41
0.837
  7
DRACAD
 72
     5
 11
2248.5
 21
4854.0
 31
0.0
  0
LINE
  8
60
  6
CONTINUOUS
 62
     2
  5
17F
 10
2266.0
 20
4107.0
 30
0.0
 11
2266.0
 21
3504.0
 31
0.0
  0
LINE
  8
60
  6
CONTINUOUS
 62
     2
  5
180
 10
2310.5
 20
4107.0
 30
0.0
 11
2310.5
 21
3504.0
 31
0.0
  0
TEXT
  8
60
  6
CONTINUOUS
 62
     2
  5
181
 10
2251.5
 20
3517.5
 30
0.0
 40
14.0
  1
商品名
 50
90.0
 41
0.837
  7
DRACAD
 72
     5
 11
2251.5
 21
3559.5
 31
0.0
  0
TEXT
  8
60
  6
CONTINUOUS
 62
     2
  5
182
 10
2295.0
 20
3517.5
 30
0.0
 40
14.0
  1
タイプ
 50
90.0
 41
0.837
  7
DRACAD
 72
     5
 11
2295.0
 21
3559.5
 31
0.0
  0
LINE
  8
60
  6
CONTINUOUS
 62
     2
  5
183
 10
2354.0
 20
4312.5
 30
0.0
 11
2288.0
 21
4312.5
 31
0.0
  0
LINE
  8
60
  6
CONTINUOUS
 62
     2
  5
184
 10
2354.0
 20
4153.5
 30
0.0
 11
2288.0
 21
4153.5
 31
0.0
  0
CIRCLE
  8
60
  6
CONTINUOUS
 62
     2
  5
185
 10
2256.5
 20
5042.5
 30
0.0
 40
2.0
  0
CIRCLE
  8
60
  6
CONTINUOUS
 62
     2
  5
186
 10
2332.5
 20
5101.0
 30
0.0
 40
2.0
  0
CIRCLE
  8
60
  6
CONTINUOUS
 62
     2
  5
187
 10
2217.0
 20
2040.5
 30
0.0
 40
2.0
  0
CIRCLE
  8
60
  6
CONTINUOUS
 62
     2
  5
188
 10
2217.0
 20
2040.5
 30
0.0
 40
2.0
  0
LINE
  8
60
  6
CONTINUOUS
 62
     2
  5
189
 10
2310.5
 20
2236.5
 30
0.0
 11
2354.0
 21
2236.5
 31
0.0
  0
LINE
  8
60
  6
CONTINUOUS
 62
     2
  5
18A
 10
2310.5
 20
2251.5
 30
0.0
 11
2354.0
 21
2251.5
 31
0.0
  0
LINE
  8
60
  6
CONTINUOUS
 62
     2
  5
18B
 10
2310.5
 20
2547.5
 30
0.0
 11
2354.0
 21
2547.5
 31
0.0
  0
TEXT
  8
60
  6
CONTINUOUS
 62
     2
  5
18C
 10
2283.0
 20
4385.5
 30
0.0
 40
14.0
  1
年
 50
90.0
 41
0.837
  7
DRACAD
 72
     5
 11
2283.0
 21
4399.5
 31
0.0
  0
TEXT
  8
60
  6
CONTINUOUS
 62
     2
  5
18D
 10
2283.0
 20
4439.5
 30
0.0
 40
14.0
  1
月
 50
90.0
 41
0.837
  7
DRACAD
 72
     5
 11
2283.0
 21
4453.5
 31
0.0
  0
TEXT
  8
60
  6
CONTINUOUS
 62
     2
  5
18E
 10
2283.0
 20
4494.0
 30
0.0
 40
14.0
  1
日
 50
90.0
 41
0.837
  7
DRACAD
 72
     5
 11
2283.0
 21
4508.0
 31
0.0
  0
TEXT
  8
60
  6
CONTINUOUS
 62
     1
  5
18F
 10
2349.0
 20
2258.5
 30
0.0
 40
29.5
  1
ＨＥＡＲＴＬＩＦＴ
 50
90.0
 41
0.84961
  7
DRACAD
 72
     5
 11
2349.0
 21
2528.0
 31
0.0
  0
TEXT
  8
60
  6
CONTINUOUS
 62
     1
  5
190
 10
2347.0
 20
1984.0
 30
0.0
 40
28.0
  1
Ｍｒ．Ｗｅｌｆｅａｒ
 50
90.0
 41
0.738354
  7
DRACAD
 72
     5
 11
2347.0
 21
2231.0
 31
0.0
  0
TEXT
  8
60
  6
CONTINUOUS
 62
     2
  5
191
 10
2339.5
 20
3517.5
 30
0.0
 40
14.0
  1
特　記
 50
90.0
 41
0.837
  7
DRACAD
 72
     5
 11
2339.5
 21
3559.5
 31
0.0
  0
LINE
  8
60
  6
CONTINUOUS
 62
     2
  5
192
 10
2220.0
 20
2629.0
 30
0.0
 11
2354.0
 21
2629.0
 31
0.0
  0
LINE
  8
60
  6
CONTINUOUS
 62
     2
  5
193
 10
2220.0
 20
2956.0
 30
0.0
 11
2354.0
 21
2956.0
 31
0.0
  0
LINE
  8
60
  6
CONTINUOUS
 62
     2
  5
194
 10
2266.0
 20
1979.0
 30
0.0
 11
2266.0
 21
2629.0
 31
0.0
  0
LINE
  8
60
  6
CONTINUOUS
 62
     2
  5
195
 10
2288.0
 20
1979.0
 30
0.0
 11
2288.0
 21
2629.0
 31
0.0
  0
LINE
  8
60
  6
CONTINUOUS
 62
     2
  5
196
 10
2310.5
 20
1979.0
 30
0.0
 11
2310.5
 21
2629.0
 31
0.0
  0
LINE
  8
60
  6
CONTINUOUS
 62
     2
  5
197
 10
2332.5
 20
2547.5
 30
0.0
 11
2332.5
 21
2629.0
 31
0.0
  0
LINE
  8
60
  6
CONTINUOUS
 62
     2
  5
198
 10
2281.0
 20
2629.0
 30
0.0
 11
2281.0
 21
3282.5
 31
0.0
  0
LINE
  8
60
  6
CONTINUOUS
 62
     2
  5
199
 10
2317.5
 20
2629.0
 30
0.0
 11
2317.5
 21
3282.5
 31
0.0
  0
LINE
  8
60
  6
CONTINUOUS
 62
     2
  5
19A
 10
2288.0
 20
3282.5
 30
0.0
 11
2288.0
 21
3499.0
 31
0.0
  0
LINE
  8
60
  6
CONTINUOUS
 62
     2
  5
19B
 10
2244.5
 20
3282.5
 30
0.0
 11
2244.5
 21
1979.0
 31
0.0
  0
TEXT
  8
60
  6
CONTINUOUS
 62
     1
  5
19C
 10
2240.0
 20
2638.0
 30
0.0
 40
16.0
  1
設置先
 50
90.0
 41
0.854437
  7
DRACAD
 72
     5
 11
2240.0
 21
2687.0
 31
0.0
  0
TEXT
  8
60
  6
CONTINUOUS
 62
     1
  5
19D
 10
2273.5
 20
2637.5
 30
0.0
 40
19.5
  1
〒
 50
90.0
 41
0.837
  7
DRACAD
 72
     5
 11
2273.5
 21
2657.0
 31
0.0
  0
TEXT
  8
60
  6
CONTINUOUS
 62
     1
  5
19E
 10
2240.0
 20
2964.5
 30
0.0
 40
16.0
  1
代理店
 50
90.0
 41
0.854437
  7
DRACAD
 72
     5
 11
2240.0
 21
3013.5
 31
0.0
  0
TEXT
  8
60
  6
CONTINUOUS
 62
     1
  5
19F
 10
2273.5
 20
2964.0
 30
0.0
 40
19.5
  1
〒
 50
90.0
 41
0.837
  7
DRACAD
 72
     5
 11
2273.5
 21
2983.5
 31
0.0
  0
TEXT
  8
60
  6
CONTINUOUS
 62
     2
  5
1A0
 10
2283.0
 20
4315.0
 30
0.0
 40
14.0
  1
訂正
 50
90.0
 41
0.837
  7
DRACAD
 72
     5
 11
2283.0
 21
4343.0
 31
0.0
  0
CIRCLE
  8
60
  6
CONTINUOUS
 62
     2
  5
1A1
 10
2217.0
 20
4447.5
 30
0.0
 40
2.0
  0
CIRCLE
  8
60
  6
CONTINUOUS
 62
     2
  5
1A2
 10
2217.0
 20
4520.5
 30
0.0
 40
2.0
  0
CIRCLE
  8
60
  6
CONTINUOUS
 62
     2
  5
1A3
 10
2217.0
 20
4599.0
 30
0.0
 40
2.0
  0
CIRCLE
  8
60
  6
CONTINUOUS
 62
     2
  5
1A4
 10
2217.0
 20
4660.0
 30
0.0
 40
2.0
  0
CIRCLE
  8
60
  6
CONTINUOUS
 62
     2
  5
1A5
 10
2217.0
 20
3762.0
 30
0.0
 40
2.0
  0
CIRCLE
  8
60
  6
CONTINUOUS
 62
     2
  5
1A6
 10
2217.0
 20
2910.5
 30
0.0
 40
2.0
  0
TEXT
  8
60
  6
CONTINUOUS
 62
     1
  5
1A7
 10
4.0
 20
2094.5
 30
0.0
 40
16.5
  1
感謝にまさる能力なし
 50
90.0
 41
1.090636
  7
DRACAD
 72
     5
 11
4.0
 21
2309.5
 31
0.0
  0
TEXT
  8
60
  6
CONTINUOUS
 62
     2
  5
1A8
 10
2250.0
 20
4132.5
 30
0.0
 40
14.0
  1
検図
 50
90.0
 41
0.896786
  7
DRACAD
 72
     5
 11
2250.0
 21
4162.5
 31
0.0
  0
TEXT
  8
60
  6
CONTINUOUS
 62
     2
  5
1A9
 10
2250.0
 20
4185.5
 30
0.0
 40
14.0
  1
設計
 50
90.0
 41
0.896786
  7
DRACAD
 72
     5
 11
2250.0
 21
4215.5
 31
0.0
  0
TEXT
  8
60
  6
CONTINUOUS
 62
     2
  5
1AA
 10
2250.0
 20
4238.5
 30
0.0
 40
14.0
  1
作図
 50
90.0
 41
0.896786
  7
DRACAD
 72
     5
 11
2250.0
 21
4268.5
 31
0.0
  0
LINE
  8
60
  6
CONTINUOUS
 62
     7
  5
1AB
 10
-95.5
 20
1661.0
 30
0.0
 11
2477.0
 21
1661.0
 31
0.0
  0
LINE
  8
60
  6
CONTINUOUS
 62
     7
  5
1AC
 10
2477.0
 20
5300.0
 30
0.0
 11
-95.5
 21
5300.0
 31
0.0
  0
LINE
  8
60
  6
CONTINUOUS
 62
     7
  5
1AD
 10
2477.0
 20
1661.0
 30
0.0
 11
2477.0
 21
5300.0
 31
0.0
  0
LINE
  8
60
  6
CONTINUOUS
 62
     7
  5
1AE
 10
-100.0
 20
5300.0
 30
0.0
 11
-100.0
 21
1661.0
 31
0.0
  0
LINE
  8
60
  6
CONTINUOUS
 62
     2
  5
1AF
 10
2252.5
 20
4269.5
 30
0.0
 11
2252.5
 21
4238.0
 31
0.0
  0
LINE
  8
60
  6
CONTINUOUS
 62
     2
  5
1B0
 10
2252.5
 20
4163.5
 30
0.0
 11
2252.5
 21
4132.0
 31
0.0
  0
LINE
  8
60
  6
CONTINUOUS
 62
     2
  5
1B1
 10
2252.5
 20
4215.0
 30
0.0
 11
2252.5
 21
4184.5
 31
0.0
  0
LINE
  8
60
  6
CONTINUOUS
 62
     2
  5
1B2
 10
2272.0
 20
4887.25
 30
0.0
 11
2238.5
 21
4936.0
 31
0.0
  0
TEXT
  8
60
  6
CONTINUOUS
 62
     2
  5
1B3
 10
2256.0
 20
4885.5
 30
0.0
 40
25.0
  1
2
 50
90.0
  7
DRACAD
 72
     5
 11
2256.0
 21
4910.5
 31
0.0
  0
TEXT
  8
60
  6
CONTINUOUS
 62
     2
  5
1B4
 10
2278.5
 20
4912.5
 30
0.0
 40
25.0
  1
2
 50
90.0
  7
DRACAD
 72
     5
 11
2278.5
 21
4937.5
 31
0.0
  0
LINE
  8
60
  6
CONTINUOUS
 62
     7
  5
1B5
 10
31.0
 20
1697.0
 30
0.0
 11
-170.0
 21
1697.0
 31
0.0
  0
LINE
  8
60
  6
CONTINUOUS
 62
     7
  5
1B6
 10
31.0
 20
5264.0
 30
0.0
 11
-170.0
 21
5264.0
 31
0.0
  0
LINE
  8
3
  6
CONTINUOUS
 62
     5
  5
1B7
 10
732.75
 20
2051.0
 30
0.0
 11
1632.75
 21
2051.0
 31
0.0
  0
LINE
  8
3
  6
CONTINUOUS
 62
     5
  5
1B8
 10
1632.75
 20
2051.0
 30
0.0
 11
1632.75
 21
2291.0
 31
0.0
  0
LINE
  8
3
  6
CONTINUOUS
 62
     5
  5
1B9
 10
732.75
 20
2051.0
 30
0.0
 11
732.75
 21
2291.0
 31
0.0
  0
LINE
  8
3
  6
CONTINUOUS
 62
     5
  5
1BA
 10
732.75
 20
2291.0
 30
0.0
 11
295.0
 21
2291.0
 31
0.0
  0
LINE
  8
3
  6
CONTINUOUS
 62
     5
  5
1BB
 10
1632.75
 20
2291.0
 30
0.0
 11
1852.75
 21
2291.0
 31
0.0
  0
LINE
  8
4
  6
CONTINUOUS
 62
     1
  5
1BC
 10
1557.75
 20
2110.0
 30
0.0
 11
807.75
 21
2110.0
 31
0.0
  0
LINE
  8
43
  6
CONTINUOUS
 62
     6
  5
1BD
 10
807.75
 20
2191.0
 30
0.0
 11
1057.75
 21
2191.0
 31
0.0
  0
LINE
  8
100
  6
CENTER
 62
     3
  5
1BE
 10
825.5
 20
2291.0
 30
0.0
 11
740.25
 21
2291.0
 31
0.0
  0
LINE
  8
4
  6
CONTINUOUS
 62
     1
  5
1BF
 10
1552.25
 20
2366.0
 30
0.0
 11
1552.25
 21
2291.0
 31
0.0
  0
LINE
  8
4
  6
CONTINUOUS
 62
     1
  5
1C0
 10
1552.25
 20
2366.0
 30
0.0
 11
1782.25
 21
2366.0
 31
0.0
  0
LINE
  8
4
  6
CONTINUOUS
 62
     1
  5
1C1
 10
1832.25
 20
2316.0
 30
0.0
 11
1552.25
 21
2316.0
 31
0.0
  0
LINE
  8
41
  6
CONTINUOUS
 62
     6
  5
1C2
 10
1782.25
 20
2366.0
 30
0.0
 11
1832.25
 21
2366.0
 31
0.0
  0
LINE
  8
41
  6
CONTINUOUS
 62
     6
  5
1C3
 10
1832.25
 20
2366.0
 30
0.0
 11
1832.25
 21
2316.0
 31
0.0
  0
LINE
  8
41
  6
CONTINUOUS
 62
     6
  5
1C4
 10
1828.25
 20
2362.0
 30
0.0
 11
1828.25
 21
2319.0
 31
0.0
  0
LINE
  8
41
  6
CONTINUOUS
 62
     6
  5
1C5
 10
1828.25
 20
2362.0
 30
0.0
 11
1785.25
 21
2362.0
 31
0.0
  0
LINE
  8
41
  6
CONTINUOUS
 62
     6
  5
1C6
 10
1782.25
 20
2366.0
 30
0.0
 11
1782.25
 21
2365.0
 31
0.0
  0
LINE
  8
41
  6
CONTINUOUS
 62
     6
  5
1C7
 10
1832.25
 20
2316.0
 30
0.0
 11
1831.25
 21
2316.0
 31
0.0
  0
ARC
  8
41
  6
CONTINUOUS
 62
     6
  5
1C8
 10
1831.25
 20
2319.0
 30
0.0
 40
3.0
 50
180.0
 51
270.0
  0
ARC
  8
41
  6
CONTINUOUS
 62
     6
  5
1C9
 10
1785.25
 20
2365.0
 30
0.0
 40
3.0
 50
180.0
 51
270.0
  0
LINE
  8
4
  6
CONTINUOUS
 62
     1
  5
1CA
 10
1782.25
 20
2316.0
 30
0.0
 11
1782.25
 21
2366.0
 31
0.0
  0
LINE
  8
4
  6
HIDDEN
 62
     3
  5
1CB
 10
1552.25
 20
2362.0
 30
0.0
 11
1782.25
 21
2362.0
 31
0.0
  0
LINE
  8
41
  6
CONTINUOUS
 62
     6
  5
1CC
 10
1807.25
 20
2416.0
 30
0.0
 11
1807.25
 21
2366.0
 31
0.0
  0
CIRCLE
  8
4
  6
CONTINUOUS
 62
     1
  5
1CD
 10
1512.25
 20
2341.0
 30
0.0
 40
6.0
  0
CIRCLE
  8
4
  6
CONTINUOUS
 62
     1
  5
1CE
 10
1162.25
 20
2341.0
 30
0.0
 40
6.0
  0
LINE
  8
6
  6
CONTINUOUS
 62
     1
  5
1CF
 10
1832.25
 20
3166.0
 30
0.0
 11
1832.25
 21
2366.0
 31
0.0
  0
LINE
  8
6
  6
CONTINUOUS
 62
     1
  5
1D0
 10
1807.25
 20
2941.0
 30
0.0
 11
1807.25
 21
3141.0
 31
0.0
  0
LINE
  8
6
  6
CONTINUOUS
 62
     1
  5
1D1
 10
1807.25
 20
2916.0
 30
0.0
 11
1807.25
 21
2416.0
 31
0.0
  0
LINE
  8
41
  6
CONTINUOUS
 62
     6
  5
1D2
 10
1147.75
 20
3131.0
 30
0.0
 11
1147.75
 21
2951.0
 31
0.0
  0
LINE
  8
41
  6
CONTINUOUS
 62
     6
  5
1D3
 10
1147.75
 20
3131.0
 30
0.0
 11
1217.75
 21
3131.0
 31
0.0
  0
LINE
  8
41
  6
CONTINUOUS
 62
     6
  5
1D4
 10
1147.75
 20
2951.0
 30
0.0
 11
1217.75
 21
2951.0
 31
0.0
  0
LINE
  8
41
  6
CONTINUOUS
 62
     6
  5
1D5
 10
1222.75
 20
2941.0
 30
0.0
 11
1222.75
 21
3141.0
 31
0.0
  0
LINE
  8
41
  6
CONTINUOUS
 62
     6
  5
1D6
 10
1217.75
 20
2941.0
 30
0.0
 11
1217.75
 21
3141.0
 31
0.0
  0
LINE
  8
41
  6
CONTINUOUS
 62
     6
  5
1D7
 10
1247.75
 20
2941.0
 30
0.0
 11
1247.75
 21
3141.0
 31
0.0
  0
LINE
  8
6
  6
CONTINUOUS
 62
     1
  5
1D8
 10
1807.25
 20
2916.0
 30
0.0
 11
1257.25
 21
2916.0
 31
0.0
  0
LINE
  8
6
  6
CONTINUOUS
 62
     1
  5
1D9
 10
687.25
 20
2351.0
 30
0.0
 11
687.25
 21
2916.0
 31
0.0
  0
LINE
  8
6
  6
CONTINUOUS
 62
     1
  5
1DA
 10
662.25
 20
2351.0
 30
0.0
 11
687.25
 21
2351.0
 31
0.0
  0
LINE
  8
41
  6
CONTINUOUS
 62
     6
  5
1DB
 10
782.75
 20
2416.0
 30
0.0
 11
687.25
 21
2397.0
 31
0.0
  0
LINE
  8
6
  6
CONTINUOUS
 62
     1
  5
1DC
 10
1257.25
 20
2366.0
 30
0.0
 11
1257.25
 21
2916.0
 31
0.0
  0
LINE
  8
6
  6
CONTINUOUS
 62
     1
  5
1DD
 10
1232.25
 20
2366.0
 30
0.0
 11
1232.25
 21
2916.0
 31
0.0
  0
LINE
  8
41
  6
CONTINUOUS
 62
     6
  5
1DE
 10
1807.25
 20
2416.0
 30
0.0
 11
1257.25
 21
2416.0
 31
0.0
  0
LINE
  8
41
  6
CONTINUOUS
 62
     3
  5
1DF
 10
1203.25
 20
3091.0
 30
0.0
 11
1235.75
 21
3091.0
 31
0.0
  0
LINE
  8
41
  6
CONTINUOUS
 62
     3
  5
1E0
 10
1203.25
 20
2991.0
 30
0.0
 11
1235.75
 21
2991.0
 31
0.0
  0
LINE
  8
2
  6
CONTINUOUS
 62
     6
  5
1E1
 10
917.75
 20
2821.0
 30
0.0
 11
917.75
 21
2881.0
 31
0.0
  0
LINE
  8
2
  6
CONTINUOUS
 62
     6
  5
1E2
 10
917.75
 20
2881.0
 30
0.0
 11
887.75
 21
2881.0
 31
0.0
  0
LINE
  8
2
  6
CONTINUOUS
 62
     6
  5
1E3
 10
887.75
 20
2881.0
 30
0.0
 11
887.75
 21
2821.0
 31
0.0
  0
LINE
  8
2
  6
CONTINUOUS
 62
     6
  5
1E4
 10
887.75
 20
2821.0
 30
0.0
 11
917.75
 21
2821.0
 31
0.0
  0
LINE
  8
110
  6
CENTER
 62
     7
  5
1E5
 10
902.75
 20
2947.0
 30
0.0
 11
902.75
 21
2781.75
 31
0.0
  0
LINE
  8
110
  6
CENTER
 62
     7
  5
1E6
 10
778.0
 20
2881.0
 30
0.0
 11
1076.5
 21
2881.0
 31
0.0
  0
LINE
  8
100
  6
CENTER
 62
     3
  5
1E7
 10
1555.5
 20
2291.0
 30
0.0
 11
1628.75
 21
2291.0
 31
0.0
  0
LINE
  8
2
  6
HIDDEN
 62
     5
  5
1E8
 10
473.5
 20
2309.5
 30
0.0
 11
649.25
 21
2496.25
 31
0.0
  0
ARC
  8
4
  6
CONTINUOUS
 62
     3
  5
1E9
 10
908.25
 20
2439.0
 30
0.0
 40
76.0
 50
243.45
 51
311.95
  0
ARC
  8
4
  6
CONTINUOUS
 62
     3
  5
1EA
 10
908.25
 20
2439.0
 30
0.0
 40
87.0
 50
243.45
 51
316.75
  0
ARC
  8
4
  6
CONTINUOUS
 62
     3
  5
1EB
 10
980.5
 20
2581.25
 30
0.0
 40
235.5
 50
215.91
 51
243.22
  0
ARC
  8
4
  6
CONTINUOUS
 62
     3
  5
1EC
 10
980.5
 20
2581.25
 30
0.0
 40
246.5
 50
215.5
 51
243.22
  0
ARC
  8
4
  6
CONTINUOUS
 62
     3
  5
1ED
 10
679.25
 20
2372.0
 30
0.0
 40
131.5
 50
32.77
 51
86.51
  0
ARC
  8
4
  6
CONTINUOUS
 62
     3
  5
1EE
 10
679.25
 20
2372.0
 30
0.0
 40
120.25
 50
33.33
 51
86.18
  0
LINE
  8
4
  6
CONTINUOUS
 62
     3
  5
1EF
 10
656.25
 20
2483.25
 30
0.0
 11
656.25
 21
2511.25
 31
0.0
  0
LINE
  8
4
  6
CONTINUOUS
 62
     3
  5
1F0
 10
656.25
 20
2507.25
 30
0.0
 11
649.25
 21
2507.25
 31
0.0
  0
LINE
  8
4
  6
CONTINUOUS
 62
     3
  5
1F1
 10
649.25
 20
2507.25
 30
0.0
 11
649.25
 21
2487.25
 31
0.0
  0
LINE
  8
4
  6
CONTINUOUS
 62
     3
  5
1F2
 10
649.25
 20
2487.25
 30
0.0
 11
656.25
 21
2487.25
 31
0.0
  0
LINE
  8
4
  6
CONTINUOUS
 62
     3
  5
1F3
 10
662.25
 20
2483.25
 30
0.0
 11
662.25
 21
2511.25
 31
0.0
  0
LINE
  8
4
  6
CONTINUOUS
 62
     3
  5
1F4
 10
662.25
 20
2511.25
 30
0.0
 11
656.25
 21
2511.25
 31
0.0
  0
LINE
  8
4
  6
CONTINUOUS
 62
     3
  5
1F5
 10
662.25
 20
2483.25
 30
0.0
 11
656.25
 21
2483.25
 31
0.0
  0
ARC
  8
4
  6
CONTINUOUS
 62
     3
  5
1F6
 10
904.25
 20
2444.5
 30
0.0
 40
82.75
 50
311.46
 51
324.1
  0
ARC
  8
4
  6
CONTINUOUS
 62
     3
  5
1F7
 10
916.0
 20
2431.5
 30
0.0
 40
76.0
 50
316.89
 51
332.19
  0
LINE
  8
4
  6
CONTINUOUS
 62
     3
  5
1F8
 10
987.5
 20
2409.0
 30
0.0
 11
987.5
 21
2416.0
 31
0.0
  0
LINE
  8
4
  6
CONTINUOUS
 62
     3
  5
1F9
 10
987.5
 20
2416.0
 30
0.0
 11
967.5
 21
2416.0
 31
0.0
  0
LINE
  8
4
  6
CONTINUOUS
 62
     3
  5
1FA
 10
967.5
 20
2416.0
 30
0.0
 11
967.5
 21
2409.0
 31
0.0
  0
LINE
  8
4
  6
CONTINUOUS
 62
     3
  5
1FB
 10
991.5
 20
2403.0
 30
0.0
 11
991.5
 21
2409.0
 31
0.0
  0
LINE
  8
4
  6
CONTINUOUS
 62
     3
  5
1FC
 10
984.5
 20
2403.0
 30
0.0
 11
984.5
 21
2409.0
 31
0.0
  0
LINE
  8
4
  6
CONTINUOUS
 62
     3
  5
1FD
 10
970.5
 20
2403.0
 30
0.0
 11
970.5
 21
2409.0
 31
0.0
  0
LINE
  8
4
  6
CONTINUOUS
 62
     3
  5
1FE
 10
963.5
 20
2403.0
 30
0.0
 11
963.5
 21
2409.0
 31
0.0
  0
LINE
  8
4
  6
CONTINUOUS
 62
     3
  5
1FF
 10
963.5
 20
2409.0
 30
0.0
 11
991.5
 21
2409.0
 31
0.0
  0
LINE
  8
4
  6
CONTINUOUS
 62
     3
  5
200
 10
963.5
 20
2403.0
 30
0.0
 11
991.5
 21
2403.0
 31
0.0
  0
LINE
  8
4
  6
CONTINUOUS
 62
     3
  5
201
 10
987.5
 20
2396.0
 30
0.0
 11
987.5
 21
2403.0
 31
0.0
  0
LINE
  8
4
  6
CONTINUOUS
 62
     3
  5
202
 10
967.5
 20
2396.0
 30
0.0
 11
987.5
 21
2396.0
 31
0.0
  0
LINE
  8
4
  6
CONTINUOUS
 62
     3
  5
203
 10
967.5
 20
2403.0
 30
0.0
 11
967.5
 21
2396.0
 31
0.0
  0
LINE
  8
100
  6
CENTER
 62
     3
  5
204
 10
1852.75
 20
2291.0
 30
0.0
 11
2161.0
 21
2291.0
 31
0.0
  0
LINE
  8
100
  6
CENTER
 62
     3
  5
205
 10
932.75
 20
4737.5
 30
0.0
 11
932.75
 21
1973.5
 31
0.0
  0
ARC
  8
100
  6
CONTINUOUS
 62
     3
  5
206
 10
869.25
 20
3483.0
 30
0.0
 40
87.0
 50
268.37
 51
311.06
  0
ARC
  8
100
  6
CONTINUOUS
 62
     3
  5
207
 10
986.75
 20
3335.5
 30
0.0
 40
101.5
 50
83.05
 51
128.4
  0
ARC
  8
100
  6
CONTINUOUS
 62
     3
  5
208
 10
869.25
 20
3463.0
 30
0.0
 40
87.0
 50
267.7
 51
308.59
  0
ARC
  8
100
  6
CONTINUOUS
 62
     3
  5
209
 10
986.75
 20
3315.5
 30
0.0
 40
101.5
 50
83.07
 51
128.4
  0
ARC
  8
100
  6
CONTINUOUS
 62
     3
  5
20A
 10
1843.5
 20
3424.5
 30
0.0
 40
10.0
 50
36.79
 51
143.21
  0
ARC
  8
100
  6
CONTINUOUS
 62
     3
  5
20B
 10
1860.25
 20
3434.5
 30
0.0
 40
9.75
 50
206.65
 51
333.35
  0
ARC
  8
100
  6
CONTINUOUS
 62
     3
  5
20C
 10
1843.5
 20
3418.5
 30
0.0
 40
10.0
 50
36.79
 51
143.21
  0
ARC
  8
100
  6
CONTINUOUS
 62
     3
  5
20D
 10
1860.25
 20
3428.5
 30
0.0
 40
9.75
 50
206.65
 51
333.35
  0
LINE
  8
3
  6
CONTINUOUS
 62
     5
  5
20E
 10
1852.75
 20
2291.0
 30
0.0
 11
1852.75
 21
3423.25
 31
0.0
  0
LINE
  8
113
  6
CONTINUOUS
 62
     3
  5
20F
 10
732.75
 20
2248.5
 30
0.0
 11
775.25
 21
2291.0
 31
0.0
  0
LINE
  8
113
  6
CONTINUOUS
 62
     3
  5
210
 10
732.75
 20
2234.5
 30
0.0
 11
789.5
 21
2291.0
 31
0.0
  0
LINE
  8
113
  6
CONTINUOUS
 62
     3
  5
211
 10
732.75
 20
2220.25
 30
0.0
 11
803.5
 21
2291.0
 31
0.0
  0
LINE
  8
113
  6
CONTINUOUS
 62
     3
  5
212
 10
732.75
 20
2064.75
 30
0.0
 11
959.25
 21
2291.0
 31
0.0
  0
LINE
  8
113
  6
CONTINUOUS
 62
     3
  5
213
 10
733.25
 20
2051.0
 30
0.0
 11
973.25
 21
2291.0
 31
0.0
  0
LINE
  8
113
  6
CONTINUOUS
 62
     3
  5
214
 10
747.25
 20
2051.0
 30
0.0
 11
987.5
 21
2291.0
 31
0.0
  0
LINE
  8
113
  6
CONTINUOUS
 62
     3
  5
215
 10
903.0
 20
2051.0
 30
0.0
 11
1143.0
 21
2291.0
 31
0.0
  0
LINE
  8
113
  6
CONTINUOUS
 62
     3
  5
216
 10
917.0
 20
2051.0
 30
0.0
 11
1157.0
 21
2291.0
 31
0.0
  0
LINE
  8
113
  6
CONTINUOUS
 62
     3
  5
217
 10
931.25
 20
2051.0
 30
0.0
 11
1171.25
 21
2291.0
 31
0.0
  0
LINE
  8
113
  6
CONTINUOUS
 62
     3
  5
218
 10
1086.75
 20
2051.0
 30
0.0
 11
1326.75
 21
2291.0
 31
0.0
  0
LINE
  8
113
  6
CONTINUOUS
 62
     3
  5
219
 10
1101.0
 20
2051.0
 30
0.0
 11
1341.0
 21
2291.0
 31
0.0
  0
LINE
  8
113
  6
CONTINUOUS
 62
     3
  5
21A
 10
1115.0
 20
2051.0
 30
0.0
 11
1355.0
 21
2291.0
 31
0.0
  0
LINE
  8
113
  6
CONTINUOUS
 62
     3
  5
21B
 10
1270.5
 20
2051.0
 30
0.0
 11
1510.75
 21
2291.0
 31
0.0
  0
LINE
  8
113
  6
CONTINUOUS
 62
     3
  5
21C
 10
1284.75
 20
2051.0
 30
0.0
 11
1524.75
 21
2291.0
 31
0.0
  0
LINE
  8
113
  6
CONTINUOUS
 62
     3
  5
21D
 10
1299.0
 20
2051.0
 30
0.0
 11
1539.0
 21
2291.0
 31
0.0
  0
LINE
  8
113
  6
CONTINUOUS
 62
     3
  5
21E
 10
1454.5
 20
2051.0
 30
0.0
 11
1632.75
 21
2229.25
 31
0.0
  0
LINE
  8
113
  6
CONTINUOUS
 62
     3
  5
21F
 10
1468.5
 20
2051.0
 30
0.0
 11
1632.75
 21
2215.0
 31
0.0
  0
LINE
  8
113
  6
CONTINUOUS
 62
     3
  5
220
 10
1482.75
 20
2051.0
 30
0.0
 11
1632.75
 21
2201.0
 31
0.0
  0
LINE
  8
41
  6
CONTINUOUS
 62
     6
  5
221
 10
1242.75
 20
4651.0
 30
0.0
 11
622.75
 21
4651.0
 31
0.0
  0
LINE
  8
41
  6
CONTINUOUS
 62
     6
  5
222
 10
1082.75
 20
4641.0
 30
0.0
 11
782.75
 21
4641.0
 31
0.0
  0
LINE
  8
41
  6
CONTINUOUS
 62
     6
  5
223
 10
782.75
 20
4641.0
 30
0.0
 11
782.75
 21
4651.0
 31
0.0
  0
LINE
  8
41
  6
CONTINUOUS
 62
     6
  5
224
 10
1082.75
 20
4641.0
 30
0.0
 11
1082.75
 21
4651.0
 31
0.0
  0
LINE
  8
41
  6
CONTINUOUS
 62
     6
  5
225
 10
1242.75
 20
4651.0
 30
0.0
 11
1242.75
 21
5046.0
 31
0.0
  0
LINE
  8
41
  6
CONTINUOUS
 62
     6
  5
226
 10
622.75
 20
4651.0
 30
0.0
 11
622.75
 21
5046.0
 31
0.0
  0
LINE
  8
41
  6
CONTINUOUS
 62
     6
  5
227
 10
632.75
 20
4661.0
 30
0.0
 11
1232.75
 21
4661.0
 31
0.0
  0
LINE
  8
41
  6
CONTINUOUS
 62
     6
  5
228
 10
1242.75
 20
5046.0
 30
0.0
 11
622.75
 21
5046.0
 31
0.0
  0
LINE
  8
41
  6
CONTINUOUS
 62
     6
  5
229
 10
632.75
 20
5036.0
 30
0.0
 11
1232.75
 21
5036.0
 31
0.0
  0
LINE
  8
41
  6
CONTINUOUS
 62
     6
  5
22A
 10
1232.75
 20
4956.0
 30
0.0
 11
1232.75
 21
5036.0
 31
0.0
  0
LINE
  8
41
  6
CONTINUOUS
 62
     6
  5
22B
 10
1232.75
 20
4661.0
 30
0.0
 11
1232.75
 21
4946.0
 31
0.0
  0
LINE
  8
41
  6
CONTINUOUS
 62
     6
  5
22C
 10
632.75
 20
4956.0
 30
0.0
 11
632.75
 21
5036.0
 31
0.0
  0
LINE
  8
41
  6
CONTINUOUS
 62
     6
  5
22D
 10
632.75
 20
4661.0
 30
0.0
 11
632.75
 21
4946.0
 31
0.0
  0
LINE
  8
41
  6
CONTINUOUS
 62
     6
  5
22E
 10
632.75
 20
4956.0
 30
0.0
 11
1232.75
 21
4956.0
 31
0.0
  0
LINE
  8
41
  6
CONTINUOUS
 62
     6
  5
22F
 10
632.75
 20
4946.0
 30
0.0
 11
1232.75
 21
4946.0
 31
0.0
  0
CIRCLE
  8
41
  6
CONTINUOUS
 62
     6
  5
230
 10
646.25
 20
3192.0
 30
0.0
 40
12.0
  0
CIRCLE
  8
41
  6
CONTINUOUS
 62
     6
  5
231
 10
646.25
 20
3192.0
 30
0.0
 40
20.0
  0
LINE
  8
41
  6
CONTINUOUS
 62
     6
  5
232
 10
630.25
 20
3166.0
 30
0.0
 11
625.25
 21
3166.0
 31
0.0
  0
LINE
  8
41
  6
CONTINUOUS
 62
     6
  5
233
 10
625.25
 20
3166.0
 30
0.0
 11
625.25
 21
3172.0
 31
0.0
  0
LINE
  8
41
  6
CONTINUOUS
 62
     6
  5
234
 10
667.25
 20
3166.0
 30
0.0
 11
662.25
 21
3166.0
 31
0.0
  0
LINE
  8
41
  6
CONTINUOUS
 62
     6
  5
235
 10
667.25
 20
3172.0
 30
0.0
 11
667.25
 21
3166.0
 31
0.0
  0
LINE
  8
41
  6
CONTINUOUS
 62
     6
  5
236
 10
662.25
 20
3166.0
 30
0.0
 11
630.25
 21
3166.0
 31
0.0
  0
LINE
  8
41
  6
CONTINUOUS
 62
     6
  5
237
 10
625.25
 20
3172.0
 30
0.0
 11
667.25
 21
3172.0
 31
0.0
  0
LINE
  8
41
  6
CONTINUOUS
 62
     6
  5
238
 10
630.25
 20
3166.0
 30
0.0
 11
630.25
 21
3086.0
 31
0.0
  0
LINE
  8
41
  6
CONTINUOUS
 62
     6
  5
239
 10
662.25
 20
3086.0
 30
0.0
 11
662.25
 21
3166.0
 31
0.0
  0
LINE
  8
41
  6
CONTINUOUS
 62
     6
  5
23A
 10
630.25
 20
3086.0
 30
0.0
 11
662.25
 21
3086.0
 31
0.0
  0
LINE
  8
6
  6
CONTINUOUS
 62
     1
  5
23B
 10
687.25
 20
3079.75
 30
0.0
 11
687.25
 21
3141.0
 31
0.0
  0
LINE
  8
6
  6
CONTINUOUS
 62
     1
  5
23C
 10
687.25
 20
3035.75
 30
0.0
 11
687.25
 21
2941.0
 31
0.0
  0
LINE
  8
6
  6
CONTINUOUS
 62
     1
  5
23D
 10
662.25
 20
2351.0
 30
0.0
 11
662.25
 21
3050.25
 31
0.0
  0
LINE
  8
6
  6
CONTINUOUS
 62
     1
  5
23E
 10
662.25
 20
3079.75
 30
0.0
 11
662.25
 21
3166.0
 31
0.0
  0
CIRCLE
  8
4
  6
CONTINUOUS
 62
     3
  5
23F
 10
684.25
 20
3068.75
 30
0.0
 40
2.0
  0
LINE
  8
4
  6
CONTINUOUS
 62
     3
  5
240
 10
693.25
 20
3033.75
 30
0.0
 11
693.25
 21
3081.75
 31
0.0
  0
LINE
  8
4
  6
CONTINUOUS
 62
     3
  5
241
 10
689.25
 20
3079.75
 30
0.0
 11
689.25
 21
3035.75
 31
0.0
  0
CIRCLE
  8
4
  6
CONTINUOUS
 62
     3
  5
242
 10
684.25
 20
3046.75
 30
0.0
 40
2.0
  0
LINE
  8
4
  6
CONTINUOUS
 62
     3
  5
243
 10
693.25
 20
3035.75
 30
0.0
 11
662.25
 21
3035.75
 31
0.0
  0
LINE
  8
4
  6
CONTINUOUS
 62
     3
  5
244
 10
693.25
 20
3033.75
 30
0.0
 11
662.25
 21
3033.75
 31
0.0
  0
LINE
  8
4
  6
CONTINUOUS
 62
     3
  5
245
 10
662.25
 20
3049.5
 30
0.0
 11
662.25
 21
3079.75
 31
0.0
  0
LINE
  8
4
  6
CONTINUOUS
 62
     3
  5
246
 10
673.25
 20
3035.75
 30
0.0
 11
661.25
 21
3050.75
 31
0.0
  0
LINE
  8
4
  6
CONTINUOUS
 62
     3
  5
247
 10
662.25
 20
3079.75
 30
0.0
 11
693.25
 21
3079.75
 31
0.0
  0
LINE
  8
4
  6
CONTINUOUS
 62
     3
  5
248
 10
693.25
 20
3081.75
 30
0.0
 11
662.25
 21
3081.75
 31
0.0
  0
ARC
  8
4
  6
CONTINUOUS
 62
     3
  5
249
 10
632.75
 20
3050.5
 30
0.0
 40
28.5
 50
0.0
 51
62.33
  0
ARC
  8
4
  6
CONTINUOUS
 62
     3
  5
24A
 10
632.75
 20
3050.5
 30
0.0
 40
29.5
 50
359.33
 51
59.36
  0
CIRCLE
  8
4
  6
CONTINUOUS
 62
     3
  5
24B
 10
647.25
 20
3078.5
 30
0.0
 40
3.0
  0
LINE
  8
55
  6
CONTINUOUS
 62
     3
  5
24C
 10
1242.75
 20
4830.75
 30
0.0
 11
1302.5
 21
4922.0
 31
0.0
  0
LINE
  8
55
  6
CONTINUOUS
 62
     3
  5
24D
 10
1302.5
 20
4922.0
 30
0.0
 11
1334.25
 21
4922.0
 31
0.0
  0
LINE
  8
55
  6
CONTINUOUS
 62
     3
  5
24E
 10
1382.5
 20
3158.5
 30
0.0
 11
1382.5
 21
3252.0
 31
0.0
  0
LINE
  8
55
  6
CONTINUOUS
 62
     3
  5
24F
 10
1382.5
 20
3252.0
 30
0.0
 11
1408.0
 21
3252.0
 31
0.0
  0
LINE
  8
55
  6
CONTINUOUS
 62
     3
  5
250
 10
1360.5
 20
2400.5
 30
0.0
 11
1360.5
 21
2467.5
 31
0.0
  0
LINE
  8
55
  6
CONTINUOUS
 62
     3
  5
251
 10
1360.5
 20
2467.5
 30
0.0
 11
1381.75
 21
2467.5
 31
0.0
  0
LINE
  8
55
  6
CONTINUOUS
 62
     3
  5
252
 10
1162.25
 20
2341.0
 30
0.0
 11
1194.0
 21
2314.0
 31
0.0
  0
LINE
  8
55
  6
CONTINUOUS
 62
     3
  5
253
 10
1194.0
 20
2314.0
 30
0.0
 11
1210.25
 21
2314.0
 31
0.0
  0
CIRCLE
  8
50
  6
CONTINUOUS
 62
     3
  5
254
 10
632.75
 20
1973.5
 30
0.0
 40
5.0
  0
LINE
  8
50
  6
CONTINUOUS
 62
     3
  5
255
 10
432.75
 20
1973.5
 30
0.0
 11
632.75
 21
1973.5
 31
0.0
  0
LINE
  8
50
  6
CONTINUOUS
 62
     3
  5
256
 10
632.75
 20
1973.5
 30
0.0
 11
932.75
 21
1973.5
 31
0.0
  0
LINE
  8
50
  6
CONTINUOUS
 62
     3
  5
257
 10
932.75
 20
1973.5
 30
0.0
 11
1832.75
 21
1973.5
 31
0.0
  0
CIRCLE
  8
50
  6
CONTINUOUS
 62
     3
  5
258
 10
932.75
 20
1973.5
 30
0.0
 40
5.0
  0
CIRCLE
  8
50
  6
CONTINUOUS
 62
     3
  5
259
 10
1832.75
 20
1973.5
 30
0.0
 40
5.0
  0
LINE
  8
50
  6
CONTINUOUS
 62
     3
  5
25A
 10
1832.75
 20
1973.5
 30
0.0
 11
1852.75
 21
1973.5
 31
0.0
  0
LINE
  8
50
  6
CONTINUOUS
 62
     3
  5
25B
 10
632.75
 20
1973.5
 30
0.0
 11
632.75
 21
2273.5
 31
0.0
  0
LINE
  8
50
  6
CONTINUOUS
 62
     3
  5
25C
 10
432.75
 20
1923.5
 30
0.0
 11
432.75
 21
2273.5
 31
0.0
  0
CIRCLE
  8
50
  6
CONTINUOUS
 62
     3
  5
25D
 10
432.75
 20
1973.5
 30
0.0
 40
5.0
  0
CIRCLE
  8
50
  6
CONTINUOUS
 62
     3
  5
25E
 10
432.75
 20
1923.5
 30
0.0
 40
5.0
  0
CIRCLE
  8
50
  6
CONTINUOUS
 62
     3
  5
25F
 10
1832.75
 20
1923.5
 30
0.0
 40
5.0
  0
LINE
  8
50
  6
CONTINUOUS
 62
     3
  5
260
 10
432.75
 20
1923.5
 30
0.0
 11
1832.75
 21
1923.5
 31
0.0
  0
LINE
  8
55
  6
CONTINUOUS
 62
     3
  5
261
 10
1063.0
 20
2137.0
 30
0.0
 11
1086.0
 21
2020.5
 31
0.0
  0
LINE
  8
55
  6
CONTINUOUS
 62
     3
  5
262
 10
1339.75
 20
2309.25
 30
0.0
 11
1350.5
 21
2266.25
 31
0.0
  0
LINE
  8
55
  6
CONTINUOUS
 62
     3
  5
263
 10
1350.5
 20
2266.25
 30
0.0
 11
1367.75
 21
2266.25
 31
0.0
  0
CIRCLE
  8
50
  6
CONTINUOUS
 62
     3
  5
264
 10
1731.25
 20
2291.0
 30
0.0
 40
5.0
  0
CIRCLE
  8
50
  6
CONTINUOUS
 62
     3
  5
265
 10
1731.25
 20
2191.0
 30
0.0
 40
5.0
  0
CIRCLE
  8
50
  6
CONTINUOUS
 62
     3
  5
266
 10
1731.25
 20
2110.0
 30
0.0
 40
5.0
  0
LINE
  8
50
  6
CONTINUOUS
 62
     3
  5
267
 10
1731.25
 20
2191.0
 30
0.0
 11
1731.25
 21
2110.0
 31
0.0
  0
LINE
  8
50
  6
CONTINUOUS
 62
     3
  5
268
 10
1731.25
 20
2110.0
 30
0.0
 11
1581.25
 21
2110.0
 31
0.0
  0
LINE
  8
50
  6
CONTINUOUS
 62
     3
  5
269
 10
1731.25
 20
2191.0
 30
0.0
 11
1094.0
 21
2191.0
 31
0.0
  0
LINE
  8
50
  6
CONTINUOUS
 62
     3
  5
26A
 10
1050.25
 20
2891.0
 30
0.0
 11
1136.0
 21
2891.0
 31
0.0
  0
LINE
  8
55
  6
CONTINUOUS
 62
     3
  5
26B
 10
1299.0
 20
2718.5
 30
0.0
 11
1279.0
 21
2718.5
 31
0.0
  0
LINE
  8
50
  6
CONTINUOUS
 62
     3
  5
26C
 10
1136.0
 20
2891.0
 30
0.0
 11
1136.0
 21
2291.0
 31
0.0
  0
CIRCLE
  8
50
  6
CONTINUOUS
 62
     3
  5
26D
 10
1136.0
 20
2291.0
 30
0.0
 40
5.0
  0
CIRCLE
  8
50
  6
CONTINUOUS
 62
     3
  5
26E
 10
1136.0
 20
2891.0
 30
0.0
 40
5.0
  0
LINE
  8
50
  6
CONTINUOUS
 62
     3
  5
26F
 10
295.0
 20
2291.0
 30
0.0
 11
295.0
 21
2191.0
 31
0.0
  0
LINE
  8
50
  6
CONTINUOUS
 62
     3
  5
270
 10
245.0
 20
2191.0
 30
0.0
 11
775.5
 21
2191.0
 31
0.0
  0
CIRCLE
  8
50
  6
CONTINUOUS
 62
     3
  5
271
 10
295.0
 20
2366.0
 30
0.0
 40
5.0
  0
CIRCLE
  8
50
  6
CONTINUOUS
 62
     3
  5
272
 10
295.0
 20
3166.0
 30
0.0
 40
5.0
  0
LINE
  8
50
  6
CONTINUOUS
 62
     3
  5
273
 10
295.0
 20
2291.0
 30
0.0
 11
295.0
 21
2366.0
 31
0.0
  0
LINE
  8
50
  6
CONTINUOUS
 62
     3
  5
274
 10
295.0
 20
2366.0
 30
0.0
 11
295.0
 21
3166.0
 31
0.0
  0
LINE
  8
50
  6
CONTINUOUS
 62
     3
  5
275
 10
295.0
 20
3166.0
 30
0.0
 11
590.75
 21
3166.0
 31
0.0
  0
LINE
  8
50
  6
CONTINUOUS
 62
     3
  5
276
 10
295.0
 20
2366.0
 30
0.0
 11
609.25
 21
2366.0
 31
0.0
  0
LINE
  8
55
  6
CONTINUOUS
 62
     3
  5
277
 10
538.0
 20
2449.5
 30
0.0
 11
514.75
 21
2449.5
 31
0.0
  0
LINE
  8
55
  6
CONTINUOUS
 62
     3
  5
278
 10
716.25
 20
2494.0
 30
0.0
 11
633.25
 21
2610.75
 31
0.0
  0
LINE
  8
55
  6
CONTINUOUS
 62
     3
  5
279
 10
633.25
 20
2610.75
 30
0.0
 11
613.0
 21
2610.75
 31
0.0
  0
LINE
  8
55
  6
CONTINUOUS
 62
     3
  5
27A
 10
674.75
 20
3050.5
 30
0.0
 11
613.0
 21
2953.0
 31
0.0
  0
LINE
  8
55
  6
CONTINUOUS
 62
     3
  5
27B
 10
613.0
 20
2953.0
 30
0.0
 11
587.75
 21
2953.0
 31
0.0
  0
LINE
  8
55
  6
CONTINUOUS
 62
     3
  5
27C
 10
641.25
 20
3201.5
 30
0.0
 11
627.75
 21
3260.25
 31
0.0
  0
LINE
  8
55
  6
CONTINUOUS
 62
     3
  5
27D
 10
627.75
 20
3260.25
 30
0.0
 11
600.5
 21
3260.25
 31
0.0
  0
LINE
  8
55
  6
CONTINUOUS
 62
     3
  5
27E
 10
583.5
 20
2323.75
 30
0.0
 11
538.0
 21
2449.5
 31
0.0
  0
CIRCLE
  8
50
  6
CONTINUOUS
 62
     3
  5
27F
 10
295.0
 20
2191.0
 30
0.0
 40
5.0
  0
LINE
  8
50
  6
CONTINUOUS
 62
     3
  5
280
 10
1832.75
 20
1923.5
 30
0.0
 11
1832.75
 21
2275.75
 31
0.0
  0
LINE
  8
50
  6
CONTINUOUS
 62
     3
  5
281
 10
1852.75
 20
1973.5
 30
0.0
 11
1852.75
 21
2275.75
 31
0.0
  0
CIRCLE
  8
50
  6
CONTINUOUS
 62
     3
  5
282
 10
2118.75
 20
2291.0
 30
0.0
 40
5.0
  0
CIRCLE
  8
50
  6
CONTINUOUS
 62
     3
  5
283
 10
2118.75
 20
3591.0
 30
0.0
 40
5.0
  0
LINE
  8
50
  6
CONTINUOUS
 62
     3
  5
284
 10
2118.75
 20
3591.0
 30
0.0
 11
2118.75
 21
4641.0
 31
0.0
  0
LINE
  8
50
  6
CONTINUOUS
 62
     3
  5
285
 10
2118.75
 20
4641.0
 30
0.0
 11
1168.25
 21
4641.0
 31
0.0
  0
LINE
  8
50
  6
CONTINUOUS
 62
     3
  5
286
 10
2118.75
 20
3453.75
 30
0.0
 11
2118.75
 21
3591.0
 31
0.0
  0
LINE
  8
50
  6
CONTINUOUS
 62
     3
  5
287
 10
2118.75
 20
3424.5
 30
0.0
 11
2118.75
 21
2291.0
 31
0.0
  0
CIRCLE
  8
50
  6
CONTINUOUS
 62
     3
  5
288
 10
2118.75
 20
4641.0
 30
0.0
 40
5.0
  0
CIRCLE
  8
50
  6
CONTINUOUS
 62
     3
  5
289
 10
2118.75
 20
5046.0
 30
0.0
 40
5.0
  0
LINE
  8
50
  6
CONTINUOUS
 62
     3
  5
28A
 10
2118.75
 20
4641.0
 30
0.0
 11
2118.75
 21
5046.0
 31
0.0
  0
LINE
  8
50
  6
CONTINUOUS
 62
     3
  5
28B
 10
2118.75
 20
5046.0
 30
0.0
 11
1290.25
 21
5046.0
 31
0.0
  0
CIRCLE
  8
50
  6
CONTINUOUS
 62
     3
  5
28C
 10
295.0
 20
2291.0
 30
0.0
 40
5.0
  0
CIRCLE
  8
50
  6
CONTINUOUS
 62
     3
  5
28D
 10
245.0
 20
2191.0
 30
0.0
 40
5.0
  0
LINE
  8
50
  6
CONTINUOUS
 62
     3
  5
28E
 10
245.0
 20
3424.25
 30
0.0
 11
245.0
 21
2191.0
 31
0.0
  0
LINE
  8
50
  6
CONTINUOUS
 62
     3
  5
28F
 10
2118.75
 20
3424.5
 30
0.0
 11
2135.25
 21
3430.5
 31
0.0
  0
LINE
  8
50
  6
CONTINUOUS
 62
     3
  5
290
 10
2118.75
 20
3453.75
 30
0.0
 11
2103.25
 21
3447.25
 31
0.0
  0
LINE
  8
50
  6
CONTINUOUS
 62
     3
  5
291
 10
2135.25
 20
3430.5
 30
0.0
 11
2103.25
 21
3447.25
 31
0.0
  0
LINE
  8
50
  6
CONTINUOUS
 62
     3
  5
292
 10
245.0
 20
3424.25
 30
0.0
 11
262.25
 21
3430.5
 31
0.0
  0
LINE
  8
50
  6
CONTINUOUS
 62
     3
  5
293
 10
245.0
 20
3453.5
 30
0.0
 11
230.25
 21
3447.25
 31
0.0
  0
LINE
  8
50
  6
CONTINUOUS
 62
     3
  5
294
 10
262.25
 20
3430.5
 30
0.0
 11
230.25
 21
3447.25
 31
0.0
  0
LINE
  8
55
  6
CONTINUOUS
 62
     3
  5
295
 10
1037.75
 20
1821.25
 30
0.0
 11
1037.75
 21
1877.0
 31
0.0
  0
LINE
  8
55
  6
CONTINUOUS
 62
     3
  5
296
 10
1222.75
 20
1877.0
 30
0.0
 11
1222.75
 21
1821.25
 31
0.0
  0
LINE
  8
55
  6
CONTINUOUS
 62
     3
  5
297
 10
1222.75
 20
1821.25
 30
0.0
 11
1037.75
 21
1821.25
 31
0.0
  0
LINE
  8
55
  6
CONTINUOUS
 62
     3
  5
298
 10
1037.75
 20
1877.0
 30
0.0
 11
1222.75
 21
1877.0
 31
0.0
  0
LINE
  8
41
  6
CONTINUOUS
 62
     6
  5
299
 10
662.25
 20
2392.0
 30
0.0
 11
632.75
 21
2386.0
 31
0.0
  0
LINE
  8
4
  6
CONTINUOUS
 62
     3
  5
29A
 10
663.0
 20
2342.25
 30
0.0
 11
633.5
 21
2336.25
 31
0.0
  0
LINE
  8
4
  6
CONTINUOUS
 62
     3
  5
29B
 10
638.25
 20
2333.0
 30
0.0
 11
660.75
 21
2337.75
 31
0.0
  0
LINE
  8
4
  6
CONTINUOUS
 62
     3
  5
29C
 10
638.25
 20
2333.0
 30
0.0
 11
643.0
 21
2310.5
 31
0.0
  0
LINE
  8
4
  6
CONTINUOUS
 62
     3
  5
29D
 10
639.5
 20
2306.75
 30
0.0
 11
640.5
 21
2307.0
 31
0.0
  0
LINE
  8
4
  6
CONTINUOUS
 62
     3
  5
29E
 10
663.0
 20
2342.25
 30
0.0
 11
663.25
 21
2341.25
 31
0.0
  0
ARC
  8
4
  6
CONTINUOUS
 62
     3
  5
29F
 10
660.25
 20
2340.5
 30
0.0
 40
3.0
 50
281.63
 51
10.62
  0
ARC
  8
4
  6
CONTINUOUS
 62
     3
  5
2A0
 10
640.0
 20
2310.0
 30
0.0
 40
3.0
 50
280.62
 51
11.63
  0
LINE
  8
4
  6
CONTINUOUS
 62
     3
  5
2A1
 10
633.5
 20
2336.25
 30
0.0
 11
639.5
 21
2306.75
 31
0.0
  0
ARC
  8
41
  6
CONTINUOUS
 62
     3
  5
2A2
 10
475.0
 20
2304.25
 30
0.0
 40
9.0
 50
11.23
 51
191.74
  0
ARC
  8
41
  6
CONTINUOUS
 62
     3
  5
2A3
 10
475.0
 20
2304.25
 30
0.0
 40
6.0
 50
11.23
 51
191.74
  0
LINE
  8
41
  6
CONTINUOUS
 62
     1
  5
2A4
 10
435.0
 20
2296.25
 30
0.0
 11
603.75
 21
2330.25
 31
0.0
  0
LINE
  8
41
  6
CONTINUOUS
 62
     1
  5
2A5
 10
433.0
 20
2291.5
 30
0.0
 11
432.75
 21
2292.5
 31
0.0
  0
ARC
  8
41
  6
CONTINUOUS
 62
     1
  5
2A6
 10
435.75
 20
2293.25
 30
0.0
 40
3.0
 50
101.53
 51
194.04
  0
LINE
  8
41
  6
CONTINUOUS
 62
     1
  5
2A7
 10
433.0
 20
2291.5
 30
0.0
 11
601.5
 21
2325.5
 31
0.0
  0
LINE
  8
4
  6
CONTINUOUS
 62
     3
  5
2A8
 10
630.75
 20
2331.5
 30
0.0
 11
637.0
 21
2302.25
 31
0.0
  0
LINE
  8
4
  6
CONTINUOUS
 62
     3
  5
2A9
 10
601.5
 20
2325.25
 30
0.0
 11
601.75
 21
2324.0
 31
0.0
  0
LINE
  8
4
  6
CONTINUOUS
 62
     3
  5
2AA
 10
637.0
 20
2302.25
 30
0.0
 11
636.0
 21
2302.0
 31
0.0
  0
LINE
  8
4
  6
CONTINUOUS
 62
     3
  5
2AB
 10
627.75
 20
2326.75
 30
0.0
 11
632.5
 21
2304.0
 31
0.0
  0
ARC
  8
4
  6
CONTINUOUS
 62
     3
  5
2AC
 10
604.25
 20
2325.0
 30
0.0
 40
3.0
 50
192.0
 51
282.0
  0
ARC
  8
4
  6
CONTINUOUS
 62
     3
  5
2AD
 10
635.25
 20
2304.75
 30
0.0
 40
3.0
 50
192.0
 51
282.0
  0
LINE
  8
42
  6
CONTINUOUS
 62
     3
  5
2AE
 10
601.5
 20
2325.25
 30
0.0
 11
632.75
 21
2386.0
 31
0.0
  0
LINE
  8
42
  6
CONTINUOUS
 62
     3
  5
2AF
 10
670.25
 20
2366.75
 30
0.0
 11
637.0
 21
2302.25
 31
0.0
  0
LINE
  8
42
  6
CONTINUOUS
 62
     3
  5
2B0
 10
670.25
 20
2366.75
 30
0.0
 11
632.75
 21
2386.0
 31
0.0
  0
LINE
  8
41
  6
HIDDEN
 62
     6
  5
2B1
 10
632.75
 20
2386.0
 30
0.0
 11
632.75
 21
2336.0
 31
0.0
  0
CIRCLE
  8
42
  6
CONTINUOUS
 62
     3
  5
2B2
 10
646.0
 20
2363.5
 30
0.0
 40
6.0
  0
CIRCLE
  8
50
  6
CONTINUOUS
 62
     3
  5
2B3
 10
1852.75
 20
3286.75
 30
0.0
 40
5.0
  0
CIRCLE
  8
50
  6
CONTINUOUS
 62
     3
  5
2B4
 10
1832.75
 20
3286.75
 30
0.0
 40
5.0
  0
LINE
  8
50
  6
CONTINUOUS
 62
     3
  5
2B5
 10
1852.75
 20
3286.75
 30
0.0
 11
1832.75
 21
3286.75
 31
0.0
  0
LINE
  8
50
  6
CONTINUOUS
 62
     3
  5
2B6
 10
1832.75
 20
3286.75
 30
0.0
 11
1832.75
 21
3187.25
 31
0.0
  0
TEXT
  8
60
  6
CONTINUOUS
 62
     2
  5
2B7
 10
2323.75
 20
4461.0
 30
0.0
 40
26.5
  1
松屋産業株式会社
 50
90.0
 41
0.864637
  7
DRACAD
 72
     5
 11
2323.75
 21
4680.0
 31
0.0
  0
TEXT
  8
60
  6
CONTINUOUS
 62
     2
  5
2B8
 10
2278.5
 20
4239.5
 30
0.0
 40
14.0
  1
松村
 50
90.0
 41
0.896786
  7
DRACAD
 72
     5
 11
2278.5
 21
4269.5
 31
0.0
  0
LINE
  8
41
  6
HIDDEN
 62
     3
  5
2B9
 10
603.75
 20
2330.25
 30
0.0
 11
630.5
 21
2335.5
 31
0.0
  0
LINE
  8
41
  6
HIDDEN
 62
     3
  5
2BA
 10
630.5
 20
2335.5
 30
0.0
 11
631.25
 21
2331.5
 31
0.0
  0
LINE
  8
41
  6
HIDDEN
 62
     3
  5
2BB
 10
601.5
 20
2325.5
 30
0.0
 11
631.25
 21
2331.5
 31
0.0
  0
LINE
  8
41
  6
CONTINUOUS
 62
     3
  5
2BC
 10
627.75
 20
2326.75
 30
0.0
 11
605.25
 21
2322.0
 31
0.0
  0
LINE
  8
41
  6
CONTINUOUS
 62
     3
  5
2BD
 10
601.5
 20
2325.25
 30
0.0
 11
630.75
 21
2331.5
 31
0.0
  0
LINE
  8
2
  6
CONTINUOUS
 62
     6
  5
2BE
 10
857.75
 20
2881.0
 30
0.0
 11
817.75
 21
2881.0
 31
0.0
  0
LINE
  8
2
  6
CONTINUOUS
 62
     6
  5
2BF
 10
817.75
 20
2881.0
 30
0.0
 11
817.75
 21
2821.0
 31
0.0
  0
LINE
  8
2
  6
CONTINUOUS
 62
     6
  5
2C0
 10
817.75
 20
2821.0
 30
0.0
 11
857.75
 21
2821.0
 31
0.0
  0
CIRCLE
  8
2
  6
CONTINUOUS
 62
     6
  5
2C1
 10
842.75
 20
2851.0
 30
0.0
 40
10.0
  0
LINE
  8
1
  6
CONTINUOUS
 62
     4
  5
2C2
 10
857.75
 20
2291.0
 30
0.0
 11
857.75
 21
2891.0
 31
0.0
  0
LINE
  8
4
  6
CONTINUOUS
 62
     1
  5
2C3
 10
857.75
 20
2291.0
 30
0.0
 11
857.75
 21
2366.0
 31
0.0
  0
LINE
  8
41
  6
CONTINUOUS
 62
     6
  5
2C4
 10
857.75
 20
2416.0
 30
0.0
 11
782.75
 21
2416.0
 31
0.0
  0
LINE
  8
41
  6
HIDDEN
 62
     3
  5
2C5
 10
795.25
 20
2370.0
 30
0.0
 11
633.25
 21
2340.0
 31
0.0
  0
LINE
  8
41
  6
CONTINUOUS
 62
     6
  5
2C6
 10
795.25
 20
2366.0
 30
0.0
 11
662.75
 21
2342.0
 31
0.0
  0
LINE
  8
41
  6
CONTINUOUS
 62
     6
  5
2C7
 10
795.25
 20
2366.0
 30
0.0
 11
845.25
 21
2366.0
 31
0.0
  0
LINE
  8
41
  6
CONTINUOUS
 62
     6
  5
2C8
 10
845.25
 20
2366.0
 30
0.0
 11
845.25
 21
2316.0
 31
0.0
  0
LINE
  8
41
  6
CONTINUOUS
 62
     6
  5
2C9
 10
845.25
 20
2316.0
 30
0.0
 11
844.25
 21
2316.0
 31
0.0
  0
LINE
  8
41
  6
CONTINUOUS
 62
     6
  5
2CA
 10
841.25
 20
2362.0
 30
0.0
 11
841.25
 21
2319.0
 31
0.0
  0
LINE
  8
41
  6
CONTINUOUS
 62
     6
  5
2CB
 10
841.25
 20
2362.0
 30
0.0
 11
798.25
 21
2362.0
 31
0.0
  0
LINE
  8
41
  6
CONTINUOUS
 62
     6
  5
2CC
 10
795.25
 20
2366.0
 30
0.0
 11
795.25
 21
2365.0
 31
0.0
  0
ARC
  8
41
  6
CONTINUOUS
 62
     6
  5
2CD
 10
798.25
 20
2365.0
 30
0.0
 40
3.0
 50
180.0
 51
270.0
  0
ARC
  8
41
  6
CONTINUOUS
 62
     6
  5
2CE
 10
844.25
 20
2319.0
 30
0.0
 40
3.0
 50
180.0
 51
270.0
  0
LINE
  8
41
  6
HIDDEN
 62
     3
  5
2CF
 10
857.75
 20
2370.0
 30
0.0
 11
795.25
 21
2370.0
 31
0.0
  0
LINE
  8
41
  6
CONTINUOUS
 62
     6
  5
2D0
 10
857.75
 20
2366.0
 30
0.0
 11
795.25
 21
2366.0
 31
0.0
  0
LINE
  8
4
  6
CONTINUOUS
 62
     1
  5
2D1
 10
857.75
 20
2366.0
 30
0.0
 11
845.25
 21
2366.0
 31
0.0
  0
LINE
  8
4
  6
CONTINUOUS
 62
     1
  5
2D2
 10
845.25
 20
2291.0
 30
0.0
 11
857.75
 21
2291.0
 31
0.0
  0
LINE
  8
4
  6
CONTINUOUS
 62
     1
  5
2D3
 10
845.25
 20
2366.0
 30
0.0
 11
845.25
 21
2291.0
 31
0.0
  0
LINE
  8
4
  6
HIDDEN
 62
     3
  5
2D4
 10
880.25
 20
4541.0
 30
0.0
 11
880.25
 21
4641.0
 31
0.0
  0
LINE
  8
1
  6
CONTINUOUS
 62
     4
  5
2D5
 10
870.25
 20
2891.0
 30
0.0
 11
870.25
 21
3376.75
 31
0.0
  0
LINE
  8
6
  6
CONTINUOUS
 62
     1
  5
2D6
 10
870.25
 20
3166.0
 30
0.0
 11
662.25
 21
3166.0
 31
0.0
  0
LINE
  8
6
  6
CONTINUOUS
 62
     1
  5
2D7
 10
870.25
 20
3141.0
 30
0.0
 11
687.25
 21
3141.0
 31
0.0
  0
LINE
  8
6
  6
CONTINUOUS
 62
     1
  5
2D8
 10
870.25
 20
2941.0
 30
0.0
 11
687.25
 21
2941.0
 31
0.0
  0
LINE
  8
6
  6
CONTINUOUS
 62
     1
  5
2D9
 10
870.25
 20
2916.0
 30
0.0
 11
687.25
 21
2916.0
 31
0.0
  0
LINE
  8
4
  6
CONTINUOUS
 62
     1
  5
2DA
 10
1552.25
 20
2366.0
 30
0.0
 11
1007.75
 21
2366.0
 31
0.0
  0
LINE
  8
41
  6
HIDDEN
 62
     3
  5
2DB
 10
1007.75
 20
2370.0
 30
0.0
 11
1807.25
 21
2370.0
 31
0.0
  0
LINE
  8
4
  6
CONTINUOUS
 62
     1
  5
2DC
 10
1552.25
 20
2291.0
 30
0.0
 11
1007.75
 21
2291.0
 31
0.0
  0
LINE
  8
13
  6
CONTINUOUS
 62
     3
  5
2DD
 10
1036.0
 20
2322.25
 30
0.0
 11
1020.0
 21
2324.25
 31
0.0
  0
LINE
  8
13
  6
CONTINUOUS
 62
     3
  5
2DE
 10
1034.0
 20
2365.25
 30
0.0
 11
1045.75
 21
2363.25
 31
0.0
  0
LINE
  8
13
  6
CONTINUOUS
 62
     3
  5
2DF
 10
1032.75
 20
2359.5
 30
0.0
 11
1044.25
 21
2357.5
 31
0.0
  0
LINE
  8
13
  6
CONTINUOUS
 62
     3
  5
2E0
 10
1031.0
 20
2353.5
 30
0.0
 11
1043.0
 21
2351.5
 31
0.0
  0
LINE
  8
13
  6
CONTINUOUS
 62
     3
  5
2E1
 10
1029.5
 20
2347.75
 30
0.0
 11
1041.75
 21
2345.75
 31
0.0
  0
LINE
  8
13
  6
CONTINUOUS
 62
     3
  5
2E2
 10
1028.0
 20
2342.0
 30
0.0
 11
1040.0
 21
2339.75
 31
0.0
  0
LINE
  8
13
  6
CONTINUOUS
 62
     3
  5
2E3
 10
1026.5
 20
2336.25
 30
0.0
 11
1038.75
 21
2334.0
 31
0.0
  0
LINE
  8
13
  6
CONTINUOUS
 62
     3
  5
2E4
 10
1025.0
 20
2330.25
 30
0.0
 11
1037.25
 21
2328.25
 31
0.0
  0
ARC
  8
13
  6
CONTINUOUS
 62
     3
  5
2E5
 10
268.5
 20
2540.0
 30
0.0
 40
797.75
 50
344.12
 51
347.4
  0
ARC
  8
13
  6
CONTINUOUS
 62
     3
  5
2E6
 10
255.5
 20
2540.0
 30
0.0
 40
797.75
 50
344.27
 51
347.4
  0
LINE
  8
13
  6
CONTINUOUS
 62
     3
  5
2E7
 10
1020.5
 20
2323.75
 30
0.0
 11
1019.25
 21
2317.0
 31
0.0
  0
LINE
  8
13
  6
CONTINUOUS
 62
     3
  5
2E8
 10
1018.0
 20
2311.0
 30
0.0
 11
1017.0
 21
2305.0
 31
0.0
  0
LINE
  8
13
  6
CONTINUOUS
 62
     3
  5
2E9
 10
1018.75
 20
2317.0
 30
0.0
 11
1020.0
 21
2324.25
 31
0.0
  0
LINE
  8
13
  6
CONTINUOUS
 62
     3
  5
2EA
 10
1017.5
 20
2311.0
 30
0.0
 11
1016.5
 21
2305.0
 31
0.0
  0
LINE
  8
13
  6
CONTINUOUS
 62
     3
  5
2EB
 10
1020.5
 20
2323.75
 30
0.0
 11
1036.0
 21
2321.75
 31
0.0
  0
LINE
  8
13
  6
CONTINUOUS
 62
     3
  5
2EC
 10
1016.5
 20
2305.0
 30
0.0
 11
1017.0
 21
2305.0
 31
0.0
  0
LINE
  8
2
  6
CONTINUOUS
 62
     6
  5
2ED
 10
1007.75
 20
2317.0
 30
0.0
 11
1027.75
 21
2317.0
 31
0.0
  0
LINE
  8
2
  6
CONTINUOUS
 62
     6
  5
2EE
 10
1027.75
 20
2311.0
 30
0.0
 11
1007.75
 21
2311.0
 31
0.0
  0
LINE
  8
2
  6
CONTINUOUS
 62
     6
  5
2EF
 10
1027.75
 20
2317.0
 30
0.0
 11
1027.75
 21
2311.0
 31
0.0
  0
LINE
  8
1
  6
CONTINUOUS
 62
     4
  5
2F0
 10
857.75
 20
2291.0
 30
0.0
 11
1007.75
 21
2291.0
 31
0.0
  0
LINE
  8
41
  6
CONTINUOUS
 62
     6
  5
2F1
 10
1232.25
 20
2416.0
 30
0.0
 11
1007.75
 21
2416.0
 31
0.0
  0
LINE
  8
2
  6
CONTINUOUS
 62
     6
  5
2F2
 10
1047.75
 20
2501.0
 30
0.0
 11
1047.75
 21
2561.0
 31
0.0
  0
LINE
  8
2
  6
CONTINUOUS
 62
     6
  5
2F3
 10
1047.75
 20
2561.0
 30
0.0
 11
1007.75
 21
2561.0
 31
0.0
  0
LINE
  8
2
  6
CONTINUOUS
 62
     6
  5
2F4
 10
1007.75
 20
2561.0
 30
0.0
 11
1007.75
 21
2501.0
 31
0.0
  0
LINE
  8
2
  6
CONTINUOUS
 62
     6
  5
2F5
 10
1007.75
 20
2501.0
 30
0.0
 11
1047.75
 21
2501.0
 31
0.0
  0
CIRCLE
  8
2
  6
CONTINUOUS
 62
     6
  5
2F6
 10
1022.75
 20
2531.0
 30
0.0
 40
10.0
  0
LINE
  8
13
  6
CONTINUOUS
 62
     3
  5
2F7
 10
1052.75
 20
2513.75
 30
0.0
 11
1065.75
 21
2512.0
 31
0.0
  0
LINE
  8
13
  6
CONTINUOUS
 62
     3
  5
2F8
 10
1052.25
 20
2508.25
 30
0.0
 11
1065.25
 21
2506.0
 31
0.0
  0
LINE
  8
13
  6
CONTINUOUS
 62
     3
  5
2F9
 10
1052.0
 20
2502.25
 30
0.0
 11
1065.0
 21
2500.0
 31
0.0
  0
LINE
  8
13
  6
CONTINUOUS
 62
     3
  5
2FA
 10
1051.75
 20
2496.25
 30
0.0
 11
1064.75
 21
2494.0
 31
0.0
  0
LINE
  8
13
  6
CONTINUOUS
 62
     3
  5
2FB
 10
1051.5
 20
2490.25
 30
0.0
 11
1064.75
 21
2487.75
 31
0.0
  0
LINE
  8
13
  6
CONTINUOUS
 62
     3
  5
2FC
 10
1050.75
 20
2484.25
 30
0.0
 11
1064.5
 21
2481.75
 31
0.0
  0
LINE
  8
13
  6
CONTINUOUS
 62
     3
  5
2FD
 10
1050.5
 20
2478.0
 30
0.0
 11
1063.75
 21
2475.75
 31
0.0
  0
LINE
  8
13
  6
CONTINUOUS
 62
     3
  5
2FE
 10
1050.25
 20
2472.0
 30
0.0
 11
1063.0
 21
2469.75
 31
0.0
  0
LINE
  8
13
  6
CONTINUOUS
 62
     3
  5
2FF
 10
1050.0
 20
2466.0
 30
0.0
 11
1062.25
 21
2463.75
 31
0.0
  0
LINE
  8
13
  6
CONTINUOUS
 62
     3
  5
300
 10
1049.25
 20
2460.0
 30
0.0
 11
1061.5
 21
2458.0
 31
0.0
  0
LINE
  8
13
  6
CONTINUOUS
 62
     3
  5
301
 10
1048.25
 20
2454.25
 30
0.0
 11
1060.75
 21
2452.0
 31
0.0
  0
LINE
  8
13
  6
CONTINUOUS
 62
     3
  5
302
 10
1047.5
 20
2448.25
 30
0.0
 11
1060.0
 21
2446.0
 31
0.0
  0
LINE
  8
13
  6
CONTINUOUS
 62
     3
  5
303
 10
1046.75
 20
2442.25
 30
0.0
 11
1059.25
 21
2440.0
 31
0.0
  0
LINE
  8
13
  6
CONTINUOUS
 62
     3
  5
304
 10
1046.25
 20
2436.25
 30
0.0
 11
1058.5
 21
2434.0
 31
0.0
  0
LINE
  8
13
  6
CONTINUOUS
 62
     3
  5
305
 10
1045.5
 20
2430.25
 30
0.0
 11
1057.75
 21
2428.0
 31
0.0
  0
LINE
  8
13
  6
CONTINUOUS
 62
     3
  5
306
 10
1044.5
 20
2424.25
 30
0.0
 11
1057.0
 21
2422.25
 31
0.0
  0
LINE
  8
13
  6
CONTINUOUS
 62
     3
  5
307
 10
1043.75
 20
2418.5
 30
0.0
 11
1056.0
 21
2416.25
 31
0.0
  0
ARC
  8
13
  6
CONTINUOUS
 62
     3
  5
308
 10
268.5
 20
2540.0
 30
0.0
 40
797.75
 50
351.06
 51
357.99
  0
ARC
  8
13
  6
CONTINUOUS
 62
     3
  5
309
 10
255.5
 20
2540.0
 30
0.0
 40
797.75
 50
351.06
 51
358.11
  0
ARC
  8
2
  6
CONTINUOUS
 62
     6
  5
30A
 10
1029.75
 20
2531.0
 30
0.0
 40
25.0
 50
316.22
 51
42.51
  0
LINE
  8
2
  6
CONTINUOUS
 62
     6
  5
30B
 10
1054.25
 20
2556.25
 30
0.0
 11
1054.25
 21
2535.0
 31
0.0
  0
LINE
  8
2
  6
CONTINUOUS
 62
     6
  5
30C
 10
1054.25
 20
2556.25
 30
0.0
 11
1064.25
 21
2556.25
 31
0.0
  0
LINE
  8
2
  6
CONTINUOUS
 62
     6
  5
30D
 10
1064.25
 20
2556.25
 30
0.0
 11
1064.25
 21
2521.25
 31
0.0
  0
LINE
  8
2
  6
CONTINUOUS
 62
     6
  5
30E
 10
1064.25
 20
2521.25
 30
0.0
 11
1047.75
 21
2513.75
 31
0.0
  0
LINE
  8
13
  6
CONTINUOUS
 62
     3
  5
30F
 10
1055.25
 20
2517.25
 30
0.0
 11
1055.25
 21
2513.5
 31
0.0
  0
LINE
  8
13
  6
CONTINUOUS
 62
     3
  5
310
 10
1064.5
 20
2515.75
 30
0.0
 11
1064.25
 21
2512.5
 31
0.0
  0
LINE
  8
13
  6
CONTINUOUS
 62
     3
  5
311
 10
1055.25
 20
2517.25
 30
0.0
 11
1064.5
 21
2515.75
 31
0.0
  0
LINE
  8
13
  6
CONTINUOUS
 62
     3
  5
312
 10
1061.0
 20
2519.75
 30
0.0
 11
1061.0
 21
2516.5
 31
0.0
  0
LINE
  8
13
  6
CONTINUOUS
 62
     3
  5
313
 10
1060.5
 20
2519.5
 30
0.0
 11
1060.5
 21
2516.5
 31
0.0
  0
LINE
  8
13
  6
CONTINUOUS
 62
     3
  5
314
 10
1060.75
 20
2516.5
 30
0.0
 11
1060.75
 21
2519.5
 31
0.0
  0
LINE
  8
6
  6
CONTINUOUS
 62
     1
  5
315
 10
995.25
 20
2916.0
 30
0.0
 11
1232.25
 21
2916.0
 31
0.0
  0
LINE
  8
2
  6
CONTINUOUS
 62
     6
  5
316
 10
979.0
 20
2891.0
 30
0.0
 11
979.0
 21
2926.0
 31
0.0
  0
LINE
  8
2
  6
CONTINUOUS
 62
     6
  5
317
 10
949.0
 20
2891.0
 30
0.0
 11
949.0
 21
2926.0
 31
0.0
  0
LINE
  8
2
  6
CONTINUOUS
 62
     6
  5
318
 10
949.0
 20
2926.0
 30
0.0
 11
979.0
 21
2926.0
 31
0.0
  0
LINE
  8
2
  6
CONTINUOUS
 62
     6
  5
319
 10
941.5
 20
2891.0
 30
0.0
 11
941.5
 21
2791.0
 31
0.0
  0
LINE
  8
2
  6
CONTINUOUS
 62
     6
  5
31A
 10
986.5
 20
2891.0
 30
0.0
 11
986.5
 21
2791.0
 31
0.0
  0
LINE
  8
2
  6
CONTINUOUS
 62
     6
  5
31B
 10
941.5
 20
2791.0
 30
0.0
 11
986.5
 21
2791.0
 31
0.0
  0
LINE
  8
2
  6
CONTINUOUS
 62
     6
  5
31C
 10
946.5
 20
2791.0
 30
0.0
 11
946.5
 21
2721.0
 31
0.0
  0
LINE
  8
2
  6
CONTINUOUS
 62
     6
  5
31D
 10
981.5
 20
2791.0
 30
0.0
 11
981.5
 21
2721.0
 31
0.0
  0
LINE
  8
2
  6
CONTINUOUS
 62
     6
  5
31E
 10
946.5
 20
2721.0
 30
0.0
 11
981.5
 21
2721.0
 31
0.0
  0
LINE
  8
2
  6
HIDDEN
 62
     3
  5
31F
 10
974.0
 20
2891.0
 30
0.0
 11
974.0
 21
2926.0
 31
0.0
  0
LINE
  8
2
  6
HIDDEN
 62
     3
  5
320
 10
954.0
 20
2891.0
 30
0.0
 11
954.0
 21
2926.0
 31
0.0
  0
LINE
  8
2
  6
HIDDEN
 62
     3
  5
321
 10
946.5
 20
2891.0
 30
0.0
 11
946.5
 21
2791.0
 31
0.0
  0
LINE
  8
2
  6
HIDDEN
 62
     3
  5
322
 10
981.5
 20
2891.0
 30
0.0
 11
981.5
 21
2791.0
 31
0.0
  0
LINE
  8
2
  6
HIDDEN
 62
     3
  5
323
 10
951.5
 20
2791.0
 30
0.0
 11
951.5
 21
2721.0
 31
0.0
  0
LINE
  8
2
  6
HIDDEN
 62
     3
  5
324
 10
976.5
 20
2791.0
 30
0.0
 11
976.5
 21
2721.0
 31
0.0
  0
LINE
  8
13
  6
CONTINUOUS
 62
     3
  5
325
 10
950.5
 20
2676.75
 30
0.0
 11
944.0
 21
2683.0
 31
0.0
  0
LINE
  8
13
  6
CONTINUOUS
 62
     3
  5
326
 10
944.0
 20
2683.0
 30
0.0
 11
944.0
 21
2696.0
 31
0.0
  0
LINE
  8
13
  6
CONTINUOUS
 62
     3
  5
327
 10
977.5
 20
2676.75
 30
0.0
 11
950.5
 21
2676.75
 31
0.0
  0
LINE
  8
13
  6
CONTINUOUS
 62
     3
  5
328
 10
984.0
 20
2683.0
 30
0.0
 11
977.5
 21
2676.75
 31
0.0
  0
LINE
  8
13
  6
CONTINUOUS
 62
     3
  5
329
 10
984.0
 20
2683.0
 30
0.0
 11
984.0
 21
2696.0
 31
0.0
  0
LINE
  8
13
  6
CONTINUOUS
 62
     3
  5
32A
 10
957.0
 20
2721.0
 30
0.0
 11
971.0
 21
2721.0
 31
0.0
  0
ARC
  8
13
  6
CONTINUOUS
 62
     3
  5
32B
 10
980.75
 20
2693.0
 30
0.0
 40
37.0
 50
130.17
 51
175.63
  0
ARC
  8
13
  6
CONTINUOUS
 62
     3
  5
32C
 10
947.25
 20
2693.0
 30
0.0
 40
37.0
 50
4.37
 51
49.83
  0
LINE
  8
13
  6
CONTINUOUS
 62
     3
  5
32D
 10
964.0
 20
2676.75
 30
0.0
 11
964.0
 21
2721.0
 31
0.0
  0
CIRCLE
  8
13
  6
CONTINUOUS
 62
     3
  5
32E
 10
952.0
 20
2695.0
 30
0.0
 40
4.75
  0
CIRCLE
  8
13
  6
CONTINUOUS
 62
     3
  5
32F
 10
976.0
 20
2695.0
 30
0.0
 40
4.75
  0
ARC
  8
13
  6
CONTINUOUS
 62
     3
  5
330
 10
946.75
 20
2694.75
 30
0.0
 40
11.25
 50
256.46
 51
90.0
  0
ARC
  8
13
  6
CONTINUOUS
 62
     3
  5
331
 10
981.25
 20
2694.75
 30
0.0
 40
11.25
 50
90.0
 51
283.54
  0
ARC
  8
13
  6
CONTINUOUS
 62
     3
  5
332
 10
972.25
 20
2649.25
 30
0.0
 40
20.25
 50
126.72
 51
227.5
  0
ARC
  8
13
  6
CONTINUOUS
 62
     3
  5
333
 10
955.75
 20
2649.25
 30
0.0
 40
20.25
 50
312.5
 51
54.13
  0
ARC
  8
13
  6
CONTINUOUS
 62
     3
  5
334
 10
969.75
 20
2649.25
 30
0.0
 40
13.0
 50
136.4
 51
223.6
  0
ARC
  8
13
  6
CONTINUOUS
 62
     3
  5
335
 10
958.25
 20
2649.25
 30
0.0
 40
13.0
 50
316.4
 51
43.6
  0
ARC
  8
13
  6
CONTINUOUS
 62
     3
  5
336
 10
964.0
 20
2642.75
 30
0.0
 40
4.25
 50
215.15
 51
324.85
  0
ARC
  8
13
  6
CONTINUOUS
 62
     3
  5
337
 10
964.0
 20
2640.75
 30
0.0
 40
8.5
 50
231.98
 51
308.02
  0
LINE
  8
2
  6
HIDDEN
 62
     5
  5
338
 10
964.0
 20
2639.25
 30
0.0
 11
976.5
 21
2416.0
 31
0.0
  0
LINE
  8
13
  6
CONTINUOUS
 62
     3
  5
339
 10
967.5
 20
2658.0
 30
0.0
 11
967.5
 21
2676.75
 31
0.0
  0
LINE
  8
13
  6
CONTINUOUS
 62
     3
  5
33A
 10
960.5
 20
2658.0
 30
0.0
 11
960.5
 21
2676.75
 31
0.0
  0
ARC
  8
13
  6
CONTINUOUS
 62
     3
  5
33B
 10
964.0
 20
2660.5
 30
0.0
 40
4.25
 50
213.11
 51
326.89
  0
LINE
  8
1
  6
CONTINUOUS
 62
     4
  5
33C
 10
857.75
 20
2891.0
 30
0.0
 11
1007.75
 21
2891.0
 31
0.0
  0
LINE
  8
1
  6
CONTINUOUS
 62
     4
  5
33D
 10
1007.75
 20
2291.0
 30
0.0
 11
1007.75
 21
2891.0
 31
0.0
  0
LINE
  8
2
  6
HIDDEN
 62
     5
  5
33E
 10
964.0
 20
2639.25
 30
0.0
 11
1064.25
 21
2556.25
 31
0.0
  0
LINE
  8
6
  6
CONTINUOUS
 62
     1
  5
33F
 10
1832.25
 20
3166.0
 30
0.0
 11
995.25
 21
3166.0
 31
0.0
  0
LINE
  8
6
  6
CONTINUOUS
 62
     1
  5
340
 10
1807.25
 20
3141.0
 30
0.0
 11
995.25
 21
3141.0
 31
0.0
  0
ARC
  8
13
  6
CONTINUOUS
 62
     3
  5
341
 10
964.0
 20
3026.25
 30
0.0
 40
4.5
 50
36.87
 51
143.13
  0
ARC
  8
13
  6
CONTINUOUS
 62
     3
  5
342
 10
972.25
 20
2992.25
 30
0.0
 40
20.25
 50
126.29
 51
234.71
  0
ARC
  8
13
  6
CONTINUOUS
 62
     3
  5
343
 10
955.75
 20
2992.25
 30
0.0
 40
20.25
 50
305.46
 51
54.54
  0
ARC
  8
13
  6
CONTINUOUS
 62
     3
  5
344
 10
969.75
 20
2992.25
 30
0.0
 40
13.0
 50
136.4
 51
223.6
  0
ARC
  8
13
  6
CONTINUOUS
 62
     3
  5
345
 10
958.25
 20
2992.25
 30
0.0
 40
13.0
 50
316.4
 51
43.6
  0
ARC
  8
13
  6
CONTINUOUS
 62
     3
  5
346
 10
972.25
 20
2948.5
 30
0.0
 40
20.25
 50
125.29
 51
234.54
  0
ARC
  8
13
  6
CONTINUOUS
 62
     3
  5
347
 10
955.75
 20
2948.5
 30
0.0
 40
20.25
 50
305.87
 51
54.54
  0
ARC
  8
13
  6
CONTINUOUS
 62
     3
  5
348
 10
969.75
 20
2948.5
 30
0.0
 40
13.0
 50
136.4
 51
223.6
  0
ARC
  8
13
  6
CONTINUOUS
 62
     3
  5
349
 10
958.25
 20
2948.5
 30
0.0
 40
13.0
 50
316.4
 51
43.6
  0
ARC
  8
13
  6
CONTINUOUS
 62
     3
  5
34A
 10
964.0
 20
3115.5
 30
0.0
 40
4.5
 50
36.87
 51
143.13
  0
ARC
  8
13
  6
CONTINUOUS
 62
     3
  5
34B
 10
972.25
 20
3081.5
 30
0.0
 40
20.25
 50
126.72
 51
235.12
  0
ARC
  8
13
  6
CONTINUOUS
 62
     3
  5
34C
 10
955.75
 20
3081.5
 30
0.0
 40
20.25
 50
306.03
 51
55.12
  0
ARC
  8
13
  6
CONTINUOUS
 62
     3
  5
34D
 10
969.75
 20
3081.5
 30
0.0
 40
13.0
 50
136.4
 51
223.6
  0
ARC
  8
13
  6
CONTINUOUS
 62
     3
  5
34E
 10
958.25
 20
3081.5
 30
0.0
 40
13.0
 50
316.4
 51
43.6
  0
ARC
  8
13
  6
CONTINUOUS
 62
     3
  5
34F
 10
972.25
 20
3037.75
 30
0.0
 40
20.25
 50
124.88
 51
233.71
  0
ARC
  8
13
  6
CONTINUOUS
 62
     3
  5
350
 10
955.75
 20
3037.75
 30
0.0
 40
20.25
 50
305.46
 51
53.56
  0
ARC
  8
13
  6
CONTINUOUS
 62
     3
  5
351
 10
969.75
 20
3037.75
 30
0.0
 40
13.0
 50
136.4
 51
223.6
  0
ARC
  8
13
  6
CONTINUOUS
 62
     3
  5
352
 10
958.25
 20
3037.75
 30
0.0
 40
13.0
 50
316.4
 51
43.6
  0
LINE
  8
13
  6
CONTINUOUS
 62
     3
  5
353
 10
967.5
 20
3207.5
 30
0.0
 11
967.5
 21
3177.5
 31
0.0
  0
ARC
  8
13
  6
CONTINUOUS
 62
     3
  5
354
 10
964.0
 20
3204.75
 30
0.0
 40
4.5
 50
36.87
 51
143.13
  0
LINE
  8
13
  6
CONTINUOUS
 62
     3
  5
355
 10
960.5
 20
3207.5
 30
0.0
 11
960.5
 21
3177.5
 31
0.0
  0
ARC
  8
13
  6
CONTINUOUS
 62
     3
  5
356
 10
972.25
 20
3170.75
 30
0.0
 40
20.25
 50
126.72
 51
235.71
  0
ARC
  8
13
  6
CONTINUOUS
 62
     3
  5
357
 10
955.75
 20
3170.75
 30
0.0
 40
20.25
 50
306.59
 51
55.12
  0
ARC
  8
13
  6
CONTINUOUS
 62
     3
  5
358
 10
969.75
 20
3170.75
 30
0.0
 40
13.0
 50
136.4
 51
223.6
  0
ARC
  8
13
  6
CONTINUOUS
 62
     3
  5
359
 10
958.25
 20
3170.75
 30
0.0
 40
13.0
 50
316.4
 51
43.6
  0
ARC
  8
13
  6
CONTINUOUS
 62
     3
  5
35A
 10
964.0
 20
3180.0
 30
0.0
 40
4.25
 50
213.11
 51
326.89
  0
ARC
  8
13
  6
CONTINUOUS
 62
     3
  5
35B
 10
972.25
 20
3127.0
 30
0.0
 40
20.25
 50
125.11
 51
234.95
  0
ARC
  8
13
  6
CONTINUOUS
 62
     3
  5
35C
 10
955.75
 20
3127.0
 30
0.0
 40
20.25
 50
305.29
 51
54.71
  0
ARC
  8
13
  6
CONTINUOUS
 62
     3
  5
35D
 10
969.75
 20
3127.0
 30
0.0
 40
13.0
 50
133.41
 51
223.6
  0
ARC
  8
13
  6
CONTINUOUS
 62
     3
  5
35E
 10
958.25
 20
3127.0
 30
0.0
 40
13.0
 50
316.4
 51
43.6
  0
LINE
  8
13
  6
CONTINUOUS
 62
     3
  5
35F
 10
967.5
 20
3118.25
 30
0.0
 11
967.5
 21
3090.25
 31
0.0
  0
LINE
  8
13
  6
CONTINUOUS
 62
     3
  5
360
 10
960.5
 20
3118.25
 30
0.0
 11
960.5
 21
3090.25
 31
0.0
  0
LINE
  8
13
  6
CONTINUOUS
 62
     3
  5
361
 10
960.75
 20
3073.5
 30
0.0
 11
960.75
 21
3046.75
 31
0.0
  0
LINE
  8
13
  6
CONTINUOUS
 62
     3
  5
362
 10
967.75
 20
3073.5
 30
0.0
 11
967.75
 21
3046.75
 31
0.0
  0
LINE
  8
13
  6
CONTINUOUS
 62
     3
  5
363
 10
960.75
 20
3161.75
 30
0.0
 11
960.75
 21
3136.0
 31
0.0
  0
LINE
  8
13
  6
CONTINUOUS
 62
     3
  5
364
 10
967.75
 20
3161.75
 30
0.0
 11
967.75
 21
3136.0
 31
0.0
  0
ARC
  8
13
  6
CONTINUOUS
 62
     3
  5
365
 10
964.25
 20
3160.5
 30
0.0
 40
3.75
 50
18.74
 51
161.26
  0
ARC
  8
13
  6
CONTINUOUS
 62
     3
  5
366
 10
964.25
 20
3138.0
 30
0.0
 40
4.0
 50
209.7
 51
326.05
  0
ARC
  8
13
  6
CONTINUOUS
 62
     3
  5
367
 10
964.0
 20
3091.75
 30
0.0
 40
3.75
 50
203.77
 51
336.23
  0
ARC
  8
13
  6
CONTINUOUS
 62
     3
  5
368
 10
964.25
 20
3072.0
 30
0.0
 40
3.75
 50
21.45
 51
158.55
  0
ARC
  8
13
  6
CONTINUOUS
 62
     3
  5
369
 10
964.25
 20
3048.25
 30
0.0
 40
3.75
 50
204.34
 51
335.66
  0
LINE
  8
13
  6
CONTINUOUS
 62
     3
  5
36A
 10
967.5
 20
3029.0
 30
0.0
 11
967.5
 21
3001.0
 31
0.0
  0
LINE
  8
13
  6
CONTINUOUS
 62
     3
  5
36B
 10
960.5
 20
3029.0
 30
0.0
 11
960.5
 21
3001.0
 31
0.0
  0
LINE
  8
13
  6
CONTINUOUS
 62
     3
  5
36C
 10
960.75
 20
2983.25
 30
0.0
 11
960.75
 21
2957.5
 31
0.0
  0
LINE
  8
13
  6
CONTINUOUS
 62
     3
  5
36D
 10
967.5
 20
2957.5
 30
0.0
 11
967.5
 21
2983.25
 31
0.0
  0
ARC
  8
13
  6
CONTINUOUS
 62
     3
  5
36E
 10
964.0
 20
2938.0
 30
0.0
 40
4.0
 50
25.19
 51
150.72
  0
ARC
  8
13
  6
CONTINUOUS
 62
     3
  5
36F
 10
964.25
 20
2959.25
 30
0.0
 40
3.75
 50
208.65
 51
331.35
  0
ARC
  8
13
  6
CONTINUOUS
 62
     3
  5
370
 10
964.25
 20
2981.5
 30
0.0
 40
3.75
 50
28.24
 51
151.76
  0
ARC
  8
13
  6
CONTINUOUS
 62
     3
  5
371
 10
964.0
 20
3002.5
 30
0.0
 40
3.75
 50
204.34
 51
335.66
  0
LINE
  8
110
  6
CENTER
 62
     7
  5
372
 10
964.0
 20
2980.0
 30
0.0
 11
964.0
 21
2741.75
 31
0.0
  0
LINE
  8
13
  6
CONTINUOUS
 62
     3
  5
373
 10
967.5
 20
2926.0
 30
0.0
 11
967.5
 21
2940.0
 31
0.0
  0
LINE
  8
13
  6
CONTINUOUS
 62
     3
  5
374
 10
960.5
 20
2926.0
 30
0.0
 11
960.5
 21
2940.0
 31
0.0
  0
LINE
  8
1
  6
CONTINUOUS
 62
     4
  5
375
 10
995.25
 20
2891.0
 30
0.0
 11
995.25
 21
3414.75
 31
0.0
  0
LINE
  8
6
  6
CONTINUOUS
 62
     1
  5
376
 10
1807.25
 20
2941.0
 30
0.0
 11
982.75
 21
2941.0
 31
0.0
  0
ARC
  8
13
  6
CONTINUOUS
 62
     3
  5
377
 10
972.25
 20
4615.25
 30
0.0
 40
20.25
 50
126.72
 51
235.71
  0
ARC
  8
13
  6
CONTINUOUS
 62
     3
  5
378
 10
955.75
 20
4615.25
 30
0.0
 40
20.25
 50
306.59
 51
54.71
  0
ARC
  8
13
  6
CONTINUOUS
 62
     3
  5
379
 10
969.75
 20
4615.25
 30
0.0
 40
13.0
 50
136.4
 51
223.6
  0
ARC
  8
13
  6
CONTINUOUS
 62
     3
  5
37A
 10
958.25
 20
4615.25
 30
0.0
 40
13.0
 50
316.4
 51
43.6
  0
ARC
  8
13
  6
CONTINUOUS
 62
     3
  5
37B
 10
964.25
 20
4605.0
 30
0.0
 40
3.75
 50
18.74
 51
161.26
  0
LINE
  8
13
  6
CONTINUOUS
 62
     3
  5
37C
 10
967.5
 20
4641.0
 30
0.0
 11
967.5
 21
4623.5
 31
0.0
  0
LINE
  8
13
  6
CONTINUOUS
 62
     3
  5
37D
 10
960.5
 20
4641.0
 30
0.0
 11
960.5
 21
4623.5
 31
0.0
  0
ARC
  8
13
  6
CONTINUOUS
 62
     3
  5
37E
 10
964.0
 20
4625.0
 30
0.0
 40
3.75
 50
204.53
 51
335.47
  0
LINE
  8
4
  6
HIDDEN
 62
     3
  5
37F
 10
985.25
 20
4541.0
 30
0.0
 11
985.25
 21
4641.0
 31
0.0
  0
LINE
  8
1
  6
CONTINUOUS
 62
     4
  5
380
 10
870.25
 20
4641.0
 30
0.0
 11
995.25
 21
4641.0
 31
0.0
  0
LINE
  8
4
  6
HIDDEN
 62
     3
  5
381
 10
985.25
 20
4541.0
 30
0.0
 11
880.25
 21
4541.0
 31
0.0
  0
LINE
  8
55
  6
CONTINUOUS
 62
     3
  5
382
 10
807.25
 20
3271.0
 30
0.0
 11
807.25
 21
3250.25
 31
0.0
  0
LINE
  8
55
  6
CONTINUOUS
 62
     3
  5
383
 10
807.25
 20
3250.25
 30
0.0
 11
893.75
 21
3208.75
 31
0.0
  0
LINE
  8
55
  6
CONTINUOUS
 62
     3
  5
384
 10
814.75
 20
2523.75
 30
0.0
 11
814.75
 21
2501.75
 31
0.0
  0
LINE
  8
55
  6
CONTINUOUS
 62
     3
  5
385
 10
814.75
 20
2501.75
 30
0.0
 11
883.75
 21
2447.0
 31
0.0
  0
LINE
  8
55
  6
CONTINUOUS
 62
     3
  5
386
 10
1279.0
 20
2718.5
 30
0.0
 11
1062.75
 21
2535.0
 31
0.0
  0
LINE
  8
60
  6
CONTINUOUS
 62
     2
  5
387
 10
2281.75
 20
5006.75
 30
0.0
 11
2319.25
 21
5006.75
 31
0.0
  0
LINE
  8
60
  6
CONTINUOUS
 62
     2
  5
388
 10
2281.75
 20
5006.75
 30
0.0
 11
2281.75
 21
5018.0
 31
0.0
  0
LINE
  8
60
  6
CONTINUOUS
 62
     2
  5
389
 10
2319.25
 20
5006.75
 30
0.0
 11
2319.25
 21
5018.0
 31
0.0
  0
LINE
  8
60
  6
CONTINUOUS
 62
     2
  5
38A
 10
2281.75
 20
5018.0
 30
0.0
 11
2292.5
 21
5028.75
 31
0.0
  0
LINE
  8
60
  6
CONTINUOUS
 62
     2
  5
38B
 10
2292.5
 20
5028.75
 30
0.0
 11
2281.75
 21
5037.75
 31
0.0
  0
LINE
  8
60
  6
CONTINUOUS
 62
     2
  5
38C
 10
2281.75
 20
5049.0
 30
0.0
 11
2281.75
 21
5037.75
 31
0.0
  0
LINE
  8
60
  6
CONTINUOUS
 62
     2
  5
38D
 10
2319.25
 20
5049.0
 30
0.0
 11
2281.75
 21
5049.0
 31
0.0
  0
LINE
  8
60
  6
CONTINUOUS
 62
     2
  5
38E
 10
2319.25
 20
5037.75
 30
0.0
 11
2296.5
 21
5037.75
 31
0.0
  0
LINE
  8
60
  6
CONTINUOUS
 62
     2
  5
38F
 10
2303.0
 20
5028.75
 30
0.0
 11
2296.5
 21
5037.75
 31
0.0
  0
LINE
  8
60
  6
CONTINUOUS
 62
     2
  5
390
 10
2303.0
 20
5028.75
 30
0.0
 11
2296.5
 21
5018.0
 31
0.0
  0
LINE
  8
60
  6
CONTINUOUS
 62
     2
  5
391
 10
2319.25
 20
5018.0
 30
0.0
 11
2296.5
 21
5018.0
 31
0.0
  0
LINE
  8
60
  6
CONTINUOUS
 62
     2
  5
392
 10
2319.25
 20
5037.75
 30
0.0
 11
2319.25
 21
5049.0
 31
0.0
  0
LINE
  8
60
  6
CONTINUOUS
 62
     2
  5
393
 10
2319.25
 20
5069.25
 30
0.0
 11
2308.5
 21
5058.5
 31
0.0
  0
LINE
  8
60
  6
CONTINUOUS
 62
     2
  5
394
 10
2319.25
 20
5085.5
 30
0.0
 11
2308.5
 21
5096.5
 31
0.0
  0
LINE
  8
60
  6
CONTINUOUS
 62
     2
  5
395
 10
2308.5
 20
5096.5
 30
0.0
 11
2303.0
 21
5096.5
 31
0.0
  0
LINE
  8
60
  6
CONTINUOUS
 62
     2
  5
396
 10
2303.0
 20
5096.5
 30
0.0
 11
2303.0
 21
5085.5
 31
0.0
  0
LINE
  8
60
  6
CONTINUOUS
 62
     2
  5
397
 10
2303.0
 20
5085.5
 30
0.0
 11
2308.5
 21
5085.5
 31
0.0
  0
LINE
  8
60
  6
CONTINUOUS
 62
     2
  5
398
 10
2308.5
 20
5085.5
 30
0.0
 11
2308.5
 21
5069.25
 31
0.0
  0
LINE
  8
60
  6
CONTINUOUS
 62
     2
  5
399
 10
2292.5
 20
5069.25
 30
0.0
 11
2308.5
 21
5069.25
 31
0.0
  0
LINE
  8
60
  6
CONTINUOUS
 62
     2
  5
39A
 10
2292.5
 20
5085.5
 30
0.0
 11
2292.5
 21
5069.25
 31
0.0
  0
LINE
  8
60
  6
CONTINUOUS
 62
     2
  5
39B
 10
2298.0
 20
5085.5
 30
0.0
 11
2292.5
 21
5085.5
 31
0.0
  0
LINE
  8
60
  6
CONTINUOUS
 62
     2
  5
39C
 10
2298.0
 20
5096.5
 30
0.0
 11
2298.0
 21
5085.5
 31
0.0
  0
LINE
  8
60
  6
CONTINUOUS
 62
     2
  5
39D
 10
2292.5
 20
5096.5
 30
0.0
 11
2298.0
 21
5096.5
 31
0.0
  0
LINE
  8
60
  6
CONTINUOUS
 62
     2
  5
39E
 10
2281.75
 20
5085.5
 30
0.0
 11
2292.5
 21
5096.5
 31
0.0
  0
LINE
  8
60
  6
CONTINUOUS
 62
     2
  5
39F
 10
2281.75
 20
5069.25
 30
0.0
 11
2281.75
 21
5085.5
 31
0.0
  0
LINE
  8
60
  6
CONTINUOUS
 62
     2
  5
3A0
 10
2292.5
 20
5058.5
 30
0.0
 11
2281.75
 21
5069.25
 31
0.0
  0
LINE
  8
60
  6
CONTINUOUS
 62
     2
  5
3A1
 10
2308.5
 20
5058.5
 30
0.0
 11
2292.5
 21
5058.5
 31
0.0
  0
LINE
  8
60
  6
CONTINUOUS
 62
     2
  5
3A2
 10
2319.25
 20
5069.25
 30
0.0
 11
2319.25
 21
5085.5
 31
0.0
  0
LINE
  8
60
  6
CONTINUOUS
 62
     2
  5
3A3
 10
2319.25
 20
5116.5
 30
0.0
 11
2308.5
 21
5105.75
 31
0.0
  0
LINE
  8
60
  6
CONTINUOUS
 62
     2
  5
3A4
 10
2319.25
 20
5132.75
 30
0.0
 11
2308.5
 21
5143.75
 31
0.0
  0
LINE
  8
60
  6
CONTINUOUS
 62
     2
  5
3A5
 10
2308.5
 20
5143.75
 30
0.0
 11
2303.0
 21
5143.75
 31
0.0
  0
LINE
  8
60
  6
CONTINUOUS
 62
     2
  5
3A6
 10
2303.0
 20
5143.75
 30
0.0
 11
2303.0
 21
5132.75
 31
0.0
  0
LINE
  8
60
  6
CONTINUOUS
 62
     2
  5
3A7
 10
2303.0
 20
5132.75
 30
0.0
 11
2308.5
 21
5132.75
 31
0.0
  0
LINE
  8
60
  6
CONTINUOUS
 62
     2
  5
3A8
 10
2308.5
 20
5132.75
 30
0.0
 11
2308.5
 21
5116.5
 31
0.0
  0
LINE
  8
60
  6
CONTINUOUS
 62
     2
  5
3A9
 10
2292.5
 20
5116.5
 30
0.0
 11
2308.5
 21
5116.5
 31
0.0
  0
LINE
  8
60
  6
CONTINUOUS
 62
     2
  5
3AA
 10
2292.5
 20
5132.75
 30
0.0
 11
2292.5
 21
5116.5
 31
0.0
  0
LINE
  8
60
  6
CONTINUOUS
 62
     2
  5
3AB
 10
2298.0
 20
5132.75
 30
0.0
 11
2292.5
 21
5132.75
 31
0.0
  0
LINE
  8
60
  6
CONTINUOUS
 62
     2
  5
3AC
 10
2298.0
 20
5143.75
 30
0.0
 11
2298.0
 21
5132.75
 31
0.0
  0
LINE
  8
60
  6
CONTINUOUS
 62
     2
  5
3AD
 10
2292.5
 20
5143.75
 30
0.0
 11
2298.0
 21
5143.75
 31
0.0
  0
LINE
  8
60
  6
CONTINUOUS
 62
     2
  5
3AE
 10
2281.75
 20
5132.75
 30
0.0
 11
2292.5
 21
5143.75
 31
0.0
  0
LINE
  8
60
  6
CONTINUOUS
 62
     2
  5
3AF
 10
2281.75
 20
5116.5
 30
0.0
 11
2281.75
 21
5132.75
 31
0.0
  0
LINE
  8
60
  6
CONTINUOUS
 62
     2
  5
3B0
 10
2292.5
 20
5105.75
 30
0.0
 11
2281.75
 21
5116.5
 31
0.0
  0
LINE
  8
60
  6
CONTINUOUS
 62
     2
  5
3B1
 10
2308.5
 20
5105.75
 30
0.0
 11
2292.5
 21
5105.75
 31
0.0
  0
LINE
  8
60
  6
CONTINUOUS
 62
     2
  5
3B2
 10
2319.25
 20
5116.5
 30
0.0
 11
2319.25
 21
5132.75
 31
0.0
  0
ARC
  8
13
  6
CONTINUOUS
 62
     3
  5
3B3
 10
972.25
 20
4566.5
 30
0.0
 40
20.25
 50
125.11
 51
234.95
  0
ARC
  8
13
  6
CONTINUOUS
 62
     3
  5
3B4
 10
955.75
 20
4566.5
 30
0.0
 40
20.25
 50
305.29
 51
52.84
  0
ARC
  8
13
  6
CONTINUOUS
 62
     3
  5
3B5
 10
969.75
 20
4566.5
 30
0.0
 40
13.0
 50
133.41
 51
223.6
  0
ARC
  8
13
  6
CONTINUOUS
 62
     3
  5
3B6
 10
958.25
 20
4566.5
 30
0.0
 40
13.0
 50
316.4
 51
43.6
  0
LINE
  8
13
  6
CONTINUOUS
 62
     3
  5
3B7
 10
960.75
 20
4606.25
 30
0.0
 11
960.75
 21
4575.5
 31
0.0
  0
LINE
  8
13
  6
CONTINUOUS
 62
     3
  5
3B8
 10
967.75
 20
4606.25
 30
0.0
 11
967.75
 21
4575.5
 31
0.0
  0
ARC
  8
13
  6
CONTINUOUS
 62
     3
  5
3B9
 10
964.25
 20
4577.5
 30
0.0
 40
4.0
 50
209.7
 51
326.05
  0
ARC
  8
13
  6
CONTINUOUS
 62
     3
  5
3BA
 10
964.0
 20
4557.0
 30
0.0
 40
3.5
 50
12.98
 51
167.02
  0
LINE
  8
10
  6
CONTINUOUS
 62
     6
  5
3BB
 10
1284.0
 20
2810.0
 30
0.0
 11
1284.0
 21
2837.0
 31
0.0
  0
LINE
  8
10
  6
CONTINUOUS
 62
     6
  5
3BC
 10
1284.0
 20
2837.0
 30
0.0
 11
1257.0
 21
2837.0
 31
0.0
  0
LINE
  8
10
  6
CONTINUOUS
 62
     6
  5
3BD
 10
1257.0
 20
2837.0
 30
0.0
 11
1257.0
 21
2810.0
 31
0.0
  0
LINE
  8
10
  6
CONTINUOUS
 62
     6
  5
3BE
 10
1257.0
 20
2810.0
 30
0.0
 11
1284.0
 21
2810.0
 31
0.0
  0
CIRCLE
  8
10
  6
CONTINUOUS
 62
     6
  5
3BF
 10
1270.5
 20
2823.5
 30
0.0
 40
4.5
  0
LINE
  8
10
  6
CONTINUOUS
 62
     6
  5
3C0
 10
1205.0
 20
2490.0
 30
0.0
 11
1205.0
 21
2517.0
 31
0.0
  0
LINE
  8
10
  6
CONTINUOUS
 62
     6
  5
3C1
 10
1205.0
 20
2517.0
 30
0.0
 11
1232.0
 21
2517.0
 31
0.0
  0
LINE
  8
10
  6
CONTINUOUS
 62
     6
  5
3C2
 10
1232.0
 20
2517.0
 30
0.0
 11
1232.0
 21
2490.0
 31
0.0
  0
LINE
  8
10
  6
CONTINUOUS
 62
     6
  5
3C3
 10
1232.0
 20
2490.0
 30
0.0
 11
1205.0
 21
2490.0
 31
0.0
  0
CIRCLE
  8
10
  6
CONTINUOUS
 62
     6
  5
3C4
 10
1218.5
 20
2503.5
 30
0.0
 40
4.5
  0
LINE
  8
10
  6
CONTINUOUS
 62
     6
  5
3C5
 10
1284.25
 20
2517.0
 30
0.0
 11
1284.25
 21
2490.0
 31
0.0
  0
LINE
  8
10
  6
CONTINUOUS
 62
     6
  5
3C6
 10
1284.25
 20
2490.0
 30
0.0
 11
1257.25
 21
2490.0
 31
0.0
  0
LINE
  8
10
  6
CONTINUOUS
 62
     6
  5
3C7
 10
1257.25
 20
2490.0
 30
0.0
 11
1257.25
 21
2517.0
 31
0.0
  0
LINE
  8
10
  6
CONTINUOUS
 62
     6
  5
3C8
 10
1257.25
 20
2517.0
 30
0.0
 11
1284.25
 21
2517.0
 31
0.0
  0
CIRCLE
  8
10
  6
CONTINUOUS
 62
     6
  5
3C9
 10
1270.75
 20
2503.5
 30
0.0
 40
4.5
  0
LINE
  8
10
  6
CONTINUOUS
 62
     6
  5
3CA
 10
1545.75
 20
2889.0
 30
0.0
 11
1518.75
 21
2889.0
 31
0.0
  0
LINE
  8
10
  6
CONTINUOUS
 62
     6
  5
3CB
 10
1518.75
 20
2889.0
 30
0.0
 11
1518.75
 21
2916.0
 31
0.0
  0
LINE
  8
10
  6
CONTINUOUS
 62
     6
  5
3CC
 10
1518.75
 20
2916.0
 30
0.0
 11
1545.75
 21
2916.0
 31
0.0
  0
LINE
  8
10
  6
CONTINUOUS
 62
     6
  5
3CD
 10
1545.75
 20
2916.0
 30
0.0
 11
1545.75
 21
2889.0
 31
0.0
  0
CIRCLE
  8
10
  6
CONTINUOUS
 62
     6
  5
3CE
 10
1532.25
 20
2902.5
 30
0.0
 40
4.5
  0
LINE
  8
10
  6
CONTINUOUS
 62
     6
  5
3CF
 10
1780.25
 20
2812.5
 30
0.0
 11
1780.25
 21
2839.5
 31
0.0
  0
LINE
  8
10
  6
CONTINUOUS
 62
     6
  5
3D0
 10
1780.25
 20
2839.5
 30
0.0
 11
1807.25
 21
2839.5
 31
0.0
  0
LINE
  8
10
  6
CONTINUOUS
 62
     6
  5
3D1
 10
1807.25
 20
2839.5
 30
0.0
 11
1807.25
 21
2812.5
 31
0.0
  0
LINE
  8
10
  6
CONTINUOUS
 62
     6
  5
3D2
 10
1807.25
 20
2812.5
 30
0.0
 11
1780.25
 21
2812.5
 31
0.0
  0
CIRCLE
  8
10
  6
CONTINUOUS
 62
     6
  5
3D3
 10
1793.75
 20
2826.0
 30
0.0
 40
4.5
  0
LINE
  8
10
  6
CONTINUOUS
 62
     6
  5
3D4
 10
1780.25
 20
2519.5
 30
0.0
 11
1780.25
 21
2492.5
 31
0.0
  0
LINE
  8
10
  6
CONTINUOUS
 62
     6
  5
3D5
 10
1780.25
 20
2492.5
 30
0.0
 11
1807.25
 21
2492.5
 31
0.0
  0
LINE
  8
10
  6
CONTINUOUS
 62
     6
  5
3D6
 10
1807.25
 20
2492.5
 30
0.0
 11
1807.25
 21
2519.5
 31
0.0
  0
LINE
  8
10
  6
CONTINUOUS
 62
     6
  5
3D7
 10
1807.25
 20
2519.5
 30
0.0
 11
1780.25
 21
2519.5
 31
0.0
  0
CIRCLE
  8
10
  6
CONTINUOUS
 62
     6
  5
3D8
 10
1793.75
 20
2506.0
 30
0.0
 40
4.5
  0
LINE
  8
10
  6
CONTINUOUS
 62
     6
  5
3D9
 10
714.5
 20
2517.0
 30
0.0
 11
687.5
 21
2517.0
 31
0.0
  0
LINE
  8
10
  6
CONTINUOUS
 62
     6
  5
3DA
 10
687.5
 20
2517.0
 30
0.0
 11
687.5
 21
2490.0
 31
0.0
  0
LINE
  8
10
  6
CONTINUOUS
 62
     6
  5
3DB
 10
687.5
 20
2490.0
 30
0.0
 11
714.5
 21
2490.0
 31
0.0
  0
CIRCLE
  8
10
  6
CONTINUOUS
 62
     6
  5
3DC
 10
700.5
 20
2503.5
 30
0.0
 40
4.5
  0
LINE
  8
10
  6
CONTINUOUS
 62
     6
  5
3DD
 10
714.5
 20
2490.0
 30
0.0
 11
714.5
 21
2517.0
 31
0.0
  0
LINE
  8
10
  6
CONTINUOUS
 62
     6
  5
3DE
 10
714.25
 20
2810.0
 30
0.0
 11
714.25
 21
2837.0
 31
0.0
  0
LINE
  8
10
  6
CONTINUOUS
 62
     6
  5
3DF
 10
714.25
 20
2837.0
 30
0.0
 11
687.25
 21
2837.0
 31
0.0
  0
LINE
  8
10
  6
CONTINUOUS
 62
     6
  5
3E0
 10
687.25
 20
2837.0
 30
0.0
 11
687.25
 21
2810.0
 31
0.0
  0
LINE
  8
10
  6
CONTINUOUS
 62
     6
  5
3E1
 10
687.25
 20
2810.0
 30
0.0
 11
714.25
 21
2810.0
 31
0.0
  0
CIRCLE
  8
10
  6
CONTINUOUS
 62
     6
  5
3E2
 10
700.75
 20
2823.5
 30
0.0
 40
4.5
  0
LINE
  8
10
  6
CONTINUOUS
 62
     6
  5
3E3
 10
1205.0
 20
2810.0
 30
0.0
 11
1205.0
 21
2837.0
 31
0.0
  0
LINE
  8
10
  6
CONTINUOUS
 62
     6
  5
3E4
 10
1205.0
 20
2837.0
 30
0.0
 11
1232.0
 21
2837.0
 31
0.0
  0
LINE
  8
10
  6
CONTINUOUS
 62
     6
  5
3E5
 10
1232.0
 20
2837.0
 30
0.0
 11
1232.0
 21
2810.0
 31
0.0
  0
LINE
  8
10
  6
CONTINUOUS
 62
     6
  5
3E6
 10
1232.0
 20
2810.0
 30
0.0
 11
1205.0
 21
2810.0
 31
0.0
  0
CIRCLE
  8
10
  6
CONTINUOUS
 62
     6
  5
3E7
 10
1218.5
 20
2823.5
 30
0.0
 40
4.5
  0
LINE
  8
43
  6
CONTINUOUS
 62
     6
  5
3E8
 10
1057.75
 20
2183.0
 30
0.0
 11
807.75
 21
2183.0
 31
0.0
  0
LINE
  8
4
  6
CONTINUOUS
 62
     1
  5
3E9
 10
1557.75
 20
2110.0
 30
0.0
 11
1557.75
 21
2183.0
 31
0.0
  0
LINE
  8
4
  6
CONTINUOUS
 62
     1
  5
3EA
 10
1557.75
 20
2183.0
 30
0.0
 11
807.75
 21
2183.0
 31
0.0
  0
LINE
  8
43
  6
CONTINUOUS
 62
     3
  5
3EB
 10
825.25
 20
2199.0
 30
0.0
 11
840.25
 21
2199.0
 31
0.0
  0
LINE
  8
43
  6
CONTINUOUS
 62
     3
  5
3EC
 10
835.75
 20
2206.0
 30
0.0
 11
835.75
 21
2216.0
 31
0.0
  0
LINE
  8
43
  6
CONTINUOUS
 62
     3
  5
3ED
 10
829.75
 20
2206.0
 30
0.0
 11
829.75
 21
2216.0
 31
0.0
  0
LINE
  8
43
  6
CONTINUOUS
 62
     3
  5
3EE
 10
829.75
 20
2216.0
 30
0.0
 11
835.75
 21
2216.0
 31
0.0
  0
LINE
  8
43
  6
CONTINUOUS
 62
     3
  5
3EF
 10
835.75
 20
2216.0
 30
0.0
 11
829.75
 21
2213.75
 31
0.0
  0
LINE
  8
43
  6
CONTINUOUS
 62
     3
  5
3F0
 10
835.75
 20
2214.0
 30
0.0
 11
829.75
 21
2211.75
 31
0.0
  0
LINE
  8
43
  6
CONTINUOUS
 62
     3
  5
3F1
 10
835.75
 20
2212.0
 30
0.0
 11
829.75
 21
2209.75
 31
0.0
  0
LINE
  8
43
  6
CONTINUOUS
 62
     3
  5
3F2
 10
835.75
 20
2210.0
 30
0.0
 11
829.75
 21
2207.75
 31
0.0
  0
LINE
  8
43
  6
CONTINUOUS
 62
     3
  5
3F3
 10
835.75
 20
2208.0
 30
0.0
 11
830.5
 21
2206.0
 31
0.0
  0
LINE
  8
43
  6
CONTINUOUS
 62
     3
  5
3F4
 10
840.25
 20
2199.0
 30
0.0
 11
840.25
 21
2206.0
 31
0.0
  0
LINE
  8
43
  6
CONTINUOUS
 62
     3
  5
3F5
 10
840.25
 20
2206.0
 30
0.0
 11
825.25
 21
2206.0
 31
0.0
  0
LINE
  8
43
  6
CONTINUOUS
 62
     3
  5
3F6
 10
825.25
 20
2206.0
 30
0.0
 11
825.25
 21
2199.0
 31
0.0
  0
LINE
  8
43
  6
CONTINUOUS
 62
     3
  5
3F7
 10
827.75
 20
2206.0
 30
0.0
 11
827.75
 21
2199.0
 31
0.0
  0
LINE
  8
43
  6
CONTINUOUS
 62
     3
  5
3F8
 10
837.75
 20
2206.0
 30
0.0
 11
837.75
 21
2199.0
 31
0.0
  0
LINE
  8
43
  6
CONTINUOUS
 62
     6
  5
3F9
 10
807.75
 20
2199.0
 30
0.0
 11
807.75
 21
2183.0
 31
0.0
  0
LINE
  8
43
  6
CONTINUOUS
 62
     3
  5
3FA
 10
1025.25
 20
2199.0
 30
0.0
 11
1040.25
 21
2199.0
 31
0.0
  0
LINE
  8
43
  6
CONTINUOUS
 62
     3
  5
3FB
 10
1035.75
 20
2206.0
 30
0.0
 11
1035.75
 21
2216.0
 31
0.0
  0
LINE
  8
43
  6
CONTINUOUS
 62
     3
  5
3FC
 10
1029.75
 20
2206.0
 30
0.0
 11
1029.75
 21
2216.0
 31
0.0
  0
LINE
  8
43
  6
CONTINUOUS
 62
     3
  5
3FD
 10
1029.75
 20
2216.0
 30
0.0
 11
1035.75
 21
2216.0
 31
0.0
  0
LINE
  8
43
  6
CONTINUOUS
 62
     3
  5
3FE
 10
1035.75
 20
2216.0
 30
0.0
 11
1029.75
 21
2213.75
 31
0.0
  0
LINE
  8
43
  6
CONTINUOUS
 62
     3
  5
3FF
 10
1035.75
 20
2214.0
 30
0.0
 11
1029.75
 21
2211.75
 31
0.0
  0
LINE
  8
43
  6
CONTINUOUS
 62
     3
  5
400
 10
1035.75
 20
2212.0
 30
0.0
 11
1029.75
 21
2209.75
 31
0.0
  0
LINE
  8
43
  6
CONTINUOUS
 62
     3
  5
401
 10
1035.75
 20
2210.0
 30
0.0
 11
1029.75
 21
2207.75
 31
0.0
  0
LINE
  8
43
  6
CONTINUOUS
 62
     3
  5
402
 10
1035.75
 20
2208.0
 30
0.0
 11
1030.5
 21
2206.0
 31
0.0
  0
LINE
  8
43
  6
CONTINUOUS
 62
     3
  5
403
 10
1040.25
 20
2199.0
 30
0.0
 11
1040.25
 21
2206.0
 31
0.0
  0
LINE
  8
43
  6
CONTINUOUS
 62
     3
  5
404
 10
1040.25
 20
2206.0
 30
0.0
 11
1025.25
 21
2206.0
 31
0.0
  0
LINE
  8
43
  6
CONTINUOUS
 62
     3
  5
405
 10
1025.25
 20
2206.0
 30
0.0
 11
1025.25
 21
2199.0
 31
0.0
  0
LINE
  8
43
  6
CONTINUOUS
 62
     3
  5
406
 10
1027.75
 20
2206.0
 30
0.0
 11
1027.75
 21
2199.0
 31
0.0
  0
LINE
  8
43
  6
CONTINUOUS
 62
     3
  5
407
 10
1037.75
 20
2206.0
 30
0.0
 11
1037.75
 21
2199.0
 31
0.0
  0
LINE
  8
43
  6
CONTINUOUS
 62
     6
  5
408
 10
1057.75
 20
2199.0
 30
0.0
 11
1057.75
 21
2183.0
 31
0.0
  0
LINE
  8
43
  6
CONTINUOUS
 62
     6
  5
409
 10
807.75
 20
2199.0
 30
0.0
 11
1057.75
 21
2199.0
 31
0.0
  0
LINE
  8
1
  6
CONTINUOUS
 62
     4
  5
40A
 10
995.25
 20
2291.0
 30
0.0
 11
995.25
 21
2199.0
 31
0.0
  0
LINE
  8
1
  6
CONTINUOUS
 62
     4
  5
40B
 10
857.75
 20
2291.0
 30
0.0
 11
857.75
 21
2199.0
 31
0.0
  0
LINE
  8
4
  6
CONTINUOUS
 62
     1
  5
40C
 10
807.75
 20
2175.0
 30
0.0
 11
807.75
 21
2183.0
 31
0.0
  0
LINE
  8
43
  6
CONTINUOUS
 62
     3
  5
40D
 10
840.25
 20
2175.0
 30
0.0
 11
825.25
 21
2175.0
 31
0.0
  0
LINE
  8
43
  6
CONTINUOUS
 62
     3
  5
40E
 10
840.25
 20
2168.0
 30
0.0
 11
840.25
 21
2175.0
 31
0.0
  0
LINE
  8
43
  6
CONTINUOUS
 62
     3
  5
40F
 10
825.25
 20
2175.0
 30
0.0
 11
825.25
 21
2168.0
 31
0.0
  0
LINE
  8
43
  6
CONTINUOUS
 62
     3
  5
410
 10
825.25
 20
2168.0
 30
0.0
 11
840.25
 21
2168.0
 31
0.0
  0
LINE
  8
43
  6
CONTINUOUS
 62
     3
  5
411
 10
827.75
 20
2175.0
 30
0.0
 11
827.75
 21
2168.0
 31
0.0
  0
LINE
  8
43
  6
CONTINUOUS
 62
     3
  5
412
 10
837.75
 20
2175.0
 30
0.0
 11
837.75
 21
2168.0
 31
0.0
  0
LINE
  8
43
  6
CONTINUOUS
 62
     3
  5
413
 10
1040.25
 20
2175.0
 30
0.0
 11
1025.25
 21
2175.0
 31
0.0
  0
LINE
  8
43
  6
CONTINUOUS
 62
     3
  5
414
 10
1040.25
 20
2168.0
 30
0.0
 11
1040.25
 21
2175.0
 31
0.0
  0
LINE
  8
43
  6
CONTINUOUS
 62
     3
  5
415
 10
1025.25
 20
2175.0
 30
0.0
 11
1025.25
 21
2168.0
 31
0.0
  0
LINE
  8
43
  6
CONTINUOUS
 62
     3
  5
416
 10
1025.25
 20
2168.0
 30
0.0
 11
1040.25
 21
2168.0
 31
0.0
  0
LINE
  8
43
  6
CONTINUOUS
 62
     3
  5
417
 10
1027.75
 20
2175.0
 30
0.0
 11
1027.75
 21
2168.0
 31
0.0
  0
LINE
  8
43
  6
CONTINUOUS
 62
     3
  5
418
 10
1037.75
 20
2175.0
 30
0.0
 11
1037.75
 21
2168.0
 31
0.0
  0
LINE
  8
4
  6
CONTINUOUS
 62
     1
  5
419
 10
1557.75
 20
2175.0
 30
0.0
 11
807.75
 21
2175.0
 31
0.0
  0
LINE
  8
4
  6
CONTINUOUS
 62
     1
  5
41A
 10
807.75
 20
2110.0
 30
0.0
 11
807.75
 21
2118.0
 31
0.0
  0
LINE
  8
4
  6
CONTINUOUS
 62
     1
  5
41B
 10
822.75
 20
2175.0
 30
0.0
 11
822.75
 21
2118.0
 31
0.0
  0
LINE
  8
4
  6
CONTINUOUS
 62
     1
  5
41C
 10
1557.75
 20
2118.0
 30
0.0
 11
807.75
 21
2118.0
 31
0.0
  0
TEXT
  8
60
  6
CONTINUOUS
 62
     2
  5
41D
 10
2303.0
 20
3609.0
 30
0.0
 40
30.0
  1
標準タイプ（８５０×１２００）
 50
90.0
 41
0.837
  7
DRACAD
 72
     5
 11
2303.0
 21
4059.0
 31
0.0
  0
CIRCLE
  8
50
  6
CONTINUOUS
 62
     3
  5
41E
 10
245.0
 20
4641.0
 30
0.0
 40
5.0
  0
LINE
  8
50
  6
CONTINUOUS
 62
     3
  5
41F
 10
245.0
 20
4641.0
 30
0.0
 11
696.25
 21
4641.0
 31
0.0
  0
TEXT
  8
60
  6
CONTINUOUS
 62
     2
  5
420
 10
2249.5
 20
4352.0
 30
0.0
 40
14.0
  1
96
 50
90.0
  7
DRACAD
 72
     5
 11
2249.5
 21
4380.0
 31
0.0
  0
TEXT
  8
60
  6
CONTINUOUS
 62
     2
  5
421
 10
2283.5
 20
4352.0
 30
0.0
 40
14.0
  1
96
 50
90.0
  7
DRACAD
 72
     5
 11
2283.5
 21
4380.0
 31
0.0
  0
TEXT
  8
60
  6
CONTINUOUS
 62
     2
  5
422
 10
2249.5
 20
4423.0
 30
0.0
 40
14.0
  1
9
 50
90.0
  7
DRACAD
 72
     5
 11
2249.5
 21
4437.0
 31
0.0
  0
TEXT
  8
60
  6
CONTINUOUS
 62
     2
  5
423
 10
2283.5
 20
4423.0
 30
0.0
 40
14.0
  1
9
 50
90.0
  7
DRACAD
 72
     5
 11
2283.5
 21
4437.0
 31
0.0
  0
TEXT
  8
60
  6
CONTINUOUS
 62
     2
  5
424
 10
2249.5
 20
4479.0
 30
0.0
 40
14.0
  1
2
 50
90.0
  7
DRACAD
 72
     5
 11
2249.5
 21
4493.0
 31
0.0
  0
TEXT
  8
60
  6
CONTINUOUS
 62
     2
  5
425
 10
2283.5
 20
4479.0
 30
0.0
 40
14.0
  1
5
 50
90.0
  7
DRACAD
 72
     5
 11
2283.5
 21
4493.0
 31
0.0
  0
TEXT
  8
60
  6
CONTINUOUS
 62
     2
  5
426
 10
2249.5
 20
4670.0
 30
0.0
 40
25.0
  1
SOG-K
 50
90.0
 41
0.84
  7
DRACAD
 72
     5
 11
2249.5
 21
4775.0
 31
0.0
  0
TEXT
  8
60
  6
CONTINUOUS
 62
     2
  5
427
 10
2283.0
 20
4661.5
 30
0.0
 40
25.0
  1
H-SGI2
 50
90.0
 41
0.833333
  7
DRACAD
 72
     5
 11
2283.0
 21
4786.5
 31
0.0
  0
TEXT
  8
60
  6
CONTINUOUS
 62
     2
  5
428
 10
2347.0
 20
3609.0
 30
0.0
 40
30.0
  1
右支柱１２５×１２５　社外図
 50
90.0
 41
0.837
  7
DRACAD
 72
     5
 11
2347.0
 21
4029.0
 31
0.0
  0
TEXT
  8
60
  6
CONTINUOUS
 62
     2
  5
429
 10
2261.5
 20
3609.0
 30
0.0
 40
30.0
  1
ハートリフト　支柱式　
 50
90.0
 41
0.837
  7
DRACAD
 72
     5
 11
2261.5
 21
3939.0
 31
0.0
  0
LINE
  8
4
  6
CONTINUOUS
 62
     1
  5
42A
 10
1552.25
 20
3591.0
 30
0.0
 11
1552.25
 21
3516.0
 31
0.0
  0
LINE
  8
4
  6
CONTINUOUS
 62
     1
  5
42B
 10
1552.25
 20
3591.0
 30
0.0
 11
1782.25
 21
3591.0
 31
0.0
  0
LINE
  8
4
  6
CONTINUOUS
 62
     1
  5
42C
 10
1832.25
 20
3541.0
 30
0.0
 11
1552.25
 21
3541.0
 31
0.0
  0
LINE
  8
41
  6
CONTINUOUS
 62
     6
  5
42D
 10
1782.25
 20
3591.0
 30
0.0
 11
1832.25
 21
3591.0
 31
0.0
  0
LINE
  8
41
  6
CONTINUOUS
 62
     6
  5
42E
 10
1832.25
 20
3591.0
 30
0.0
 11
1832.25
 21
3541.0
 31
0.0
  0
LINE
  8
41
  6
CONTINUOUS
 62
     6
  5
42F
 10
1828.25
 20
3587.0
 30
0.0
 11
1828.25
 21
3544.0
 31
0.0
  0
LINE
  8
41
  6
CONTINUOUS
 62
     6
  5
430
 10
1828.25
 20
3587.0
 30
0.0
 11
1785.25
 21
3587.0
 31
0.0
  0
LINE
  8
41
  6
CONTINUOUS
 62
     6
  5
431
 10
1782.25
 20
3591.0
 30
0.0
 11
1782.25
 21
3590.0
 31
0.0
  0
LINE
  8
41
  6
CONTINUOUS
 62
     6
  5
432
 10
1832.25
 20
3541.0
 30
0.0
 11
1831.25
 21
3541.0
 31
0.0
  0
ARC
  8
41
  6
CONTINUOUS
 62
     6
  5
433
 10
1831.25
 20
3544.0
 30
0.0
 40
3.0
 50
180.0
 51
270.0
  0
ARC
  8
41
  6
CONTINUOUS
 62
     6
  5
434
 10
1785.25
 20
3590.0
 30
0.0
 40
3.0
 50
180.0
 51
270.0
  0
LINE
  8
4
  6
CONTINUOUS
 62
     1
  5
435
 10
1782.25
 20
3541.0
 30
0.0
 11
1782.25
 21
3591.0
 31
0.0
  0
LINE
  8
4
  6
HIDDEN
 62
     3
  5
436
 10
1552.25
 20
3587.0
 30
0.0
 11
1782.25
 21
3587.0
 31
0.0
  0
LINE
  8
41
  6
CONTINUOUS
 62
     6
  5
437
 10
1807.25
 20
3641.0
 30
0.0
 11
1807.25
 21
3591.0
 31
0.0
  0
LINE
  8
4
  6
CONTINUOUS
 62
     3
  5
438
 10
663.0
 20
3567.25
 30
0.0
 11
633.5
 21
3561.25
 31
0.0
  0
LINE
  8
4
  6
CONTINUOUS
 62
     3
  5
439
 10
663.0
 20
3567.25
 30
0.0
 11
663.25
 21
3566.25
 31
0.0
  0
ARC
  8
4
  6
CONTINUOUS
 62
     3
  5
43A
 10
660.25
 20
3565.5
 30
0.0
 40
3.0
 50
281.63
 51
10.62
  0
CIRCLE
  8
4
  6
CONTINUOUS
 62
     1
  5
43B
 10
1512.25
 20
3566.0
 30
0.0
 40
6.0
  0
CIRCLE
  8
4
  6
CONTINUOUS
 62
     1
  5
43C
 10
1162.25
 20
3566.0
 30
0.0
 40
6.0
  0
LINE
  8
6
  6
CONTINUOUS
 62
     1
  5
43D
 10
1832.25
 20
4391.0
 30
0.0
 11
1832.25
 21
3591.0
 31
0.0
  0
LINE
  8
6
  6
CONTINUOUS
 62
     1
  5
43E
 10
1807.25
 20
4166.0
 30
0.0
 11
1807.25
 21
4366.0
 31
0.0
  0
LINE
  8
6
  6
CONTINUOUS
 62
     1
  5
43F
 10
1807.25
 20
4141.0
 30
0.0
 11
1807.25
 21
3641.0
 31
0.0
  0
LINE
  8
41
  6
CONTINUOUS
 62
     6
  5
440
 10
1147.75
 20
4356.0
 30
0.0
 11
1147.75
 21
4176.0
 31
0.0
  0
LINE
  8
41
  6
CONTINUOUS
 62
     6
  5
441
 10
1147.75
 20
4356.0
 30
0.0
 11
1217.75
 21
4356.0
 31
0.0
  0
LINE
  8
41
  6
CONTINUOUS
 62
     6
  5
442
 10
1147.75
 20
4176.0
 30
0.0
 11
1217.75
 21
4176.0
 31
0.0
  0
LINE
  8
41
  6
CONTINUOUS
 62
     6
  5
443
 10
1222.75
 20
4166.0
 30
0.0
 11
1222.75
 21
4366.0
 31
0.0
  0
LINE
  8
41
  6
CONTINUOUS
 62
     6
  5
444
 10
1217.75
 20
4166.0
 30
0.0
 11
1217.75
 21
4366.0
 31
0.0
  0
LINE
  8
41
  6
CONTINUOUS
 62
     6
  5
445
 10
1247.75
 20
4166.0
 30
0.0
 11
1247.75
 21
4366.0
 31
0.0
  0
LINE
  8
6
  6
CONTINUOUS
 62
     1
  5
446
 10
1807.25
 20
4141.0
 30
0.0
 11
1257.25
 21
4141.0
 31
0.0
  0
LINE
  8
6
  6
CONTINUOUS
 62
     1
  5
447
 10
687.25
 20
3576.0
 30
0.0
 11
687.25
 21
4141.0
 31
0.0
  0
LINE
  8
6
  6
CONTINUOUS
 62
     1
  5
448
 10
662.25
 20
4391.0
 30
0.0
 11
662.25
 21
3576.0
 31
0.0
  0
LINE
  8
6
  6
CONTINUOUS
 62
     1
  5
449
 10
662.25
 20
3576.0
 30
0.0
 11
687.25
 21
3576.0
 31
0.0
  0
LINE
  8
41
  6
CONTINUOUS
 62
     6
  5
44A
 10
662.25
 20
3617.0
 30
0.0
 11
632.75
 21
3611.0
 31
0.0
  0
LINE
  8
6
  6
CONTINUOUS
 62
     1
  5
44B
 10
1257.25
 20
3591.0
 30
0.0
 11
1257.25
 21
4141.0
 31
0.0
  0
LINE
  8
6
  6
CONTINUOUS
 62
     1
  5
44C
 10
1232.25
 20
3591.0
 30
0.0
 11
1232.25
 21
4141.0
 31
0.0
  0
LINE
  8
41
  6
CONTINUOUS
 62
     6
  5
44D
 10
1807.25
 20
3641.0
 30
0.0
 11
1257.25
 21
3641.0
 31
0.0
  0
LINE
  8
41
  6
CONTINUOUS
 62
     3
  5
44E
 10
1203.25
 20
4316.0
 30
0.0
 11
1235.75
 21
4316.0
 31
0.0
  0
LINE
  8
41
  6
CONTINUOUS
 62
     3
  5
44F
 10
1203.25
 20
4216.0
 30
0.0
 11
1235.75
 21
4216.0
 31
0.0
  0
LINE
  8
2
  6
CONTINUOUS
 62
     6
  5
450
 10
917.75
 20
4046.0
 30
0.0
 11
917.75
 21
4106.0
 31
0.0
  0
LINE
  8
2
  6
CONTINUOUS
 62
     6
  5
451
 10
917.75
 20
4106.0
 30
0.0
 11
887.75
 21
4106.0
 31
0.0
  0
LINE
  8
2
  6
CONTINUOUS
 62
     6
  5
452
 10
887.75
 20
4106.0
 30
0.0
 11
887.75
 21
4046.0
 31
0.0
  0
LINE
  8
2
  6
CONTINUOUS
 62
     6
  5
453
 10
887.75
 20
4046.0
 30
0.0
 11
917.75
 21
4046.0
 31
0.0
  0
LINE
  8
100
  6
CENTER
 62
     3
  5
454
 10
1828.75
 20
3516.0
 30
0.0
 11
1571.75
 21
3516.0
 31
0.0
  0
ARC
  8
4
  6
CONTINUOUS
 62
     3
  5
455
 10
908.25
 20
3664.0
 30
0.0
 40
76.0
 50
243.45
 51
311.95
  0
ARC
  8
4
  6
CONTINUOUS
 62
     3
  5
456
 10
908.25
 20
3664.0
 30
0.0
 40
87.0
 50
243.45
 51
316.75
  0
ARC
  8
4
  6
CONTINUOUS
 62
     3
  5
457
 10
980.5
 20
3806.25
 30
0.0
 40
235.5
 50
215.91
 51
243.22
  0
ARC
  8
4
  6
CONTINUOUS
 62
     3
  5
458
 10
980.5
 20
3806.25
 30
0.0
 40
246.5
 50
215.5
 51
243.22
  0
ARC
  8
4
  6
CONTINUOUS
 62
     3
  5
459
 10
679.25
 20
3597.0
 30
0.0
 40
131.5
 50
32.77
 51
86.51
  0
ARC
  8
4
  6
CONTINUOUS
 62
     3
  5
45A
 10
679.25
 20
3597.0
 30
0.0
 40
120.25
 50
33.33
 51
86.18
  0
LINE
  8
4
  6
CONTINUOUS
 62
     3
  5
45B
 10
656.25
 20
3708.25
 30
0.0
 11
656.25
 21
3736.25
 31
0.0
  0
LINE
  8
4
  6
CONTINUOUS
 62
     3
  5
45C
 10
656.25
 20
3732.25
 30
0.0
 11
649.25
 21
3732.25
 31
0.0
  0
LINE
  8
4
  6
CONTINUOUS
 62
     3
  5
45D
 10
649.25
 20
3732.25
 30
0.0
 11
649.25
 21
3712.25
 31
0.0
  0
LINE
  8
4
  6
CONTINUOUS
 62
     3
  5
45E
 10
649.25
 20
3712.25
 30
0.0
 11
656.25
 21
3712.25
 31
0.0
  0
LINE
  8
4
  6
CONTINUOUS
 62
     3
  5
45F
 10
662.25
 20
3708.25
 30
0.0
 11
662.25
 21
3736.25
 31
0.0
  0
LINE
  8
4
  6
CONTINUOUS
 62
     3
  5
460
 10
662.25
 20
3736.25
 30
0.0
 11
656.25
 21
3736.25
 31
0.0
  0
LINE
  8
4
  6
CONTINUOUS
 62
     3
  5
461
 10
662.25
 20
3708.25
 30
0.0
 11
656.25
 21
3708.25
 31
0.0
  0
ARC
  8
4
  6
CONTINUOUS
 62
     3
  5
462
 10
904.25
 20
3669.5
 30
0.0
 40
82.75
 50
311.46
 51
324.1
  0
ARC
  8
4
  6
CONTINUOUS
 62
     3
  5
463
 10
916.0
 20
3656.5
 30
0.0
 40
76.0
 50
316.89
 51
332.19
  0
LINE
  8
4
  6
CONTINUOUS
 62
     3
  5
464
 10
987.5
 20
3634.0
 30
0.0
 11
987.5
 21
3641.0
 31
0.0
  0
LINE
  8
4
  6
CONTINUOUS
 62
     3
  5
465
 10
987.5
 20
3641.0
 30
0.0
 11
967.5
 21
3641.0
 31
0.0
  0
LINE
  8
4
  6
CONTINUOUS
 62
     3
  5
466
 10
967.5
 20
3641.0
 30
0.0
 11
967.5
 21
3634.0
 31
0.0
  0
LINE
  8
4
  6
CONTINUOUS
 62
     3
  5
467
 10
991.5
 20
3628.0
 30
0.0
 11
991.5
 21
3634.0
 31
0.0
  0
LINE
  8
4
  6
CONTINUOUS
 62
     3
  5
468
 10
984.5
 20
3628.0
 30
0.0
 11
984.5
 21
3634.0
 31
0.0
  0
LINE
  8
4
  6
CONTINUOUS
 62
     3
  5
469
 10
970.5
 20
3628.0
 30
0.0
 11
970.5
 21
3634.0
 31
0.0
  0
LINE
  8
4
  6
CONTINUOUS
 62
     3
  5
46A
 10
963.5
 20
3628.0
 30
0.0
 11
963.5
 21
3634.0
 31
0.0
  0
LINE
  8
4
  6
CONTINUOUS
 62
     3
  5
46B
 10
963.5
 20
3634.0
 30
0.0
 11
991.5
 21
3634.0
 31
0.0
  0
LINE
  8
4
  6
CONTINUOUS
 62
     3
  5
46C
 10
963.5
 20
3628.0
 30
0.0
 11
991.5
 21
3628.0
 31
0.0
  0
LINE
  8
4
  6
CONTINUOUS
 62
     3
  5
46D
 10
987.5
 20
3621.0
 30
0.0
 11
987.5
 21
3628.0
 31
0.0
  0
LINE
  8
4
  6
CONTINUOUS
 62
     3
  5
46E
 10
967.5
 20
3621.0
 30
0.0
 11
987.5
 21
3621.0
 31
0.0
  0
LINE
  8
4
  6
CONTINUOUS
 62
     3
  5
46F
 10
967.5
 20
3628.0
 30
0.0
 11
967.5
 21
3621.0
 31
0.0
  0
LINE
  8
4
  6
CONTINUOUS
 62
     3
  5
470
 10
633.5
 20
3561.25
 30
0.0
 11
639.5
 21
3531.75
 31
0.0
  0
LINE
  8
4
  6
CONTINUOUS
 62
     3
  5
471
 10
638.25
 20
3558.0
 30
0.0
 11
643.0
 21
3535.5
 31
0.0
  0
LINE
  8
4
  6
CONTINUOUS
 62
     3
  5
472
 10
639.5
 20
3531.75
 30
0.0
 11
640.5
 21
3532.0
 31
0.0
  0
ARC
  8
4
  6
CONTINUOUS
 62
     3
  5
473
 10
640.0
 20
3535.0
 30
0.0
 40
3.0
 50
280.62
 51
11.63
  0
CIRCLE
  8
41
  6
CONTINUOUS
 62
     6
  5
474
 10
646.25
 20
4417.0
 30
0.0
 40
12.0
  0
CIRCLE
  8
41
  6
CONTINUOUS
 62
     6
  5
475
 10
646.25
 20
4417.0
 30
0.0
 40
20.0
  0
LINE
  8
41
  6
CONTINUOUS
 62
     6
  5
476
 10
630.25
 20
4391.0
 30
0.0
 11
625.25
 21
4391.0
 31
0.0
  0
LINE
  8
41
  6
CONTINUOUS
 62
     6
  5
477
 10
625.25
 20
4391.0
 30
0.0
 11
625.25
 21
4397.0
 31
0.0
  0
LINE
  8
41
  6
CONTINUOUS
 62
     6
  5
478
 10
667.25
 20
4391.0
 30
0.0
 11
662.25
 21
4391.0
 31
0.0
  0
LINE
  8
41
  6
CONTINUOUS
 62
     6
  5
479
 10
667.25
 20
4397.0
 30
0.0
 11
667.25
 21
4391.0
 31
0.0
  0
LINE
  8
41
  6
CONTINUOUS
 62
     6
  5
47A
 10
662.25
 20
4391.0
 30
0.0
 11
630.25
 21
4391.0
 31
0.0
  0
LINE
  8
41
  6
CONTINUOUS
 62
     6
  5
47B
 10
625.25
 20
4397.0
 30
0.0
 11
667.25
 21
4397.0
 31
0.0
  0
LINE
  8
41
  6
CONTINUOUS
 62
     6
  5
47C
 10
630.25
 20
4391.0
 30
0.0
 11
630.25
 21
4311.0
 31
0.0
  0
LINE
  8
41
  6
CONTINUOUS
 62
     6
  5
47D
 10
662.25
 20
4311.0
 30
0.0
 11
662.25
 21
4391.0
 31
0.0
  0
LINE
  8
41
  6
CONTINUOUS
 62
     6
  5
47E
 10
630.25
 20
4311.0
 30
0.0
 11
662.25
 21
4311.0
 31
0.0
  0
LINE
  8
6
  6
CONTINUOUS
 62
     1
  5
47F
 10
687.25
 20
4304.75
 30
0.0
 11
687.25
 21
4366.0
 31
0.0
  0
LINE
  8
6
  6
CONTINUOUS
 62
     1
  5
480
 10
687.25
 20
4166.0
 30
0.0
 11
687.25
 21
4260.75
 31
0.0
  0
CIRCLE
  8
4
  6
CONTINUOUS
 62
     3
  5
481
 10
684.25
 20
4293.75
 30
0.0
 40
2.0
  0
LINE
  8
4
  6
CONTINUOUS
 62
     3
  5
482
 10
662.25
 20
4304.75
 30
0.0
 11
693.25
 21
4304.75
 31
0.0
  0
LINE
  8
4
  6
CONTINUOUS
 62
     3
  5
483
 10
693.25
 20
4258.75
 30
0.0
 11
693.25
 21
4306.75
 31
0.0
  0
LINE
  8
4
  6
CONTINUOUS
 62
     3
  5
484
 10
689.25
 20
4304.75
 30
0.0
 11
689.25
 21
4260.75
 31
0.0
  0
CIRCLE
  8
4
  6
CONTINUOUS
 62
     3
  5
485
 10
684.25
 20
4271.75
 30
0.0
 40
2.0
  0
LINE
  8
4
  6
CONTINUOUS
 62
     3
  5
486
 10
693.25
 20
4260.75
 30
0.0
 11
662.25
 21
4260.75
 31
0.0
  0
LINE
  8
4
  6
CONTINUOUS
 62
     3
  5
487
 10
693.25
 20
4306.75
 30
0.0
 11
662.25
 21
4306.75
 31
0.0
  0
LINE
  8
4
  6
CONTINUOUS
 62
     3
  5
488
 10
693.25
 20
4258.75
 30
0.0
 11
662.25
 21
4258.75
 31
0.0
  0
LINE
  8
4
  6
CONTINUOUS
 62
     3
  5
489
 10
662.25
 20
4274.5
 30
0.0
 11
662.25
 21
4304.75
 31
0.0
  0
LINE
  8
4
  6
CONTINUOUS
 62
     3
  5
48A
 10
673.25
 20
4260.75
 30
0.0
 11
661.25
 21
4275.75
 31
0.0
  0
ARC
  8
4
  6
CONTINUOUS
 62
     3
  5
48B
 10
632.75
 20
4275.5
 30
0.0
 40
28.5
 50
0.5
 51
60.7
  0
ARC
  8
4
  6
CONTINUOUS
 62
     3
  5
48C
 10
632.75
 20
4275.5
 30
0.0
 40
29.5
 50
359.33
 51
57.79
  0
CIRCLE
  8
4
  6
CONTINUOUS
 62
     3
  5
48D
 10
647.5
 20
4303.0
 30
0.0
 40
3.0
  0
LINE
  8
4
  6
CONTINUOUS
 62
     3
  5
48E
 10
638.25
 20
3558.0
 30
0.0
 11
660.75
 21
3562.75
 31
0.0
  0
ARC
  8
41
  6
CONTINUOUS
 62
     3
  5
48F
 10
490.75
 20
3681.5
 30
0.0
 40
9.0
 50
321.23
 51
141.74
  0
ARC
  8
41
  6
CONTINUOUS
 62
     3
  5
490
 10
490.75
 20
3681.5
 30
0.0
 40
6.0
 50
321.23
 51
141.74
  0
LINE
  8
41
  6
CONTINUOUS
 62
     1
  5
491
 10
458.75
 20
3707.0
 30
0.0
 11
593.5
 21
3599.25
 31
0.0
  0
LINE
  8
41
  6
CONTINUOUS
 62
     1
  5
492
 10
454.0
 20
3705.5
 30
0.0
 11
454.5
 21
3706.25
 31
0.0
  0
ARC
  8
41
  6
CONTINUOUS
 62
     1
  5
493
 10
457.0
 20
3704.5
 30
0.0
 40
3.0
 50
51.53
 51
144.04
  0
LINE
  8
41
  6
CONTINUOUS
 62
     1
  5
494
 10
454.0
 20
3705.5
 30
0.0
 11
588.25
 21
3598.25
 31
0.0
  0
LINE
  8
4
  6
CONTINUOUS
 62
     3
  5
495
 10
611.75
 20
3579.75
 30
0.0
 11
593.25
 21
3556.0
 31
0.0
  0
LINE
  8
4
  6
CONTINUOUS
 62
     3
  5
496
 10
588.0
 20
3598.0
 30
0.0
 11
587.25
 21
3597.0
 31
0.0
  0
LINE
  8
4
  6
CONTINUOUS
 62
     3
  5
497
 10
593.25
 20
3556.0
 30
0.0
 11
592.5
 21
3556.75
 31
0.0
  0
LINE
  8
4
  6
CONTINUOUS
 62
     3
  5
498
 10
606.0
 20
3579.0
 30
0.0
 11
591.75
 21
3560.5
 31
0.0
  0
LINE
  8
4
  6
CONTINUOUS
 62
     3
  5
499
 10
606.0
 20
3579.0
 30
0.0
 11
588.0
 21
3593.0
 31
0.0
  0
ARC
  8
4
  6
CONTINUOUS
 62
     3
  5
49A
 10
589.5
 20
3595.75
 30
0.0
 40
3.0
 50
142.0
 51
232.0
  0
ARC
  8
4
  6
CONTINUOUS
 62
     3
  5
49B
 10
594.0
 20
3559.0
 30
0.0
 40
3.0
 50
142.0
 51
232.0
  0
LINE
  8
42
  6
CONTINUOUS
 62
     3
  5
49C
 10
588.0
 20
3598.0
 30
0.0
 11
654.75
 21
3613.25
 31
0.0
  0
LINE
  8
42
  6
CONTINUOUS
 62
     3
  5
49D
 10
664.0
 20
3572.0
 30
0.0
 11
593.25
 21
3556.0
 31
0.0
  0
LINE
  8
42
  6
CONTINUOUS
 62
     3
  5
49E
 10
664.0
 20
3572.0
 30
0.0
 11
654.75
 21
3613.25
 31
0.0
  0
CIRCLE
  8
42
  6
CONTINUOUS
 62
     3
  5
49F
 10
646.0
 20
3588.5
 30
0.0
 40
6.0
  0
LINE
  8
4
  6
CONTINUOUS
 62
     7
  5
4A0
 10
646.0
 20
3588.5
 30
0.0
 11
716.75
 21
3612.0
 31
0.0
  0
LINE
  8
41
  6
HIDDEN
 62
     6
  5
4A1
 10
632.75
 20
3611.0
 30
0.0
 11
632.75
 21
3561.25
 31
0.0
  0
LINE
  8
2
  6
HIDDEN
 62
     5
  5
4A2
 10
494.25
 20
3686.0
 30
0.0
 11
649.25
 21
3721.25
 31
0.0
  0
LINE
  8
41
  6
CONTINUOUS
 62
     3
  5
4A3
 10
588.0
 20
3598.0
 30
0.0
 11
611.75
 21
3579.75
 31
0.0
  0
LINE
  8
41
  6
HIDDEN
 62
     3
  5
4A4
 10
612.0
 20
3579.25
 30
0.0
 11
588.25
 21
3598.25
 31
0.0
  0
LINE
  8
41
  6
HIDDEN
 62
     3
  5
4A5
 10
593.5
 20
3599.25
 30
0.0
 11
614.5
 21
3582.5
 31
0.0
  0
LINE
  8
41
  6
HIDDEN
 62
     3
  5
4A6
 10
612.0
 20
3579.25
 30
0.0
 11
614.5
 21
3582.5
 31
0.0
  0
LINE
  8
41
  6
CONTINUOUS
 62
     6
  5
4A7
 10
845.25
 20
3591.0
 30
0.0
 11
845.25
 21
3541.0
 31
0.0
  0
LINE
  8
41
  6
CONTINUOUS
 62
     6
  5
4A8
 10
845.25
 20
3541.0
 30
0.0
 11
844.25
 21
3541.0
 31
0.0
  0
LINE
  8
41
  6
CONTINUOUS
 62
     6
  5
4A9
 10
841.25
 20
3587.0
 30
0.0
 11
841.25
 21
3544.0
 31
0.0
  0
ARC
  8
41
  6
CONTINUOUS
 62
     6
  5
4AA
 10
844.25
 20
3544.0
 30
0.0
 40
3.0
 50
180.0
 51
270.0
  0
LINE
  8
4
  6
CONTINUOUS
 62
     1
  5
4AB
 10
845.25
 20
3516.0
 30
0.0
 11
857.75
 21
3516.0
 31
0.0
  0
LINE
  8
4
  6
CONTINUOUS
 62
     1
  5
4AC
 10
857.75
 20
3516.0
 30
0.0
 11
857.75
 21
3591.0
 31
0.0
  0
LINE
  8
4
  6
CONTINUOUS
 62
     1
  5
4AD
 10
857.75
 20
3591.0
 30
0.0
 11
845.25
 21
3591.0
 31
0.0
  0
LINE
  8
4
  6
CONTINUOUS
 62
     1
  5
4AE
 10
845.25
 20
3591.0
 30
0.0
 11
845.25
 21
3516.0
 31
0.0
  0
LINE
  8
41
  6
HIDDEN
 62
     3
  5
4AF
 10
795.25
 20
3595.0
 30
0.0
 11
632.0
 21
3564.75
 31
0.0
  0
LINE
  8
41
  6
CONTINUOUS
 62
     6
  5
4B0
 10
795.25
 20
3591.0
 30
0.0
 11
662.75
 21
3567.0
 31
0.0
  0
LINE
  8
41
  6
CONTINUOUS
 62
     6
  5
4B1
 10
795.25
 20
3591.0
 30
0.0
 11
795.25
 21
3590.0
 31
0.0
  0
ARC
  8
41
  6
CONTINUOUS
 62
     6
  5
4B2
 10
798.25
 20
3590.0
 30
0.0
 40
3.0
 50
180.0
 51
270.0
  0
LINE
  8
41
  6
HIDDEN
 62
     3
  5
4B3
 10
857.75
 20
3595.0
 30
0.0
 11
795.25
 21
3595.0
 31
0.0
  0
LINE
  8
41
  6
CONTINUOUS
 62
     6
  5
4B4
 10
857.75
 20
3591.0
 30
0.0
 11
795.25
 21
3591.0
 31
0.0
  0
LINE
  8
41
  6
CONTINUOUS
 62
     6
  5
4B5
 10
795.25
 20
3591.0
 30
0.0
 11
845.25
 21
3591.0
 31
0.0
  0
LINE
  8
41
  6
CONTINUOUS
 62
     6
  5
4B6
 10
841.25
 20
3587.0
 30
0.0
 11
798.25
 21
3587.0
 31
0.0
  0
LINE
  8
41
  6
CONTINUOUS
 62
     6
  5
4B7
 10
795.25
 20
3641.0
 30
0.0
 11
687.25
 21
3622.0
 31
0.0
  0
LINE
  8
41
  6
CONTINUOUS
 62
     6
  5
4B8
 10
857.75
 20
3641.0
 30
0.0
 11
795.25
 21
3641.0
 31
0.0
  0
LINE
  8
2
  6
CONTINUOUS
 62
     6
  5
4B9
 10
857.75
 20
4106.0
 30
0.0
 11
817.75
 21
4106.0
 31
0.0
  0
LINE
  8
2
  6
CONTINUOUS
 62
     6
  5
4BA
 10
817.75
 20
4106.0
 30
0.0
 11
817.75
 21
4046.0
 31
0.0
  0
LINE
  8
2
  6
CONTINUOUS
 62
     6
  5
4BB
 10
817.75
 20
4046.0
 30
0.0
 11
857.75
 21
4046.0
 31
0.0
  0
CIRCLE
  8
2
  6
CONTINUOUS
 62
     6
  5
4BC
 10
842.75
 20
4076.0
 30
0.0
 40
10.0
  0
LINE
  8
6
  6
CONTINUOUS
 62
     1
  5
4BD
 10
870.25
 20
4166.0
 30
0.0
 11
687.25
 21
4166.0
 31
0.0
  0
LINE
  8
6
  6
CONTINUOUS
 62
     1
  5
4BE
 10
870.25
 20
4141.0
 30
0.0
 11
687.25
 21
4141.0
 31
0.0
  0
LINE
  8
1
  6
CONTINUOUS
 62
     4
  5
4BF
 10
870.25
 20
4116.0
 30
0.0
 11
870.25
 21
4641.0
 31
0.0
  0
LINE
  8
6
  6
CONTINUOUS
 62
     1
  5
4C0
 10
870.25
 20
4391.0
 30
0.0
 11
662.25
 21
4391.0
 31
0.0
  0
LINE
  8
6
  6
CONTINUOUS
 62
     1
  5
4C1
 10
870.25
 20
4366.0
 30
0.0
 11
687.25
 21
4366.0
 31
0.0
  0
LINE
  8
1
  6
CONTINUOUS
 62
     4
  5
4C2
 10
870.25
 20
3516.0
 30
0.0
 11
870.25
 21
3396.75
 31
0.0
  0
LINE
  8
4
  6
CONTINUOUS
 62
     1
  5
4C3
 10
1552.25
 20
3591.0
 30
0.0
 11
1007.75
 21
3591.0
 31
0.0
  0
LINE
  8
41
  6
HIDDEN
 62
     3
  5
4C4
 10
1007.75
 20
3595.0
 30
0.0
 11
1807.25
 21
3595.0
 31
0.0
  0
LINE
  8
4
  6
CONTINUOUS
 62
     1
  5
4C5
 10
1552.25
 20
3516.0
 30
0.0
 11
1007.75
 21
3516.0
 31
0.0
  0
LINE
  8
2
  6
CONTINUOUS
 62
     6
  5
4C6
 10
1007.75
 20
3542.0
 30
0.0
 11
1027.75
 21
3542.0
 31
0.0
  0
LINE
  8
2
  6
CONTINUOUS
 62
     6
  5
4C7
 10
1027.75
 20
3536.0
 30
0.0
 11
1007.75
 21
3536.0
 31
0.0
  0
LINE
  8
2
  6
CONTINUOUS
 62
     6
  5
4C8
 10
1027.75
 20
3542.0
 30
0.0
 11
1027.75
 21
3536.0
 31
0.0
  0
LINE
  8
1
  6
CONTINUOUS
 62
     4
  5
4C9
 10
995.25
 20
3434.75
 30
0.0
 11
995.25
 21
3516.0
 31
0.0
  0
LINE
  8
1
  6
CONTINUOUS
 62
     4
  5
4CA
 10
870.25
 20
3516.0
 30
0.0
 11
995.25
 21
3516.0
 31
0.0
  0
LINE
  8
1
  6
CONTINUOUS
 62
     4
  5
4CB
 10
857.75
 20
3516.0
 30
0.0
 11
1007.75
 21
3516.0
 31
0.0
  0
LINE
  8
41
  6
CONTINUOUS
 62
     6
  5
4CC
 10
1232.25
 20
3641.0
 30
0.0
 11
1007.75
 21
3641.0
 31
0.0
  0
LINE
  8
2
  6
CONTINUOUS
 62
     6
  5
4CD
 10
1047.75
 20
3726.0
 30
0.0
 11
1047.75
 21
3786.0
 31
0.0
  0
LINE
  8
2
  6
CONTINUOUS
 62
     6
  5
4CE
 10
1047.75
 20
3786.0
 30
0.0
 11
1007.75
 21
3786.0
 31
0.0
  0
LINE
  8
2
  6
CONTINUOUS
 62
     6
  5
4CF
 10
1007.75
 20
3786.0
 30
0.0
 11
1007.75
 21
3726.0
 31
0.0
  0
LINE
  8
2
  6
CONTINUOUS
 62
     6
  5
4D0
 10
1007.75
 20
3726.0
 30
0.0
 11
1047.75
 21
3726.0
 31
0.0
  0
CIRCLE
  8
2
  6
CONTINUOUS
 62
     6
  5
4D1
 10
1022.75
 20
3756.0
 30
0.0
 40
10.0
  0
ARC
  8
2
  6
CONTINUOUS
 62
     6
  5
4D2
 10
1029.75
 20
3756.0
 30
0.0
 40
25.0
 50
316.22
 51
42.51
  0
LINE
  8
2
  6
CONTINUOUS
 62
     6
  5
4D3
 10
1054.25
 20
3781.25
 30
0.0
 11
1054.25
 21
3760.0
 31
0.0
  0
LINE
  8
2
  6
CONTINUOUS
 62
     6
  5
4D4
 10
1054.25
 20
3781.25
 30
0.0
 11
1064.25
 21
3781.25
 31
0.0
  0
LINE
  8
2
  6
CONTINUOUS
 62
     6
  5
4D5
 10
1064.25
 20
3781.25
 30
0.0
 11
1064.25
 21
3746.25
 31
0.0
  0
LINE
  8
2
  6
CONTINUOUS
 62
     6
  5
4D6
 10
1064.25
 20
3746.25
 30
0.0
 11
1047.75
 21
3738.75
 31
0.0
  0
LINE
  8
6
  6
CONTINUOUS
 62
     1
  5
4D7
 10
995.25
 20
4141.0
 30
0.0
 11
1232.25
 21
4141.0
 31
0.0
  0
LINE
  8
2
  6
CONTINUOUS
 62
     6
  5
4D8
 10
941.5
 20
4116.0
 30
0.0
 11
941.5
 21
4016.0
 31
0.0
  0
LINE
  8
2
  6
CONTINUOUS
 62
     6
  5
4D9
 10
986.5
 20
4116.0
 30
0.0
 11
986.5
 21
4016.0
 31
0.0
  0
LINE
  8
2
  6
CONTINUOUS
 62
     6
  5
4DA
 10
941.5
 20
4016.0
 30
0.0
 11
986.5
 21
4016.0
 31
0.0
  0
LINE
  8
2
  6
HIDDEN
 62
     3
  5
4DB
 10
946.5
 20
4116.0
 30
0.0
 11
946.5
 21
4016.0
 31
0.0
  0
LINE
  8
2
  6
HIDDEN
 62
     3
  5
4DC
 10
981.5
 20
4116.0
 30
0.0
 11
981.5
 21
4016.0
 31
0.0
  0
LINE
  8
1
  6
CONTINUOUS
 62
     4
  5
4DD
 10
857.75
 20
4116.0
 30
0.0
 11
1007.75
 21
4116.0
 31
0.0
  0
LINE
  8
1
  6
CONTINUOUS
 62
     4
  5
4DE
 10
1007.75
 20
3516.0
 30
0.0
 11
1007.75
 21
4116.0
 31
0.0
  0
LINE
  8
6
  6
CONTINUOUS
 62
     1
  5
4DF
 10
1807.25
 20
4166.0
 30
0.0
 11
995.25
 21
4166.0
 31
0.0
  0
LINE
  8
6
  6
CONTINUOUS
 62
     1
  5
4E0
 10
1832.25
 20
4391.0
 30
0.0
 11
995.25
 21
4391.0
 31
0.0
  0
LINE
  8
6
  6
CONTINUOUS
 62
     1
  5
4E1
 10
1807.25
 20
4366.0
 30
0.0
 11
995.25
 21
4366.0
 31
0.0
  0
LINE
  8
1
  6
CONTINUOUS
 62
     4
  5
4E2
 10
995.25
 20
4116.0
 30
0.0
 11
995.25
 21
4641.0
 31
0.0
  0
LINE
  8
2
  6
HIDDEN
 62
     5
  5
4E3
 10
964.0
 20
3934.25
 30
0.0
 11
976.5
 21
3641.0
 31
0.0
  0
LINE
  8
2
  6
HIDDEN
 62
     5
  5
4E4
 10
964.0
 20
3934.25
 30
0.0
 11
1064.25
 21
3781.25
 31
0.0
  0
LINE
  8
2
  6
CONTINUOUS
 62
     6
  5
4E5
 10
949.0
 20
4116.0
 30
0.0
 11
949.0
 21
4221.0
 31
0.0
  0
LINE
  8
2
  6
HIDDEN
 62
     3
  5
4E6
 10
954.0
 20
4116.0
 30
0.0
 11
954.0
 21
4221.0
 31
0.0
  0
LINE
  8
2
  6
CONTINUOUS
 62
     6
  5
4E7
 10
979.0
 20
4116.0
 30
0.0
 11
979.0
 21
4221.0
 31
0.0
  0
LINE
  8
2
  6
HIDDEN
 62
     3
  5
4E8
 10
974.0
 20
4116.0
 30
0.0
 11
974.0
 21
4221.0
 31
0.0
  0
LINE
  8
2
  6
CONTINUOUS
 62
     6
  5
4E9
 10
949.0
 20
4221.0
 30
0.0
 11
979.0
 21
4221.0
 31
0.0
  0
LINE
  8
10
  6
CONTINUOUS
 62
     6
  5
4EA
 10
1284.0
 20
4035.0
 30
0.0
 11
1284.0
 21
4062.0
 31
0.0
  0
LINE
  8
10
  6
CONTINUOUS
 62
     6
  5
4EB
 10
1284.0
 20
4062.0
 30
0.0
 11
1257.0
 21
4062.0
 31
0.0
  0
LINE
  8
10
  6
CONTINUOUS
 62
     6
  5
4EC
 10
1257.0
 20
4062.0
 30
0.0
 11
1257.0
 21
4035.0
 31
0.0
  0
LINE
  8
10
  6
CONTINUOUS
 62
     6
  5
4ED
 10
1257.0
 20
4035.0
 30
0.0
 11
1284.0
 21
4035.0
 31
0.0
  0
CIRCLE
  8
10
  6
CONTINUOUS
 62
     6
  5
4EE
 10
1270.5
 20
4048.5
 30
0.0
 40
4.5
  0
LINE
  8
10
  6
CONTINUOUS
 62
     6
  5
4EF
 10
1205.0
 20
3715.0
 30
0.0
 11
1205.0
 21
3742.0
 31
0.0
  0
LINE
  8
10
  6
CONTINUOUS
 62
     6
  5
4F0
 10
1205.0
 20
3742.0
 30
0.0
 11
1232.0
 21
3742.0
 31
0.0
  0
LINE
  8
10
  6
CONTINUOUS
 62
     6
  5
4F1
 10
1232.0
 20
3742.0
 30
0.0
 11
1232.0
 21
3715.0
 31
0.0
  0
LINE
  8
10
  6
CONTINUOUS
 62
     6
  5
4F2
 10
1232.0
 20
3715.0
 30
0.0
 11
1205.0
 21
3715.0
 31
0.0
  0
CIRCLE
  8
10
  6
CONTINUOUS
 62
     6
  5
4F3
 10
1218.5
 20
3728.5
 30
0.0
 40
4.5
  0
LINE
  8
10
  6
CONTINUOUS
 62
     6
  5
4F4
 10
1284.25
 20
3742.0
 30
0.0
 11
1284.25
 21
3715.0
 31
0.0
  0
LINE
  8
10
  6
CONTINUOUS
 62
     6
  5
4F5
 10
1284.25
 20
3715.0
 30
0.0
 11
1257.25
 21
3715.0
 31
0.0
  0
LINE
  8
10
  6
CONTINUOUS
 62
     6
  5
4F6
 10
1257.25
 20
3715.0
 30
0.0
 11
1257.25
 21
3742.0
 31
0.0
  0
LINE
  8
10
  6
CONTINUOUS
 62
     6
  5
4F7
 10
1257.25
 20
3742.0
 30
0.0
 11
1284.25
 21
3742.0
 31
0.0
  0
CIRCLE
  8
10
  6
CONTINUOUS
 62
     6
  5
4F8
 10
1270.75
 20
3728.5
 30
0.0
 40
4.5
  0
LINE
  8
10
  6
CONTINUOUS
 62
     6
  5
4F9
 10
1545.75
 20
4114.0
 30
0.0
 11
1518.75
 21
4114.0
 31
0.0
  0
LINE
  8
10
  6
CONTINUOUS
 62
     6
  5
4FA
 10
1518.75
 20
4114.0
 30
0.0
 11
1518.75
 21
4141.0
 31
0.0
  0
LINE
  8
10
  6
CONTINUOUS
 62
     6
  5
4FB
 10
1518.75
 20
4141.0
 30
0.0
 11
1545.75
 21
4141.0
 31
0.0
  0
LINE
  8
10
  6
CONTINUOUS
 62
     6
  5
4FC
 10
1545.75
 20
4141.0
 30
0.0
 11
1545.75
 21
4114.0
 31
0.0
  0
CIRCLE
  8
10
  6
CONTINUOUS
 62
     6
  5
4FD
 10
1532.25
 20
4127.5
 30
0.0
 40
4.5
  0
LINE
  8
10
  6
CONTINUOUS
 62
     6
  5
4FE
 10
1780.25
 20
4037.5
 30
0.0
 11
1780.25
 21
4064.5
 31
0.0
  0
LINE
  8
10
  6
CONTINUOUS
 62
     6
  5
4FF
 10
1780.25
 20
4064.5
 30
0.0
 11
1807.25
 21
4064.5
 31
0.0
  0
LINE
  8
10
  6
CONTINUOUS
 62
     6
  5
500
 10
1807.25
 20
4064.5
 30
0.0
 11
1807.25
 21
4037.5
 31
0.0
  0
LINE
  8
10
  6
CONTINUOUS
 62
     6
  5
501
 10
1807.25
 20
4037.5
 30
0.0
 11
1780.25
 21
4037.5
 31
0.0
  0
CIRCLE
  8
10
  6
CONTINUOUS
 62
     6
  5
502
 10
1793.75
 20
4051.0
 30
0.0
 40
4.5
  0
LINE
  8
10
  6
CONTINUOUS
 62
     6
  5
503
 10
1780.25
 20
3744.5
 30
0.0
 11
1780.25
 21
3717.5
 31
0.0
  0
LINE
  8
10
  6
CONTINUOUS
 62
     6
  5
504
 10
1780.25
 20
3717.5
 30
0.0
 11
1807.25
 21
3717.5
 31
0.0
  0
LINE
  8
10
  6
CONTINUOUS
 62
     6
  5
505
 10
1807.25
 20
3717.5
 30
0.0
 11
1807.25
 21
3744.5
 31
0.0
  0
LINE
  8
10
  6
CONTINUOUS
 62
     6
  5
506
 10
1807.25
 20
3744.5
 30
0.0
 11
1780.25
 21
3744.5
 31
0.0
  0
CIRCLE
  8
10
  6
CONTINUOUS
 62
     6
  5
507
 10
1793.75
 20
3731.0
 30
0.0
 40
4.5
  0
LINE
  8
10
  6
CONTINUOUS
 62
     6
  5
508
 10
714.5
 20
3742.0
 30
0.0
 11
687.5
 21
3742.0
 31
0.0
  0
LINE
  8
10
  6
CONTINUOUS
 62
     6
  5
509
 10
687.5
 20
3742.0
 30
0.0
 11
687.5
 21
3715.0
 31
0.0
  0
LINE
  8
10
  6
CONTINUOUS
 62
     6
  5
50A
 10
687.5
 20
3715.0
 30
0.0
 11
714.5
 21
3715.0
 31
0.0
  0
CIRCLE
  8
10
  6
CONTINUOUS
 62
     6
  5
50B
 10
700.5
 20
3728.5
 30
0.0
 40
4.5
  0
LINE
  8
10
  6
CONTINUOUS
 62
     6
  5
50C
 10
714.5
 20
3715.0
 30
0.0
 11
714.5
 21
3742.0
 31
0.0
  0
LINE
  8
10
  6
CONTINUOUS
 62
     6
  5
50D
 10
714.25
 20
4035.0
 30
0.0
 11
714.25
 21
4062.0
 31
0.0
  0
LINE
  8
10
  6
CONTINUOUS
 62
     6
  5
50E
 10
714.25
 20
4062.0
 30
0.0
 11
687.25
 21
4062.0
 31
0.0
  0
LINE
  8
10
  6
CONTINUOUS
 62
     6
  5
50F
 10
687.25
 20
4062.0
 30
0.0
 11
687.25
 21
4035.0
 31
0.0
  0
LINE
  8
10
  6
CONTINUOUS
 62
     6
  5
510
 10
687.25
 20
4035.0
 30
0.0
 11
714.25
 21
4035.0
 31
0.0
  0
CIRCLE
  8
10
  6
CONTINUOUS
 62
     6
  5
511
 10
700.75
 20
4048.5
 30
0.0
 40
4.5
  0
LINE
  8
10
  6
CONTINUOUS
 62
     6
  5
512
 10
1205.0
 20
4035.0
 30
0.0
 11
1205.0
 21
4062.0
 31
0.0
  0
LINE
  8
10
  6
CONTINUOUS
 62
     6
  5
513
 10
1205.0
 20
4062.0
 30
0.0
 11
1232.0
 21
4062.0
 31
0.0
  0
LINE
  8
10
  6
CONTINUOUS
 62
     6
  5
514
 10
1232.0
 20
4062.0
 30
0.0
 11
1232.0
 21
4035.0
 31
0.0
  0
LINE
  8
10
  6
CONTINUOUS
 62
     6
  5
515
 10
1232.0
 20
4035.0
 30
0.0
 11
1205.0
 21
4035.0
 31
0.0
  0
CIRCLE
  8
10
  6
CONTINUOUS
 62
     6
  5
516
 10
1218.5
 20
4048.5
 30
0.0
 40
4.5
  0
LINE
  8
3
  6
CONTINUOUS
 62
     5
  5
517
 10
1852.75
 20
3591.0
 30
0.0
 11
2169.75
 21
3591.0
 31
0.0
  0
LINE
  8
3
  6
CONTINUOUS
 62
     5
  5
518
 10
1852.75
 20
3429.5
 30
0.0
 11
1852.75
 21
3591.0
 31
0.0
  0
LINE
  8
55
  6
CONTINUOUS
 62
     3
  5
519
 10
1180.5
 20
4339.25
 30
0.0
 11
1215.0
 21
4490.0
 31
0.0
  0
LINE
  8
55
  6
CONTINUOUS
 62
     3
  5
51A
 10
1215.0
 20
4490.0
 30
0.0
 11
1239.0
 21
4490.0
 31
0.0
  0
LINE
  8
55
  6
CONTINUOUS
 62
     3
  5
51B
 10
1240.0
 20
4262.75
 30
0.0
 11
1288.25
 21
4262.75
 31
0.0
  0
LINE
  8
55
  6
CONTINUOUS
 62
     3
  5
51C
 10
672.0
 20
4280.5
 30
0.0
 11
556.25
 21
4280.5
 31
0.0
  0
LINE
  8
55
  6
CONTINUOUS
 62
     3
  5
51D
 10
636.75
 20
4434.75
 30
0.0
 11
616.25
 21
4500.0
 31
0.0
  0
LINE
  8
55
  6
CONTINUOUS
 62
     3
  5
51E
 10
616.25
 20
4500.0
 30
0.0
 11
590.25
 21
4500.0
 31
0.0
  0
LINE
  8
55
  6
CONTINUOUS
 62
     3
  5
51F
 10
601.0
 20
4126.0
 30
0.0
 11
627.0
 21
4126.0
 31
0.0
  0
LINE
  8
55
  6
CONTINUOUS
 62
     3
  5
520
 10
627.0
 20
4126.0
 30
0.0
 11
870.25
 21
4212.0
 31
0.0
  0
LINE
  8
55
  6
CONTINUOUS
 62
     3
  5
521
 10
870.25
 20
4212.0
 30
0.0
 11
839.75
 21
4211.0
 31
0.0
  0
LINE
  8
55
  6
CONTINUOUS
 62
     3
  5
522
 10
729.0
 20
3714.25
 30
0.0
 11
604.75
 21
3867.75
 31
0.0
  0
LINE
  8
55
  6
CONTINUOUS
 62
     3
  5
523
 10
604.75
 20
3867.75
 30
0.0
 11
577.25
 21
3867.75
 31
0.0
  0
LINE
  8
55
  6
CONTINUOUS
 62
     3
  5
524
 10
509.5
 20
3781.75
 30
0.0
 11
534.5
 21
3781.75
 31
0.0
  0
LINE
  8
55
  6
CONTINUOUS
 62
     3
  5
525
 10
534.5
 20
3781.75
 30
0.0
 11
534.5
 21
3644.25
 31
0.0
  0
LINE
  8
55
  6
CONTINUOUS
 62
     3
  5
526
 10
813.75
 20
3743.5
 30
0.0
 11
813.75
 21
3723.25
 31
0.0
  0
LINE
  8
55
  6
CONTINUOUS
 62
     3
  5
527
 10
813.75
 20
3723.25
 30
0.0
 11
874.25
 21
3701.5
 31
0.0
  0
LINE
  8
13
  6
CONTINUOUS
 62
     3
  5
528
 10
1036.0
 20
3547.25
 30
0.0
 11
1020.0
 21
3549.25
 31
0.0
  0
LINE
  8
13
  6
CONTINUOUS
 62
     3
  5
529
 10
1034.0
 20
3590.25
 30
0.0
 11
1045.75
 21
3588.25
 31
0.0
  0
LINE
  8
13
  6
CONTINUOUS
 62
     3
  5
52A
 10
1032.75
 20
3584.5
 30
0.0
 11
1044.25
 21
3582.5
 31
0.0
  0
LINE
  8
13
  6
CONTINUOUS
 62
     3
  5
52B
 10
1031.0
 20
3578.5
 30
0.0
 11
1043.0
 21
3576.5
 31
0.0
  0
LINE
  8
13
  6
CONTINUOUS
 62
     3
  5
52C
 10
1029.5
 20
3572.75
 30
0.0
 11
1041.75
 21
3570.75
 31
0.0
  0
LINE
  8
13
  6
CONTINUOUS
 62
     3
  5
52D
 10
1028.0
 20
3567.0
 30
0.0
 11
1040.0
 21
3564.75
 31
0.0
  0
LINE
  8
13
  6
CONTINUOUS
 62
     3
  5
52E
 10
1026.5
 20
3561.25
 30
0.0
 11
1038.75
 21
3559.0
 31
0.0
  0
LINE
  8
13
  6
CONTINUOUS
 62
     3
  5
52F
 10
1025.0
 20
3555.25
 30
0.0
 11
1037.25
 21
3553.25
 31
0.0
  0
ARC
  8
13
  6
CONTINUOUS
 62
     3
  5
530
 10
268.5
 20
3765.0
 30
0.0
 40
797.75
 50
344.12
 51
347.4
  0
ARC
  8
13
  6
CONTINUOUS
 62
     3
  5
531
 10
255.5
 20
3765.0
 30
0.0
 40
797.75
 50
344.27
 51
347.4
  0
LINE
  8
13
  6
CONTINUOUS
 62
     3
  5
532
 10
1020.5
 20
3548.75
 30
0.0
 11
1019.25
 21
3542.0
 31
0.0
  0
LINE
  8
13
  6
CONTINUOUS
 62
     3
  5
533
 10
1018.0
 20
3536.0
 30
0.0
 11
1017.0
 21
3530.0
 31
0.0
  0
LINE
  8
13
  6
CONTINUOUS
 62
     3
  5
534
 10
1018.75
 20
3542.0
 30
0.0
 11
1020.0
 21
3549.25
 31
0.0
  0
LINE
  8
13
  6
CONTINUOUS
 62
     3
  5
535
 10
1017.5
 20
3536.0
 30
0.0
 11
1016.5
 21
3530.0
 31
0.0
  0
LINE
  8
13
  6
CONTINUOUS
 62
     3
  5
536
 10
1020.5
 20
3548.75
 30
0.0
 11
1036.0
 21
3546.75
 31
0.0
  0
LINE
  8
13
  6
CONTINUOUS
 62
     3
  5
537
 10
1016.5
 20
3530.0
 30
0.0
 11
1017.0
 21
3530.0
 31
0.0
  0
LINE
  8
13
  6
CONTINUOUS
 62
     3
  5
538
 10
1052.75
 20
3738.75
 30
0.0
 11
1065.75
 21
3737.0
 31
0.0
  0
LINE
  8
13
  6
CONTINUOUS
 62
     3
  5
539
 10
1052.25
 20
3733.25
 30
0.0
 11
1065.25
 21
3731.0
 31
0.0
  0
LINE
  8
13
  6
CONTINUOUS
 62
     3
  5
53A
 10
1052.0
 20
3727.25
 30
0.0
 11
1065.0
 21
3725.0
 31
0.0
  0
LINE
  8
13
  6
CONTINUOUS
 62
     3
  5
53B
 10
1051.75
 20
3721.25
 30
0.0
 11
1064.75
 21
3719.0
 31
0.0
  0
LINE
  8
13
  6
CONTINUOUS
 62
     3
  5
53C
 10
1051.5
 20
3715.25
 30
0.0
 11
1064.75
 21
3712.75
 31
0.0
  0
LINE
  8
13
  6
CONTINUOUS
 62
     3
  5
53D
 10
1050.75
 20
3709.25
 30
0.0
 11
1064.5
 21
3706.75
 31
0.0
  0
LINE
  8
13
  6
CONTINUOUS
 62
     3
  5
53E
 10
1050.5
 20
3703.0
 30
0.0
 11
1063.75
 21
3700.75
 31
0.0
  0
LINE
  8
13
  6
CONTINUOUS
 62
     3
  5
53F
 10
1050.25
 20
3697.0
 30
0.0
 11
1063.0
 21
3694.75
 31
0.0
  0
LINE
  8
13
  6
CONTINUOUS
 62
     3
  5
540
 10
1050.0
 20
3691.0
 30
0.0
 11
1062.25
 21
3688.75
 31
0.0
  0
LINE
  8
13
  6
CONTINUOUS
 62
     3
  5
541
 10
1049.25
 20
3685.0
 30
0.0
 11
1061.5
 21
3683.0
 31
0.0
  0
LINE
  8
13
  6
CONTINUOUS
 62
     3
  5
542
 10
1048.25
 20
3679.25
 30
0.0
 11
1060.75
 21
3677.0
 31
0.0
  0
LINE
  8
13
  6
CONTINUOUS
 62
     3
  5
543
 10
1047.5
 20
3673.25
 30
0.0
 11
1060.0
 21
3671.0
 31
0.0
  0
LINE
  8
13
  6
CONTINUOUS
 62
     3
  5
544
 10
1046.75
 20
3667.25
 30
0.0
 11
1059.25
 21
3665.0
 31
0.0
  0
LINE
  8
13
  6
CONTINUOUS
 62
     3
  5
545
 10
1046.25
 20
3661.25
 30
0.0
 11
1058.5
 21
3659.0
 31
0.0
  0
LINE
  8
13
  6
CONTINUOUS
 62
     3
  5
546
 10
1045.5
 20
3655.25
 30
0.0
 11
1057.75
 21
3653.0
 31
0.0
  0
LINE
  8
13
  6
CONTINUOUS
 62
     3
  5
547
 10
1044.5
 20
3649.25
 30
0.0
 11
1057.0
 21
3647.25
 31
0.0
  0
LINE
  8
13
  6
CONTINUOUS
 62
     3
  5
548
 10
1043.75
 20
3643.5
 30
0.0
 11
1056.0
 21
3641.25
 31
0.0
  0
ARC
  8
13
  6
CONTINUOUS
 62
     3
  5
549
 10
268.5
 20
3765.0
 30
0.0
 40
797.75
 50
351.06
 51
357.99
  0
ARC
  8
13
  6
CONTINUOUS
 62
     3
  5
54A
 10
255.5
 20
3765.0
 30
0.0
 40
797.75
 50
351.06
 51
358.11
  0
LINE
  8
13
  6
CONTINUOUS
 62
     3
  5
54B
 10
1055.25
 20
3742.25
 30
0.0
 11
1055.25
 21
3738.5
 31
0.0
  0
LINE
  8
13
  6
CONTINUOUS
 62
     3
  5
54C
 10
1064.5
 20
3740.75
 30
0.0
 11
1064.25
 21
3737.5
 31
0.0
  0
LINE
  8
13
  6
CONTINUOUS
 62
     3
  5
54D
 10
1055.25
 20
3742.25
 30
0.0
 11
1064.5
 21
3740.75
 31
0.0
  0
LINE
  8
13
  6
CONTINUOUS
 62
     3
  5
54E
 10
1061.0
 20
3744.75
 30
0.0
 11
1061.0
 21
3741.5
 31
0.0
  0
LINE
  8
13
  6
CONTINUOUS
 62
     3
  5
54F
 10
1060.5
 20
3744.5
 30
0.0
 11
1060.5
 21
3741.5
 31
0.0
  0
LINE
  8
13
  6
CONTINUOUS
 62
     3
  5
550
 10
1060.75
 20
3741.5
 30
0.0
 11
1060.75
 21
3744.5
 31
0.0
  0
LINE
  8
13
  6
CONTINUOUS
 62
     3
  5
551
 10
950.5
 20
3971.75
 30
0.0
 11
944.0
 21
3978.0
 31
0.0
  0
LINE
  8
13
  6
CONTINUOUS
 62
     3
  5
552
 10
944.0
 20
3978.0
 30
0.0
 11
944.0
 21
3991.0
 31
0.0
  0
LINE
  8
13
  6
CONTINUOUS
 62
     3
  5
553
 10
977.5
 20
3971.75
 30
0.0
 11
950.5
 21
3971.75
 31
0.0
  0
LINE
  8
13
  6
CONTINUOUS
 62
     3
  5
554
 10
984.0
 20
3978.0
 30
0.0
 11
977.5
 21
3971.75
 31
0.0
  0
LINE
  8
13
  6
CONTINUOUS
 62
     3
  5
555
 10
984.0
 20
3978.0
 30
0.0
 11
984.0
 21
3991.0
 31
0.0
  0
LINE
  8
13
  6
CONTINUOUS
 62
     3
  5
556
 10
957.0
 20
4016.0
 30
0.0
 11
971.0
 21
4016.0
 31
0.0
  0
ARC
  8
13
  6
CONTINUOUS
 62
     3
  5
557
 10
980.75
 20
3988.0
 30
0.0
 40
37.0
 50
130.17
 51
175.63
  0
ARC
  8
13
  6
CONTINUOUS
 62
     3
  5
558
 10
947.25
 20
3988.0
 30
0.0
 40
37.0
 50
4.37
 51
49.83
  0
LINE
  8
13
  6
CONTINUOUS
 62
     3
  5
559
 10
964.0
 20
3971.75
 30
0.0
 11
964.0
 21
4016.0
 31
0.0
  0
CIRCLE
  8
13
  6
CONTINUOUS
 62
     3
  5
55A
 10
952.0
 20
3990.0
 30
0.0
 40
4.75
  0
CIRCLE
  8
13
  6
CONTINUOUS
 62
     3
  5
55B
 10
976.0
 20
3990.0
 30
0.0
 40
4.75
  0
ARC
  8
13
  6
CONTINUOUS
 62
     3
  5
55C
 10
946.75
 20
3989.75
 30
0.0
 40
11.25
 50
256.46
 51
90.0
  0
ARC
  8
13
  6
CONTINUOUS
 62
     3
  5
55D
 10
981.25
 20
3989.75
 30
0.0
 40
11.25
 50
90.0
 51
283.54
  0
ARC
  8
13
  6
CONTINUOUS
 62
     3
  5
55E
 10
972.25
 20
3944.25
 30
0.0
 40
20.25
 50
126.72
 51
227.5
  0
ARC
  8
13
  6
CONTINUOUS
 62
     3
  5
55F
 10
955.75
 20
3944.25
 30
0.0
 40
20.25
 50
312.5
 51
54.13
  0
ARC
  8
13
  6
CONTINUOUS
 62
     3
  5
560
 10
969.75
 20
3944.25
 30
0.0
 40
13.0
 50
136.4
 51
223.6
  0
ARC
  8
13
  6
CONTINUOUS
 62
     3
  5
561
 10
958.25
 20
3944.25
 30
0.0
 40
13.0
 50
316.4
 51
43.6
  0
ARC
  8
13
  6
CONTINUOUS
 62
     3
  5
562
 10
964.0
 20
3937.75
 30
0.0
 40
4.25
 50
215.15
 51
324.85
  0
ARC
  8
13
  6
CONTINUOUS
 62
     3
  5
563
 10
964.0
 20
3935.75
 30
0.0
 40
8.5
 50
231.98
 51
308.02
  0
LINE
  8
13
  6
CONTINUOUS
 62
     3
  5
564
 10
967.5
 20
3953.0
 30
0.0
 11
967.5
 21
3971.75
 31
0.0
  0
LINE
  8
13
  6
CONTINUOUS
 62
     3
  5
565
 10
960.5
 20
3953.0
 30
0.0
 11
960.5
 21
3971.75
 31
0.0
  0
ARC
  8
13
  6
CONTINUOUS
 62
     3
  5
566
 10
964.0
 20
3955.5
 30
0.0
 40
4.25
 50
213.11
 51
326.89
  0
LINE
  8
110
  6
CENTER
 62
     7
  5
567
 10
964.0
 20
4321.0
 30
0.0
 11
964.0
 21
3966.75
 31
0.0
  0
ARC
  8
13
  6
CONTINUOUS
 62
     3
  5
568
 10
972.25
 20
4520.0
 30
0.0
 40
20.25
 50
126.72
 51
235.12
  0
ARC
  8
13
  6
CONTINUOUS
 62
     3
  5
569
 10
955.75
 20
4520.0
 30
0.0
 40
20.25
 50
306.03
 51
53.13
  0
ARC
  8
13
  6
CONTINUOUS
 62
     3
  5
56A
 10
969.75
 20
4520.0
 30
0.0
 40
13.0
 50
136.4
 51
223.6
  0
ARC
  8
13
  6
CONTINUOUS
 62
     3
  5
56B
 10
958.25
 20
4520.0
 30
0.0
 40
13.0
 50
316.4
 51
43.6
  0
LINE
  8
13
  6
CONTINUOUS
 62
     3
  5
56C
 10
967.5
 20
4557.75
 30
0.0
 11
967.5
 21
4528.75
 31
0.0
  0
LINE
  8
13
  6
CONTINUOUS
 62
     3
  5
56D
 10
960.5
 20
4557.75
 30
0.0
 11
960.5
 21
4528.75
 31
0.0
  0
ARC
  8
13
  6
CONTINUOUS
 62
     3
  5
56E
 10
964.0
 20
4530.25
 30
0.0
 40
3.75
 50
203.77
 51
336.23
  0
ARC
  8
13
  6
CONTINUOUS
 62
     3
  5
56F
 10
964.0
 20
4510.25
 30
0.0
 40
3.75
 50
18.74
 51
161.26
  0
ARC
  8
13
  6
CONTINUOUS
 62
     3
  5
570
 10
972.25
 20
4476.75
 30
0.0
 40
20.25
 50
126.72
 51
235.71
  0
ARC
  8
13
  6
CONTINUOUS
 62
     3
  5
571
 10
955.75
 20
4476.75
 30
0.0
 40
20.25
 50
306.59
 51
54.13
  0
ARC
  8
13
  6
CONTINUOUS
 62
     3
  5
572
 10
969.75
 20
4476.75
 30
0.0
 40
13.0
 50
136.4
 51
223.6
  0
ARC
  8
13
  6
CONTINUOUS
 62
     3
  5
573
 10
958.25
 20
4476.75
 30
0.0
 40
13.0
 50
316.4
 51
43.6
  0
ARC
  8
13
  6
CONTINUOUS
 62
     3
  5
574
 10
964.25
 20
4466.5
 30
0.0
 40
3.75
 50
18.74
 51
161.26
  0
LINE
  8
13
  6
CONTINUOUS
 62
     3
  5
575
 10
967.5
 20
4511.5
 30
0.0
 11
967.5
 21
4485.5
 31
0.0
  0
LINE
  8
13
  6
CONTINUOUS
 62
     3
  5
576
 10
960.5
 20
4511.5
 30
0.0
 11
960.5
 21
4485.5
 31
0.0
  0
ARC
  8
13
  6
CONTINUOUS
 62
     3
  5
577
 10
964.0
 20
4486.5
 30
0.0
 40
3.75
 50
197.26
 51
342.74
  0
ARC
  8
13
  6
CONTINUOUS
 62
     3
  5
578
 10
964.0
 20
4420.5
 30
0.0
 40
4.5
 50
36.87
 51
143.13
  0
ARC
  8
13
  6
CONTINUOUS
 62
     3
  5
579
 10
972.25
 20
4432.0
 30
0.0
 40
20.25
 50
125.11
 51
234.95
  0
ARC
  8
13
  6
CONTINUOUS
 62
     3
  5
57A
 10
955.75
 20
4432.0
 30
0.0
 40
20.25
 50
305.29
 51
53.56
  0
ARC
  8
13
  6
CONTINUOUS
 62
     3
  5
57B
 10
969.75
 20
4432.0
 30
0.0
 40
13.0
 50
133.41
 51
223.6
  0
ARC
  8
13
  6
CONTINUOUS
 62
     3
  5
57C
 10
958.25
 20
4432.0
 30
0.0
 40
13.0
 50
316.4
 51
43.6
  0
LINE
  8
13
  6
CONTINUOUS
 62
     3
  5
57D
 10
960.75
 20
4467.75
 30
0.0
 11
960.75
 21
4441.0
 31
0.0
  0
LINE
  8
13
  6
CONTINUOUS
 62
     3
  5
57E
 10
967.75
 20
4467.75
 30
0.0
 11
967.75
 21
4441.0
 31
0.0
  0
ARC
  8
13
  6
CONTINUOUS
 62
     3
  5
57F
 10
964.25
 20
4443.0
 30
0.0
 40
4.0
 50
209.7
 51
326.05
  0
ARC
  8
13
  6
CONTINUOUS
 62
     3
  5
580
 10
972.25
 20
4385.5
 30
0.0
 40
20.25
 50
126.72
 51
235.12
  0
ARC
  8
13
  6
CONTINUOUS
 62
     3
  5
581
 10
955.75
 20
4385.5
 30
0.0
 40
20.25
 50
306.03
 51
54.71
  0
ARC
  8
13
  6
CONTINUOUS
 62
     3
  5
582
 10
969.75
 20
4385.5
 30
0.0
 40
13.0
 50
136.4
 51
223.6
  0
ARC
  8
13
  6
CONTINUOUS
 62
     3
  5
583
 10
958.25
 20
4385.5
 30
0.0
 40
13.0
 50
316.4
 51
43.6
  0
ARC
  8
13
  6
CONTINUOUS
 62
     3
  5
584
 10
964.0
 20
4395.75
 30
0.0
 40
3.75
 50
203.77
 51
336.23
  0
ARC
  8
13
  6
CONTINUOUS
 62
     3
  5
585
 10
964.25
 20
4376.0
 30
0.0
 40
3.75
 50
21.45
 51
158.55
  0
LINE
  8
13
  6
CONTINUOUS
 62
     3
  5
586
 10
967.5
 20
4423.25
 30
0.0
 11
967.5
 21
4394.25
 31
0.0
  0
LINE
  8
13
  6
CONTINUOUS
 62
     3
  5
587
 10
960.5
 20
4423.25
 30
0.0
 11
960.5
 21
4394.25
 31
0.0
  0
ARC
  8
13
  6
CONTINUOUS
 62
     3
  5
588
 10
963.5
 20
4233.75
 30
0.0
 40
4.5
 50
36.87
 51
143.13
  0
ARC
  8
13
  6
CONTINUOUS
 62
     3
  5
589
 10
971.75
 20
4245.25
 30
0.0
 40
20.25
 50
124.88
 51
233.71
  0
ARC
  8
13
  6
CONTINUOUS
 62
     3
  5
58A
 10
955.25
 20
4245.25
 30
0.0
 40
20.25
 50
305.46
 51
53.56
  0
ARC
  8
13
  6
CONTINUOUS
 62
     3
  5
58B
 10
969.25
 20
4245.25
 30
0.0
 40
13.0
 50
136.4
 51
223.6
  0
ARC
  8
13
  6
CONTINUOUS
 62
     3
  5
58C
 10
957.75
 20
4245.25
 30
0.0
 40
13.0
 50
316.4
 51
43.6
  0
ARC
  8
13
  6
CONTINUOUS
 62
     3
  5
58D
 10
963.75
 20
4255.75
 30
0.0
 40
3.75
 50
204.34
 51
335.66
  0
LINE
  8
13
  6
CONTINUOUS
 62
     3
  5
58E
 10
960.75
 20
4377.5
 30
0.0
 11
960.75
 21
4349.75
 31
0.0
  0
LINE
  8
13
  6
CONTINUOUS
 62
     3
  5
58F
 10
967.75
 20
4377.5
 30
0.0
 11
967.75
 21
4349.75
 31
0.0
  0
ARC
  8
13
  6
CONTINUOUS
 62
     3
  5
590
 10
964.0
 20
4329.25
 30
0.0
 40
4.5
 50
36.87
 51
143.13
  0
ARC
  8
13
  6
CONTINUOUS
 62
     3
  5
591
 10
972.25
 20
4340.75
 30
0.0
 40
20.25
 50
124.88
 51
233.71
  0
ARC
  8
13
  6
CONTINUOUS
 62
     3
  5
592
 10
955.75
 20
4340.75
 30
0.0
 40
20.25
 50
305.46
 51
53.56
  0
ARC
  8
13
  6
CONTINUOUS
 62
     3
  5
593
 10
969.75
 20
4340.75
 30
0.0
 40
13.0
 50
136.4
 51
223.6
  0
ARC
  8
13
  6
CONTINUOUS
 62
     3
  5
594
 10
958.25
 20
4340.75
 30
0.0
 40
13.0
 50
316.4
 51
43.6
  0
ARC
  8
13
  6
CONTINUOUS
 62
     3
  5
595
 10
964.25
 20
4351.25
 30
0.0
 40
3.75
 50
204.34
 51
335.66
  0
LINE
  8
13
  6
CONTINUOUS
 62
     3
  5
596
 10
967.5
 20
4332.0
 30
0.0
 11
967.5
 21
4302.0
 31
0.0
  0
LINE
  8
13
  6
CONTINUOUS
 62
     3
  5
597
 10
960.5
 20
4332.0
 30
0.0
 11
960.5
 21
4302.0
 31
0.0
  0
ARC
  8
13
  6
CONTINUOUS
 62
     3
  5
598
 10
963.75
 20
4281.5
 30
0.0
 40
4.5
 50
36.87
 51
143.13
  0
ARC
  8
13
  6
CONTINUOUS
 62
     3
  5
599
 10
972.0
 20
4293.0
 30
0.0
 40
20.25
 50
124.88
 51
233.71
  0
ARC
  8
13
  6
CONTINUOUS
 62
     3
  5
59A
 10
955.5
 20
4293.0
 30
0.0
 40
20.25
 50
305.46
 51
53.56
  0
ARC
  8
13
  6
CONTINUOUS
 62
     3
  5
59B
 10
969.5
 20
4293.0
 30
0.0
 40
13.0
 50
136.4
 51
223.6
  0
ARC
  8
13
  6
CONTINUOUS
 62
     3
  5
59C
 10
958.0
 20
4293.0
 30
0.0
 40
13.0
 50
316.4
 51
43.6
  0
ARC
  8
13
  6
CONTINUOUS
 62
     3
  5
59D
 10
964.0
 20
4303.5
 30
0.0
 40
3.75
 50
204.34
 51
335.66
  0
LINE
  8
13
  6
CONTINUOUS
 62
     3
  5
59E
 10
967.25
 20
4284.25
 30
0.0
 11
967.25
 21
4254.25
 31
0.0
  0
LINE
  8
13
  6
CONTINUOUS
 62
     3
  5
59F
 10
960.25
 20
4284.25
 30
0.0
 11
960.25
 21
4254.25
 31
0.0
  0
LINE
  8
13
  6
CONTINUOUS
 62
     3
  5
5A0
 10
967.0
 20
4236.5
 30
0.0
 11
967.0
 21
4221.0
 31
0.0
  0
LINE
  8
13
  6
CONTINUOUS
 62
     3
  5
5A1
 10
960.0
 20
4236.5
 30
0.0
 11
960.0
 21
4221.0
 31
0.0
  0
LINE
  8
100
  6
CENTER
 62
     3
  5
5A2
 10
310.25
 20
3591.0
 30
0.0
 11
591.25
 21
3591.0
 31
0.0
  0
LINE
  8
113
  6
CONTINUOUS
 62
     3
  5
5A3
 10
1852.75
 20
3475.5
 30
0.0
 11
2053.0
 21
3591.0
 31
0.0
  0
LINE
  8
113
  6
CONTINUOUS
 62
     3
  5
5A4
 10
1852.75
 20
3360.0
 30
0.0
 11
2168.0
 21
3542.0
 31
0.0
  0
LINE
  8
113
  6
CONTINUOUS
 62
     3
  5
5A5
 10
1852.75
 20
3244.5
 30
0.0
 11
2026.5
 21
3344.75
 31
0.0
  0
LINE
  8
113
  6
CONTINUOUS
 62
     3
  5
5A6
 10
1852.75
 20
3129.0
 30
0.0
 11
2026.5
 21
3229.25
 31
0.0
  0
LINE
  8
113
  6
CONTINUOUS
 62
     3
  5
5A7
 10
1852.75
 20
3013.75
 30
0.0
 11
2026.5
 21
3114.0
 31
0.0
  0
LINE
  8
113
  6
CONTINUOUS
 62
     3
  5
5A8
 10
1852.75
 20
2898.25
 30
0.0
 11
2026.5
 21
2998.5
 31
0.0
  0
LINE
  8
113
  6
CONTINUOUS
 62
     3
  5
5A9
 10
1852.75
 20
2782.75
 30
0.0
 11
2026.5
 21
2883.0
 31
0.0
  0
LINE
  8
113
  6
CONTINUOUS
 62
     3
  5
5AA
 10
1852.75
 20
2667.25
 30
0.0
 11
2026.5
 21
2767.5
 31
0.0
  0
LINE
  8
113
  6
CONTINUOUS
 62
     3
  5
5AB
 10
1852.75
 20
2551.75
 30
0.0
 11
2026.5
 21
2652.0
 31
0.0
  0
LINE
  8
113
  6
CONTINUOUS
 62
     3
  5
5AC
 10
1852.75
 20
2436.25
 30
0.0
 11
2026.5
 21
2536.5
 31
0.0
  0
LINE
  8
113
  6
CONTINUOUS
 62
     3
  5
5AD
 10
2001.25
 20
2291.0
 30
0.0
 11
2026.25
 21
2305.5
 31
0.0
  0
LINE
  8
113
  6
CONTINUOUS
 62
     3
  5
5AE
 10
1852.75
 20
2320.75
 30
0.0
 11
2026.25
 21
2421.0
 31
0.0
  0
LINE
  8
55
  6
CONTINUOUS
 62
     3
  5
5AF
 10
1830.5
 20
2337.75
 30
0.0
 11
1881.0
 21
2435.5
 31
0.0
  0
LINE
  8
55
  6
CONTINUOUS
 62
     3
  5
5B0
 10
1881.0
 20
2435.5
 30
0.0
 11
1899.25
 21
2435.5
 31
0.0
  0
CIRCLE
  8
50
  6
CONTINUOUS
 62
     3
  5
5B1
 10
1852.75
 20
1973.5
 30
0.0
 40
5.0
  0
TEXT
  8
55
  6
CONTINUOUS
 62
     6
  5
5B2
 10
1050.5
 20
1831.5
 30
0.0
 40
40.0
  1
右側面図
 41
0.837
  7
DRACAD
 72
     5
 11
1210.5
 21
1831.5
 31
0.0
  0
LINE
  8
55
  6
CONTINUOUS
 62
     3
  5
5B3
 10
1086.0
 20
2020.5
 30
0.0
 11
1108.5
 21
2020.5
 31
0.0
  0
TEXT
  8
55
  6
CONTINUOUS
 62
     6
  5
5B4
 10
1110.75
 20
2007.25
 30
0.0
 40
36.0
  1
基礎金物
 41
0.837
  7
DRACAD
 72
     5
 11
1254.75
 21
2007.25
 31
0.0
  0
TEXT
  8
50
  6
CONTINUOUS
 62
     6
  5
5B5
 10
1083.25
 20
1925.5
 30
0.0
 40
36.0
  1
1,400
 41
0.55
  7
DRACAD
 72
     5
 11
1182.25
 21
1925.5
 31
0.0
  0
TEXT
  8
50
  6
CONTINUOUS
 62
     6
  5
5B6
 10
1351.25
 20
1975.5
 30
0.0
 40
36.0
  1
900
 41
0.583333
  7
DRACAD
 72
     5
 11
1414.25
 21
1975.5
 31
0.0
  0
TEXT
  8
50
  6
CONTINUOUS
 62
     6
  5
5B7
 10
751.25
 20
1975.5
 30
0.0
 40
36.0
  1
300
 41
0.583333
  7
DRACAD
 72
     5
 11
814.25
 21
1975.5
 31
0.0
  0
TEXT
  8
50
  6
CONTINUOUS
 62
     6
  5
5B8
 10
501.25
 20
1975.5
 30
0.0
 40
36.0
  1
200
 41
0.583333
  7
DRACAD
 72
     5
 11
564.25
 21
1975.5
 31
0.0
  0
LINE
  8
55
  6
CONTINUOUS
 62
     3
  5
5B9
 10
1448.25
 20
2020.25
 30
0.0
 11
1469.25
 21
2020.25
 31
0.0
  0
TEXT
  8
55
  6
CONTINUOUS
 62
     6
  5
5BA
 10
1469.0
 20
2011.25
 30
0.0
 40
36.0
  1
設置前
 41
0.837
  7
DRACAD
 72
     5
 11
1577.0
 21
2011.25
 31
0.0
  0
LINE
  8
55
  6
CONTINUOUS
 62
     3
  5
5BB
 10
1434.75
 20
2073.75
 30
0.0
 11
1448.25
 21
2020.25
 31
0.0
  0
TEXT
  8
55
  6
CONTINUOUS
 62
     6
  5
5BC
 10
1463.967831
 20
1978.25
 30
0.0
 40
36.0
  1
コンクリート打
 41
0.837
  7
DRACAD
 72
     5
 11
1715.967831
 21
1978.25
 31
0.0
  0
TEXT
  8
50
  6
CONTINUOUS
 62
     6
  5
5BD
 10
1855.25
 20
1975.5
 30
0.0
 40
36.0
  1
20
 41
0.625
  7
DRACAD
 72
     5
 11
1900.25
 21
1975.5
 31
0.0
  0
TEXT
  8
50
  6
CONTINUOUS
 62
     6
  5
5BE
 10
1729.25
 20
2128.0
 30
0.0
 40
36.0
  1
81
 50
90.0
 41
0.625
  7
DRACAD
 72
     5
 11
1729.25
 21
2173.0
 31
0.0
  0
LINE
  8
50
  6
CONTINUOUS
 62
     3
  5
5BF
 10
1731.25
 20
2291.0
 30
0.0
 11
1731.25
 21
2191.0
 31
0.0
  0
TEXT
  8
50
  6
CONTINUOUS
 62
     6
  5
5C0
 10
1729.25
 20
2209.5
 30
0.0
 40
36.0
  1
100
 50
90.0
 41
0.583333
  7
DRACAD
 72
     5
 11
1729.25
 21
2272.5
 31
0.0
  0
TEXT
  8
55
  6
CONTINUOUS
 62
     6
  5
5C1
 10
1362.5
 20
2252.0
 30
0.0
 40
36.0
  1
ＰＬ１６
 41
0.680063
  7
DRACAD
 72
     5
 11
1479.5
 21
2252.0
 31
0.0
  0
TEXT
  8
55
  6
CONTINUOUS
 62
     6
  5
5C2
 10
1211.25
 20
2302.0
 30
0.0
 40
36.0
  1
Ｍ１２
 41
0.6975
  7
DRACAD
 72
     5
 11
1301.25
 21
2302.0
 31
0.0
  0
TEXT
  8
55
  6
CONTINUOUS
 62
     6
  5
5C3
 10
1377.75
 20
2452.5
 30
0.0
 40
36.0
  1
Ｌ５０×５０×４
 41
0.653906
  7
DRACAD
 72
     5
 11
1602.75
 21
2452.5
 31
0.0
  0
TEXT
  8
55
  6
CONTINUOUS
 62
     6
  5
5C4
 10
1453.5
 20
2630.75
 30
0.0
 40
36.0
  1
Ｃ．Ｐ２．３
 41
0.662625
  7
DRACAD
 72
     5
 11
1624.5
 21
2630.75
 31
0.0
  0
TEXT
  8
55
  6
CONTINUOUS
 62
     6
  5
5C5
 10
1892.75
 20
2426.25
 30
0.0
 40
36.0
  1
Ｌ５０×５０×４
 41
0.653906
  7
DRACAD
 72
     5
 11
2117.75
 21
2426.25
 31
0.0
  0
TEXT
  8
55
  6
CONTINUOUS
 62
     6
  5
5C6
 10
1302.75
 20
2687.0
 30
0.0
 40
36.0
  1
装置
 41
0.837
  7
DRACAD
 72
     5
 11
1374.75
 21
2687.0
 31
0.0
  0
TEXT
  8
50
  6
CONTINUOUS
 62
     6
  5
5C7
 10
2116.75
 20
2903.75
 30
0.0
 40
36.0
  1
揚程
 50
90.0
 41
1.2555
  7
DRACAD
 72
     5
 11
2116.75
 21
3011.75
 31
0.0
  0
TEXT
  8
55
  6
CONTINUOUS
 62
     6
  5
5C8
 10
1306.030699
 20
2730.780699
 30
0.0
 40
36.0
  1
落下防止
 41
0.837
  7
DRACAD
 72
     5
 11
1450.030699
 21
2730.780699
 31
0.0
  0
TEXT
  8
55
  6
CONTINUOUS
 62
     6
  5
5C9
 10
1900.75
 20
3594.0
 30
0.0
 40
36.0
  1
段差の高い方
 41
0.837
  7
DRACAD
 72
     5
 11
2116.75
 21
3594.0
 31
0.0
  0
TEXT
  8
50
  6
CONTINUOUS
 62
     6
  5
5CA
 10
1784.0
 20
3288.75
 30
0.0
 40
36.0
  1
20
 41
0.625
  7
DRACAD
 72
     5
 11
1829.0
 21
3288.75
 31
0.0
  0
TEXT
  8
55
  6
CONTINUOUS
 62
     6
  5
5CB
 10
1422.640349
 20
3263.951747
 30
0.0
 40
36.0
  1
手摺
 41
0.837
  7
DRACAD
 72
     5
 11
1494.640349
 21
3263.951747
 31
0.0
  0
TEXT
  8
55
  6
CONTINUOUS
 62
     6
  5
5CC
 10
1424.342096
 20
3217.030699
 30
0.0
 40
36.0
  1
□２５×２５×１．６
 41
0.648675
  7
DRACAD
 72
     5
 11
1703.342096
 21
3217.030699
 31
0.0
  0
TEXT
  8
50
  6
CONTINUOUS
 62
     6
  5
5CD
 10
2116.75
 20
4066.5
 30
0.0
 40
36.0
  1
1,050
 50
90.0
 41
0.55
  7
DRACAD
 72
     5
 11
2116.75
 21
4165.5
 31
0.0
  0
TEXT
  8
55
  6
CONTINUOUS
 62
     6
  5
5CE
 10
1289.25
 20
4247.5
 30
0.0
 40
36.0
  1
Ｌ３０×３０
 41
0.662625
  7
DRACAD
 72
     5
 11
1460.25
 21
4247.5
 31
0.0
  0
TEXT
  8
55
  6
CONTINUOUS
 62
     6
  5
5CF
 10
1453.5
 20
3858.5
 30
0.0
 40
36.0
  1
Ｃ．Ｐ２．３
 41
0.662625
  7
DRACAD
 72
     5
 11
1624.5
 21
3858.5
 31
0.0
  0
TEXT
  8
55
  6
CONTINUOUS
 62
     6
  5
5D0
 10
791.0
 20
3746.0
 30
0.0
 40
36.0
  1
ガイド
 50
90.0
 41
0.837
  7
DRACAD
 72
     5
 11
791.0
 21
3854.0
 31
0.0
  0
LINE
  8
1
  6
CONTINUOUS
 62
     4
  5
5D1
 10
857.75
 20
3516.0
 30
0.0
 11
857.75
 21
4116.0
 31
0.0
  0
TEXT
  8
55
  6
CONTINUOUS
 62
     6
  5
5D2
 10
1237.25
 20
4455.75
 30
0.0
 40
36.0
  1
アルミＢＯＸ
 41
0.837
  7
DRACAD
 72
     5
 11
1453.25
 21
4455.75
 31
0.0
  0
TEXT
  8
55
  6
CONTINUOUS
 62
     6
  5
5D3
 10
1339.396922
 20
4904.219301
 30
0.0
 40
36.0
  1
チェンブロックカバー
 41
0.837
  7
DRACAD
 72
     5
 11
1699.396922
 21
4904.219301
 31
0.0
  0
TEXT
  8
55
  6
CONTINUOUS
 62
     6
  5
5D4
 10
1240.554825
 20
4498.780699
 30
0.0
 40
36.0
  1
手元Ｓ．Ｗ
 41
0.837
  7
DRACAD
 72
     5
 11
1420.554825
 21
4498.780699
 31
0.0
  0
TEXT
  8
55
  6
CONTINUOUS
 62
     6
  5
5D5
 10
837.475873
 20
3746.171048
 30
0.0
 40
36.0
  1
□１５０×１５０×６
 50
90.0
 41
0.648675
  7
DRACAD
 72
     5
 11
837.475873
 21
4025.171048
 31
0.0
  0
TEXT
  8
55
  6
CONTINUOUS
 62
     6
  5
5D6
 10
275.25
 20
4485.25
 30
0.0
 40
36.0
  1
入口遮断用チェーン
 41
0.837
  7
DRACAD
 72
     5
 11
599.25
 21
4485.25
 31
0.0
  0
TEXT
  8
55
  6
CONTINUOUS
 62
     6
  5
5D7
 10
309.75
 20
4266.0
 30
0.0
 40
36.0
  1
リミットＳ．Ｗ
 41
0.837
  7
DRACAD
 72
     5
 11
561.75
 21
4266.0
 31
0.0
  0
TEXT
  8
55
  6
CONTINUOUS
 62
     6
  5
5D8
 10
380.0
 20
4074.75
 30
0.0
 40
36.0
  1
（裏側）
 41
0.837
  7
DRACAD
 72
     5
 11
524.0
 21
4074.75
 31
0.0
  0
TEXT
  8
55
  6
CONTINUOUS
 62
     6
  5
5D9
 10
303.25
 20
3767.5
 30
0.0
 40
36.0
  1
補助スロープ
 41
0.837
  7
DRACAD
 72
     5
 11
519.25
 21
3767.5
 31
0.0
  0
TEXT
  8
55
  6
CONTINUOUS
 62
     6
  5
5DA
 10
293.75
 20
3852.75
 30
0.0
 40
36.0
  1
インナーケーブル
 41
0.837
  7
DRACAD
 72
     5
 11
581.75
 21
3852.75
 31
0.0
  0
TEXT
  8
55
  6
CONTINUOUS
 62
     6
  5
5DB
 10
305.0
 20
3596.0
 30
0.0
 40
36.0
  1
ＧＬ＋揚程
 41
0.9486
  7
DRACAD
 72
     5
 11
509.0
 21
3596.0
 31
0.0
  0
TEXT
  8
55
  6
CONTINUOUS
 62
     6
  5
5DC
 10
782.75
 20
3279.0
 30
0.0
 40
36.0
  1
支柱
 50
90.0
 41
0.837
  7
DRACAD
 72
     5
 11
782.75
 21
3351.0
 31
0.0
  0
TEXT
  8
55
  6
CONTINUOUS
 62
     6
  5
5DD
 10
331.75
 20
2595.0
 30
0.0
 40
36.0
  1
インナーケーブル
 41
0.837
  7
DRACAD
 72
     5
 11
619.75
 21
2595.0
 31
0.0
  0
TEXT
  8
55
  6
CONTINUOUS
 62
     6
  5
5DE
 10
792.0
 20
2525.5
 30
0.0
 40
36.0
  1
ガイド
 50
90.0
 41
0.837
  7
DRACAD
 72
     5
 11
792.0
 21
2633.5
 31
0.0
  0
TEXT
  8
55
  6
CONTINUOUS
 62
     6
  5
5DF
 10
828.75
 20
2514.0
 30
0.0
 40
36.0
  1
□１５０×１５０×６
 50
90.0
 41
0.648675
  7
DRACAD
 72
     5
 11
828.75
 21
2793.0
 31
0.0
  0
TEXT
  8
55
  6
CONTINUOUS
 62
     6
  5
5E0
 10
308.5
 20
2437.0
 30
0.0
 40
36.0
  1
補助スロープ
 41
0.837
  7
DRACAD
 72
     5
 11
524.5
 21
2437.0
 31
0.0
  0
TEXT
  8
50
  6
CONTINUOUS
 62
     6
  5
5E1
 10
293.0
 20
2734.5
 30
0.0
 40
36.0
  1
800
 50
90.0
 41
0.583333
  7
DRACAD
 72
     5
 11
293.0
 21
2797.5
 31
0.0
  0
TEXT
  8
50
  6
CONTINUOUS
 62
     6
  5
5E2
 10
293.0
 20
2306.0
 30
0.0
 40
36.0
  1
75
 50
90.0
 41
0.625
  7
DRACAD
 72
     5
 11
293.0
 21
2351.0
 31
0.0
  0
TEXT
  8
50
  6
CONTINUOUS
 62
     6
  5
5E3
 10
293.0
 20
2209.5
 30
0.0
 40
36.0
  1
100
 50
90.0
 41
0.583333
  7
DRACAD
 72
     5
 11
293.0
 21
2272.5
 31
0.0
  0
TEXT
  8
55
  6
CONTINUOUS
 62
     6
  5
5E4
 10
324.5
 20
2290.5
 30
0.0
 40
36.0
  1
GL
 41
0.875
  7
DRACAD
 72
     5
 11
387.5
 21
2290.5
 31
0.0
  0
TEXT
  8
50
  6
CONTINUOUS
 62
     6
  5
5E5
 10
1134.0
 20
2593.2
 30
0.0
 40
43.2
  1
600
 50
90.0
 41
0.583333
  7
DRACAD
 72
     5
 11
1134.0
 21
2668.8
 31
0.0
  0
TEXT
  8
55
  6
CONTINUOUS
 62
     6
  5
5E6
 10
283.578952
 20
3246.25
 30
0.0
 40
36.0
  1
入口遮断用チェーン
 41
0.837
  7
DRACAD
 72
     5
 11
607.578952
 21
3246.25
 31
0.0
  0
TEXT
  8
55
  6
CONTINUOUS
 62
     6
  5
5E7
 10
829.030699
 20
3277.366223
 30
0.0
 40
36.0
  1
□１２５×１２５×６
 50
90.0
 41
0.648675
  7
DRACAD
 72
     5
 11
829.030699
 21
3556.366223
 31
0.0
  0
TEXT
  8
55
  6
CONTINUOUS
 62
     6
  5
5E8
 10
337.219301
 20
2937.5
 30
0.0
 40
36.0
  1
リミットＳ．Ｗ
 41
0.837
  7
DRACAD
 72
     5
 11
589.219301
 21
2937.5
 31
0.0
  0
TEXT
  8
55
  6
CONTINUOUS
 62
     6
  5
5E9
 10
278.383777
 20
4112.75
 30
0.0
 40
36.0
  1
上限リミットＳ．Ｗ
 41
0.837
  7
DRACAD
 72
     5
 11
602.383777
 21
4112.75
 31
0.0
  0
LINE
  8
50
  6
CONTINUOUS
 62
     3
  5
5EA
 10
245.0
 20
3453.5
 30
0.0
 11
245.0
 21
4641.0
 31
0.0
  0
TEXT
  8
113
  6
CONTINUOUS
 62
     6
  5
5EB
 10
241.5
 20
3730.45
 30
0.0
 40
36.0
  1
揚程
 50
90.0
 41
0.87885
  7
DRACAD
 72
     5
 11
241.5
 21
3806.05
 31
0.0
  0
TEXT
  8
50
  6
CONTINUOUS
 62
     6
  5
5EC
 10
243.0
 20
3538.0
 30
0.0
 40
36.0
  1
ＣＬ＝１００＋　　　＋１，０５０
 50
90.0
 41
0.640828
  7
DRACAD
 72
     5
 11
243.0
 21
3979.0
 31
0.0
  0
TEXT
  8
50
  6
CONTINUOUS
 62
     6
  5
5ED
 10
2116.75
 20
4812.0
 30
0.0
 40
36.0
  1
405
 50
90.0
 41
0.583333
  7
DRACAD
 72
     5
 11
2116.75
 21
4875.0
 31
0.0
  0
TEXT
  8
60
  6
CONTINUOUS
 62
     1
  5
5EE
 10
-11.0
 20
4668.5
 30
0.0
 40
38.5
  1
◆特許取得済◆
 50
90.0
 41
0.773332
  7
DRACAD
 72
     5
 11
-11.0
 21
4917.5
 31
0.0
  0
ENDSEC
  0
EOF
