  0
SECTION
  2
HEADER
  9
$ACADVER
  1
AC1009
  9
$INSBASE
 10
0.0
 20
0.0
 30
0.0
  9
$EXTMIN
 10
46874.895087
 20
8057.46916
 30
0.0
  9
$EXTMAX
 10
50769.895087
 20
13509.453081
 30
0.0
  9
$LIMMIN
 10
46732.395087
 20
7820.98695
  9
$LIMMAX
 10
50932.395087
 20
13760.98695
  9
$ORTHOMODE
 70
     0
  9
$REGENMODE
 70
     1
  9
$FILLMODE
 70
     1
  9
$QTEXTMODE
 70
     0
  9
$MIRRTEXT
 70
     1
  9
$DRAGMODE
 70
     2
  9
$LTSCALE
 40
20.0
  9
$OSMODE
 70
     0
  9
$ATTMODE
 70
     1
  9
$TEXTSIZE
 40
0.2
  9
$TRACEWID
 40
0.05
  9
$TEXTSTYLE
  7
STANDARD
  9
$CLAYER
  8
0
  9
$CELTYPE
  6
CONTINUOUS
  9
$CECOLOR
 62
   256
  9
$DIMSCALE
 40
1.0
  9
$DIMASZ
 40
0.18
  9
$DIMEXO
 40
0.0625
  9
$DIMDLI
 40
0.38
  9
$DIMRND
 40
0.0
  9
$DIMDLE
 40
0.0
  9
$DIMEXE
 40
0.18
  9
$DIMTP
 40
0.0
  9
$DIMTM
 40
0.0
  9
$DIMTXT
 40
0.18
  9
$DIMCEN
 40
0.09
  9
$DIMTSZ
 40
0.0
  9
$DIMTOL
 70
     0
  9
$DIMLIM
 70
     0
  9
$DIMTIH
 70
     1
  9
$DIMTOH
 70
     1
  9
$DIMSE1
 70
     0
  9
$DIMSE2
 70
     0
  9
$DIMTAD
 70
     0
  9
$DIMZIN
 70
     0
  9
$DIMBLK
  1

  9
$DIMASO
 70
     1
  9
$DIMSHO
 70
     1
  9
$DIMPOST
  1

  9
$DIMAPOST
  1

  9
$DIMALT
 70
     0
  9
$DIMALTD
 70
     2
  9
$DIMALTF
 40
25.4
  9
$DIMLFAC
 40
1.0
  9
$DIMTOFL
 70
     0
  9
$DIMTVP
 40
0.0
  9
$DIMTIX
 70
     0
  9
$DIMSOXD
 70
     0
  9
$DIMSAH
 70
     0
  9
$DIMBLK1
  1

  9
$DIMBLK2
  1

  9
$DIMSTYLE
  2
STANDARD
  9
$DIMCLRD
 70
     0
  9
$DIMCLRE
 70
     0
  9
$DIMCLRT
 70
     0
  9
$DIMTFAC
 40
1.0
  9
$DIMGAP
 40
0.09
  9
$LUNITS
 70
     2
  9
$LUPREC
 70
     4
  9
$AXISMODE
 70
     0
  9
$AXISUNIT
 10
0.0
 20
0.0
  9
$SKETCHINC
 40
0.1
  9
$FILLETRAD
 40
0.0
  9
$AUNITS
 70
     0
  9
$AUPREC
 70
     0
  9
$MENU
  1
acad
  9
$ELEVATION
 40
0.0
  9
$PELEVATION
 40
0.0
  9
$THICKNESS
 40
0.0
  9
$LIMCHECK
 70
     0
  9
$BLIPMODE
 70
     1
  9
$CHAMFERA
 40
0.0
  9
$CHAMFERB
 40
0.0
  9
$SKPOLY
 70
     0
  9
$TDCREATE
 40
0.000000000
  9
$TDUPDATE
 40
0.000000000
  9
$TDINDWG
 40
0.0000000000
  9
$TDUSRTIMER
 40
0.0000000000
  9
$USRTIMER
 70
     1
  9
$ANGBASE
 50
0.0
  9
$ANGDIR
 70
     0
  9
$PDMODE
 70
     0
  9
$PDSIZE
 40
0.0
  9
$PLINEWID
 40
0.0
  9
$COORDS
 70
     0
  9
$SPLFRAME
 70
     0
  9
$SPLINETYPE
 70
     6
  9
$SPLINESEGS
 70
     8
  9
$ATTDIA
 70
     0
  9
$ATTREQ
 70
     1
  9
$HANDLING
 70
     1
  9
$HANDSEED
  5
76A
  9
$SURFTAB1
 70
     6
  9
$SURFTAB2
 70
     6
  9
$SURFTYPE
 70
     6
  9
$SURFU
 70
     6
  9
$SURFV
 70
     6
  9
$UCSNAME
  2

  9
$UCSORG
 10
0.0
 20
0.0
 30
0.0
  9
$UCSXDIR
 10
1.0
 20
0.0
 30
0.0
  9
$UCSYDIR
 10
0.0
 20
1.0
 30
0.0
  9
$PUCSNAME
  2

  9
$PUCSORG
 10
0.0
 20
0.0
 30
0.0
  9
$PUCSXDIR
 10
1.0
 20
0.0
 30
0.0
  9
$PUCSYDIR
 10
0.0
 20
1.0
 30
0.0
  9
$USERI1
 70
     0
  9
$USERI2
 70
     0
  9
$USERI3
 70
     0
  9
$USERI4
 70
     0
  9
$USERI5
 70
     0
  9
$USERR1
 40
0.0
  9
$USERR2
 40
0.0
  9
$USERR3
 40
0.0
  9
$USERR4
 40
0.0
  9
$USERR5
 40
0.0
  9
$WORLDVIEW
 70
     1
  9
$SHADEDGE
 70
     3
  9
$SHADEDIF
 70
    70
  9
$TILEMODE
 70
     1
  9
$MAXACTVP
 70
    16
  9
$PINSBASE
 10
0.0
 20
0.0
 30
0.0
  9
$PLIMCHECK
 70
     0
  9
$PEXTMIN
 10
1.000000E+20
 20
1.000000E+20
 30
1.000000E+20
  9
$PEXTMAX
 10
-1.000000E+20
 20
-1.000000E+20
 30
-1.000000E+20
  9
$PLIMMIN
 10
0.0
 20
0.0
  9
$PLIMMAX
 10
12.0
 20
9.0
  9
$UNITMODE
 70
     0
  9
$VISRETAIN
 70
     0
  9
$PLINEGEN
 70
     1
  9
$PSLTSCALE
 70
     0
  9
$TREEDEPTH
 70
  3020
  9
$DWGCODEPAGE
  3
dos932
  0
ENDSEC
  0
SECTION
  2
TABLES
  0
TABLE
  2
VPORT
 70
     1
  0
VPORT
  2
*ACTIVE
 70
     0
 10
0.0
 20
0.0
 11
1.0
 21
1.0
 12
48832.395087
 22
10790.98695
 13
0.0
 23
0.0
 14
1000.0
 24
1000.0
 15
1000.0
 25
1000.0
 16
0.0
 26
0.0
 36
1.0
 17
0.0
 27
0.0
 37
0.0
 40
5940.0
 41
0.707071
 42
50.0
 43
0.0
 44
0.0
 50
0.0
 51
0.0
 71
     0
 72
   100
 73
     1
 74
     1
 75
     0
 76
     0
 77
     0
 78
     0
  0
ENDTAB
  0
TABLE
  2
LTYPE
 70
     9
  0
LTYPE
  2
CONTINUOUS
 70
    64
  3
Solid line
 72
    65
 73
     0
 40
0.0
  0
LTYPE
  2
HIDDEN
 70
    64
  3
__ __ __ __ __ __ __ __ __ __ __ __ __ __ __ __
 72
    65
 73
     5
 40
8.0
 49
1.0
 49
-2.0
 49
2.0
 49
-2.0
 49
1.0
  0
LTYPE
  2
DOT
 70
    64
  3
. . . . . . . . . . . . . . . . . . . . . . . .
 72
    65
 73
     3
 40
1.6
 49
0.4
 49
-0.8
 49
0.4
  0
LTYPE
  2
CENTER
 70
    64
  3
____ _ ____ _ ____ _ ____ _ ____ _ ____ _ ____ 
 72
    65
 73
     5
 40
12.0
 49
5.0
 49
-0.8
 49
0.4
 49
-0.8
 49
5.0
  0
LTYPE
  2
DIVIDE
 70
    64
  3
____ . . ____ . . ____ . . ____ . . ____ . . __
 72
    65
 73
     7
 40
13.2
 49
5.0
 49
-0.8
 49
0.4
 49
-0.8
 49
0.4
 49
-0.8
 49
5.0
  0
LTYPE
  2
DASHED1
 70
     0
  3
Solid Line
 72
    65
 73
     2
 40
2.5
 49
1.25
 49
-1.25
  0
LTYPE
  2
DASHED3
 70
     0
  3
Solid Line
 72
    65
 73
     2
 40
5.0
 49
3.75
 49
-1.25
  0
LTYPE
  2
CENTER1
 70
     0
  3
Solid Line
 72
    65
 73
     4
 40
10.0
 49
6.25
 49
-1.25
 49
1.25
 49
-1.25
  0
LTYPE
  2
PHANTOM1
 70
     0
  3
Solid Line
 72
    65
 73
     6
 40
9.5
 49
3.25
 49
-1.25
 49
1.25
 49
-1.25
 49
1.25
 49
-1.25
  0
ENDTAB
  0
TABLE
  2
LAYER
 70
    19
  0
LAYER
  2
0
 70
     0
 62
     7
  6
CONTINUOUS
  0
LAYER
  2
1
 70
     0
 62
     1
  6
CONTINUOUS
  0
LAYER
  2
2
 70
     0
 62
     1
  6
CONTINUOUS
  0
LAYER
  2
3
 70
     0
 62
     1
  6
CONTINUOUS
  0
LAYER
  2
4
 70
     0
 62
     1
  6
CONTINUOUS
  0
LAYER
  2
5
 70
     0
 62
     1
  6
CONTINUOUS
  0
LAYER
  2
6
 70
     0
 62
     1
  6
CONTINUOUS
  0
LAYER
  2
7
 70
     0
 62
     1
  6
CONTINUOUS
  0
LAYER
  2
8
 70
     0
 62
     1
  6
CONTINUOUS
  0
LAYER
  2
9
 70
     0
 62
     1
  6
CONTINUOUS
  0
LAYER
  2
10
 70
     0
 62
     1
  6
CONTINUOUS
  0
LAYER
  2
11
 70
     0
 62
     1
  6
CONTINUOUS
  0
LAYER
  2
12
 70
     0
 62
     1
  6
CONTINUOUS
  0
LAYER
  2
13
 70
     0
 62
     1
  6
CONTINUOUS
  0
LAYER
  2
14
 70
     0
 62
     1
  6
CONTINUOUS
  0
LAYER
  2
15
 70
     0
 62
     1
  6
CONTINUOUS
  0
LAYER
  2
16
 70
     0
 62
     1
  6
CONTINUOUS
  0
LAYER
  2
40
 70
     0
 62
     1
  6
CONTINUOUS
  0
LAYER
  2
50
 70
     0
 62
     1
  6
CONTINUOUS
  0
ENDTAB
  0
TABLE
  2
STYLE
 70
     3
  0
STYLE
  2
STANDARD
 70
     0
 40
0.0
 41
1.0
 50
0.0
 71
     0
 42
0.0
  3
txt
  4

  0
STYLE
  2

 70
     0
 40
1000.0
 41
1.0
 50
0.0
 71
     0
 42
1000.0
  3
txt
  4
extfont
  0
STYLE
  2

 70
     0
 40
1000.0
 41
1.0
 50
0.0
 71
     0
 42
1000.0
  3
txt
  4
extfont
  0
ENDTAB
  0
TABLE
  2
VIEW
 70
     0
  0
ENDTAB
  0
TABLE
  2
UCS
 70
     0
  0
ENDTAB
  0
TABLE
  2
APPID
 70
     1
  0
APPID
  2
ACAD
 70
     0
  0
ENDTAB
  0
TABLE
  2
DIMSTYLE
 70
     1
  0
DIMSTYLE
  2
STANDARD
 70
     0
  3

  4

  5

  6

  7

 40
1.0
 41
0.18
 42
0.0625
 43
0.38
 44
0.18
 45
0.0
 46
0.0
 47
0.0
 48
0.0
 71
     0
 72
     0
 73
     1
 74
     1
 75
     0
 76
     0
 77
     0
 78
     0
140
0.18
141
0.09
142
0.0
143
25.4
144
1.0
145
0.0
146
1.0
147
0.09
170
     0
171
     2
172
     0
173
     0
174
     0
175
     0
176
     0
177
     0
178
     0
  0
ENDTAB
  0
ENDSEC
  0
SECTION
  2
BLOCKS
  0
ENDSEC
  0
SECTION
  2
ENTITIES
  0
TEXT
  8
5
  6
CONTINUOUS
 62
     3
  5
102
 10
48642.478591
 20
8147.46916
 30
0.0
 40
90.0
  1
テスリックス
 41
0.837
  7

 72
     5
 11
49182.478591
 21
8147.46916
 31
0.0
  0
TEXT
  8
5
  6
CONTINUOUS
 62
     3
  5
103
 10
48642.478591
 20
8057.46916
 30
0.0
 40
90.0
  1
取付側展開図
 41
0.837
  7

 72
     5
 11
49182.478591
 21
8057.46916
 31
0.0
  0
LINE
  8
5
  6
CONTINUOUS
 62
     5
  5
104
 10
47942.185763
 20
13114.360302
 30
0.0
 11
47942.185763
 21
11142.161302
 31
0.0
  0
LINE
  8
5
  6
CONTINUOUS
 62
     5
  5
105
 10
47942.185763
 20
11141.860302
 30
0.0
 11
48122.186763
 21
11141.860302
 31
0.0
  0
LINE
  8
3
  6
CONTINUOUS
 62
     2
  5
106
 10
48122.186763
 20
12471.562302
 30
0.0
 11
48122.186763
 21
12171.562302
 31
0.0
  0
LINE
  8
1
  6
CONTINUOUS
 62
     5
  5
107
 10
48122.186763
 20
11271.562302
 30
0.0
 11
48122.186763
 21
13106.562302
 31
0.0
  0
LINE
  8
5
  6
CONTINUOUS
 62
     5
  5
108
 10
48122.186763
 20
13114.360302
 30
0.0
 11
48122.186763
 21
11271.562302
 31
0.0
  0
LINE
  8
1
  6
CONTINUOUS
 62
     5
  5
109
 10
47942.185763
 20
13114.360302
 30
0.0
 11
47942.185763
 21
13294.361302
 31
0.0
  0
LINE
  8
1
  6
CONTINUOUS
 62
     1
  5
10A
 10
49847.186663
 20
11276.860302
 30
0.0
 11
49847.186663
 21
11266.562302
 31
0.0
  0
LINE
  8
1
  6
CONTINUOUS
 62
     1
  5
10B
 10
49847.186663
 20
11276.860302
 30
0.0
 11
49857.186663
 21
11276.860302
 31
0.0
  0
LINE
  8
2
  6
CONTINUOUS
 62
     2
  5
10C
 10
49837.999563
 20
11266.860302
 30
0.0
 11
49847.186663
 21
11275.609921
 31
0.0
  0
LINE
  8
2
  6
CONTINUOUS
 62
     2
  5
10D
 10
49855.280401
 20
11266.860302
 30
0.0
 11
49847.186663
 21
11275.358727
 31
0.0
  0
LINE
  8
4
  6
CENTER1
 62
     2
  5
10E
 10
47942.185763
 20
13204.361302
 30
0.0
 11
49887.185163
 21
13204.361302
 31
0.0
  0
LINE
  8
4
  6
CENTER1
 62
     2
  5
10F
 10
47942.185763
 20
11204.360302
 30
0.0
 11
49887.185163
 21
11204.360302
 31
0.0
  0
LINE
  8
1
  6
CONTINUOUS
 62
     5
  5
110
 10
48122.186763
 20
11141.860302
 30
0.0
 11
49857.185163
 21
11141.860302
 31
0.0
  0
LINE
  8
1
  6
CONTINUOUS
 62
     5
  5
111
 10
49857.185163
 20
11266.860302
 30
0.0
 11
49857.185163
 21
11141.860302
 31
0.0
  0
LINE
  8
5
  6
CONTINUOUS
 62
     3
  5
112
 10
50087.185163
 20
11204.360302
 30
0.0
 11
49887.185163
 21
11204.360302
 31
0.0
  0
CIRCLE
  8
5
  6
CONTINUOUS
 62
     3
  5
113
 10
50087.185163
 20
11204.360302
 30
0.0
 40
7.5
  0
CIRCLE
  8
5
  6
CONTINUOUS
 62
     3
  5
114
 10
50087.185163
 20
13204.361302
 30
0.0
 40
7.5
  0
CIRCLE
  8
5
  6
CONTINUOUS
 62
     3
  5
115
 10
49987.185163
 20
13204.361302
 30
0.0
 40
7.5
  0
CIRCLE
  8
5
  6
CONTINUOUS
 62
     3
  5
116
 10
49987.185163
 20
11204.360302
 30
0.0
 40
7.5
  0
LINE
  8
1
  6
CONTINUOUS
 62
     6
  5
117
 10
49707.186663
 20
11294.362302
 30
0.0
 11
49707.186663
 21
11266.562302
 31
0.0
  0
LINE
  8
1
  6
CONTINUOUS
 62
     6
  5
118
 10
49857.186663
 20
11294.362302
 30
0.0
 11
49857.186663
 21
11276.860302
 31
0.0
  0
CIRCLE
  8
5
  6
CONTINUOUS
 62
     3
  5
119
 10
49987.185163
 20
11294.362302
 30
0.0
 40
7.5
  0
LINE
  8
5
  6
CONTINUOUS
 62
     3
  5
11A
 10
49987.185163
 20
11294.362302
 30
0.0
 11
49887.185163
 21
11294.362302
 31
0.0
  0
LINE
  8
5
  6
CONTINUOUS
 62
     5
  5
11B
 10
49844.686163
 20
13294.361302
 30
0.0
 11
47942.185763
 21
13294.361302
 31
0.0
  0
LINE
  8
5
  6
CONTINUOUS
 62
     5
  5
11C
 10
48122.186763
 20
13114.360302
 30
0.0
 11
49719.686163
 21
13114.360302
 31
0.0
  0
LINE
  8
3
  6
CONTINUOUS
 62
     5
  5
11D
 10
49803.686703
 20
12220.295632
 30
0.0
 11
49803.686703
 21
13019.862442
 31
0.0
  0
LINE
  8
4
  6
CONTINUOUS
 62
     6
  5
11E
 10
49851.186743
 20
11294.362302
 30
0.0
 11
49851.186743
 21
13014.362332
 31
0.0
  0
ARC
  8
4
  6
CONTINUOUS
 62
     6
  5
11F
 10
49747.908463
 20
12142.795482
 30
0.0
 40
12.50004
 50
180.0
 51
270.0
  0
ARC
  8
4
  6
CONTINUOUS
 62
     6
  5
120
 10
49747.908463
 20
12142.795622
 30
0.0
 40
12.50004
 50
90.0
 51
180.0
  0
LINE
  8
4
  6
HIDDEN
 62
     6
  5
121
 10
49810.408523
 20
11294.362302
 30
0.0
 11
49810.408523
 21
12091.355072
 31
0.0
  0
LINE
  8
12
  6
CONTINUOUS
 62
     6
  5
122
 10
49810.408523
 20
12095.295652
 30
0.0
 11
49846.408543
 21
12095.295652
 31
0.0
  0
LINE
  8
4
  6
HIDDEN
 62
     6
  5
123
 10
49810.408523
 20
12095.295652
 30
0.0
 11
49845.905523
 21
12095.295652
 31
0.0
  0
LINE
  8
4
  6
HIDDEN
 62
     6
  5
124
 10
49846.408543
 20
11294.362302
 30
0.0
 11
49846.408543
 21
12091.355072
 31
0.0
  0
LINE
  8
4
  6
CONTINUOUS
 62
     6
  5
125
 10
49810.408523
 20
12095.295652
 30
0.0
 11
49810.408523
 21
13014.362332
 31
0.0
  0
LINE
  8
4
  6
CONTINUOUS
 62
     6
  5
126
 10
49846.408543
 20
12095.295652
 30
0.0
 11
49846.408543
 21
12224.409392
 31
0.0
  0
LINE
  8
4
  6
CONTINUOUS
 62
     6
  5
127
 10
49810.408523
 20
12130.295652
 30
0.0
 11
49747.908463
 21
12130.295652
 31
0.0
  0
LINE
  8
4
  6
CONTINUOUS
 62
     6
  5
128
 10
49810.408523
 20
12155.295522
 30
0.0
 11
49747.908463
 21
12155.295522
 31
0.0
  0
LINE
  8
2
  6
CONTINUOUS
 62
     5
  5
129
 10
49851.186743
 20
13044.862312
 30
0.0
 11
49791.186663
 21
13044.862312
 31
0.0
  0
LINE
  8
2
  6
CONTINUOUS
 62
     5
  5
12A
 10
49851.186743
 20
13019.862442
 30
0.0
 11
49791.186663
 21
13019.862442
 31
0.0
  0
LINE
  8
2
  6
CONTINUOUS
 62
     5
  5
12B
 10
49791.186663
 20
13044.862312
 30
0.0
 11
49791.186663
 21
13019.862442
 31
0.0
  0
LINE
  8
2
  6
CONTINUOUS
 62
     5
  5
12C
 10
49851.186743
 20
13044.862312
 30
0.0
 11
49851.186743
 21
13019.862442
 31
0.0
  0
LINE
  8
4
  6
CONTINUOUS
 62
     6
  5
12D
 10
49810.408523
 20
13014.362332
 30
0.0
 11
49851.186743
 21
13014.362332
 31
0.0
  0
LINE
  8
1
  6
CONTINUOUS
 62
     5
  5
12E
 10
49844.686163
 20
13294.361302
 30
0.0
 11
49844.686163
 21
13044.862312
 31
0.0
  0
LINE
  8
1
  6
CONTINUOUS
 62
     5
  5
12F
 10
49719.686163
 20
13114.360302
 30
0.0
 11
49719.686163
 21
12220.295632
 31
0.0
  0
LINE
  8
2
  6
CONTINUOUS
 62
     6
  5
130
 10
49707.186663
 20
12195.295482
 30
0.0
 11
49707.186663
 21
12220.295632
 31
0.0
  0
LINE
  8
2
  6
CONTINUOUS
 62
     6
  5
131
 10
49808.686663
 20
12195.295482
 30
0.0
 11
49808.686663
 21
12220.295632
 31
0.0
  0
LINE
  8
2
  6
CONTINUOUS
 62
     6
  5
132
 10
49808.686663
 20
12195.295482
 30
0.0
 11
49707.186663
 21
12195.295482
 31
0.0
  0
LINE
  8
2
  6
CONTINUOUS
 62
     6
  5
133
 10
49808.686663
 20
12220.295632
 30
0.0
 11
49707.186663
 21
12220.295632
 31
0.0
  0
LINE
  8
4
  6
HIDDEN
 62
     6
  5
134
 10
49810.408523
 20
12224.409392
 30
0.0
 11
49846.408543
 21
12224.409392
 31
0.0
  0
LINE
  8
5
  6
CONTINUOUS
 62
     5
  5
135
 10
49719.686163
 20
12220.295632
 30
0.0
 11
49803.686703
 21
12220.295632
 31
0.0
  0
LINE
  8
5
  6
CONTINUOUS
 62
     3
  5
136
 10
49987.185163
 20
12094.362302
 30
0.0
 11
49987.185163
 21
11294.362302
 31
0.0
  0
CIRCLE
  8
5
  6
CONTINUOUS
 62
     3
  5
137
 10
49987.185163
 20
12094.362302
 30
0.0
 40
7.5
  0
LINE
  8
5
  6
CONTINUOUS
 62
     3
  5
138
 10
49987.185163
 20
12094.362302
 30
0.0
 11
49887.185163
 21
12094.362302
 31
0.0
  0
CIRCLE
  8
5
  6
CONTINUOUS
 62
     3
  5
139
 10
49987.185163
 20
13014.362442
 30
0.0
 40
7.5
  0
LINE
  8
5
  6
CONTINUOUS
 62
     3
  5
13A
 10
49987.185163
 20
13014.362442
 30
0.0
 11
49987.185163
 21
12094.362302
 31
0.0
  0
LINE
  8
5
  6
CONTINUOUS
 62
     3
  5
13B
 10
49987.185163
 20
11294.362302
 30
0.0
 11
49987.185163
 21
11204.360302
 31
0.0
  0
LINE
  8
5
  6
CONTINUOUS
 62
     3
  5
13C
 10
49987.185163
 20
13204.361302
 30
0.0
 11
49987.185163
 21
13014.362442
 31
0.0
  0
LINE
  8
5
  6
CONTINUOUS
 62
     3
  5
13D
 10
49987.185163
 20
13014.362442
 30
0.0
 11
49887.185163
 21
13014.362442
 31
0.0
  0
LINE
  8
5
  6
CONTINUOUS
 62
     3
  5
13E
 10
50087.185163
 20
13204.361302
 30
0.0
 11
49887.185163
 21
13204.361302
 31
0.0
  0
LINE
  8
5
  6
CONTINUOUS
 62
     3
  5
13F
 10
50087.185163
 20
11204.360302
 30
0.0
 11
50087.185163
 21
13204.361302
 31
0.0
  0
LINE
  8
7
  6
CONTINUOUS
 62
     3
  5
140
 10
49704.661559
 20
12412.977038
 30
0.0
 11
49674.611349
 21
12412.977038
 31
0.0
  0
LINE
  8
40
  6
CONTINUOUS
 62
     4
  5
141
 10
49704.611599
 20
12411.516138
 30
0.0
 11
49704.611599
 21
12442.338678
 31
0.0
  0
LINE
  8
40
  6
CONTINUOUS
 62
     4
  5
142
 10
49706.611569
 20
12448.582118
 30
0.0
 11
49706.611569
 21
12405.301118
 31
0.0
  0
LINE
  8
40
  6
CONTINUOUS
 62
     4
  5
143
 10
49724.611579
 20
12471.976958
 30
0.0
 11
49714.124669
 21
12471.976958
 31
0.0
  0
LINE
  8
40
  6
CONTINUOUS
 62
     4
  5
144
 10
49724.611579
 20
12381.976978
 30
0.0
 11
49714.096039
 21
12381.976978
 31
0.0
  0
LINE
  8
40
  6
CONTINUOUS
 62
     4
  5
145
 10
49712.611619
 20
12382.723038
 30
0.0
 11
49712.611619
 21
12471.187498
 31
0.0
  0
ARC
  8
40
  6
CONTINUOUS
 62
     4
  5
146
 10
49714.227359
 20
12469.977058
 30
0.0
 40
2.00004
 50
90.0
 51
165.529705
  0
ARC
  8
40
  6
CONTINUOUS
 62
     4
  5
147
 10
49714.184309
 20
12383.978698
 30
0.0
 40
2.00004
 50
194.069648
 51
270.0
  0
LINE
  8
1
  6
CONTINUOUS
 62
     4
  5
148
 10
49731.797639
 20
12459.287918
 30
0.0
 11
49732.492669
 21
12455.287838
 31
0.0
  0
LINE
  8
1
  6
CONTINUOUS
 62
     4
  5
149
 10
49734.833959
 20
12459.287918
 30
0.0
 11
49735.543199
 21
12455.287838
 31
0.0
  0
LINE
  8
1
  6
CONTINUOUS
 62
     4
  5
14A
 10
49737.887079
 20
12459.287918
 30
0.0
 11
49738.596319
 21
12455.287838
 31
0.0
  0
LINE
  8
1
  6
CONTINUOUS
 62
     4
  5
14B
 10
49740.940199
 20
12459.287918
 30
0.0
 11
49741.649369
 21
12455.287838
 31
0.0
  0
LINE
  8
1
  6
CONTINUOUS
 62
     4
  5
14C
 10
49743.990659
 20
12459.287918
 30
0.0
 11
49744.685619
 21
12455.287838
 31
0.0
  0
LINE
  8
1
  6
CONTINUOUS
 62
     4
  5
14D
 10
49747.026769
 20
12459.287918
 30
0.0
 11
49747.736009
 21
12455.287838
 31
0.0
  0
LINE
  8
1
  6
CONTINUOUS
 62
     4
  5
14E
 10
49730.902479
 20
12455.683058
 30
0.0
 11
49730.334849
 21
12458.892698
 31
0.0
  0
LINE
  8
1
  6
CONTINUOUS
 62
     4
  5
14F
 10
49733.935929
 20
12455.683058
 30
0.0
 11
49733.368369
 21
12458.892698
 31
0.0
  0
LINE
  8
1
  6
CONTINUOUS
 62
     4
  5
150
 10
49736.989049
 20
12455.683058
 30
0.0
 11
49736.421489
 21
12458.892698
 31
0.0
  0
LINE
  8
1
  6
CONTINUOUS
 62
     4
  5
151
 10
49740.042169
 20
12455.683058
 30
0.0
 11
49739.474679
 21
12458.892698
 31
0.0
  0
LINE
  8
1
  6
CONTINUOUS
 62
     4
  5
152
 10
49743.095359
 20
12455.683058
 30
0.0
 11
49742.527799
 21
12458.892698
 31
0.0
  0
LINE
  8
1
  6
CONTINUOUS
 62
     4
  5
153
 10
49746.128879
 20
12455.683058
 30
0.0
 11
49745.561319
 21
12458.892698
 31
0.0
  0
LINE
  8
1
  6
CONTINUOUS
 62
     4
  5
154
 10
49749.181999
 20
12455.683058
 30
0.0
 11
49748.614369
 21
12458.892698
 31
0.0
  0
LINE
  8
1
  6
CONTINUOUS
 62
     4
  5
155
 10
49728.746269
 20
12459.287918
 30
0.0
 11
49729.450469
 21
12455.287838
 31
0.0
  0
LINE
  8
1
  6
CONTINUOUS
 62
     4
  5
156
 10
49718.611599
 20
12457.287878
 30
0.0
 11
49718.611599
 21
12461.537858
 31
0.0
  0
LINE
  8
1
  6
CONTINUOUS
 62
     4
  5
157
 10
49722.699739
 20
12459.287918
 30
0.0
 11
49723.408979
 21
12455.287838
 31
0.0
  0
LINE
  8
1
  6
CONTINUOUS
 62
     4
  5
158
 10
49725.713589
 20
12459.287918
 30
0.0
 11
49726.422829
 21
12455.287838
 31
0.0
  0
LINE
  8
1
  6
CONTINUOUS
 62
     4
  5
159
 10
49721.821309
 20
12455.683058
 30
0.0
 11
49721.253749
 21
12458.892698
 31
0.0
  0
LINE
  8
1
  6
CONTINUOUS
 62
     4
  5
15A
 10
49724.835229
 20
12455.683058
 30
0.0
 11
49724.267669
 21
12458.892698
 31
0.0
  0
LINE
  8
1
  6
CONTINUOUS
 62
     4
  5
15B
 10
49727.868819
 20
12455.683058
 30
0.0
 11
49727.301259
 21
12458.892698
 31
0.0
  0
LINE
  8
1
  6
CONTINUOUS
 62
     4
  5
15C
 10
49718.611599
 20
12459.890898
 30
0.0
 11
49719.814549
 21
12458.687878
 31
0.0
  0
LINE
  8
1
  6
CONTINUOUS
 62
     4
  5
15D
 10
49718.611599
 20
12459.890898
 30
0.0
 11
49718.611599
 21
12461.537858
 31
0.0
  0
LINE
  8
1
  6
CONTINUOUS
 62
     4
  5
15E
 10
49718.611599
 20
12454.684858
 30
0.0
 11
49719.814549
 21
12455.887878
 31
0.0
  0
LINE
  8
1
  6
CONTINUOUS
 62
     4
  5
15F
 10
49718.611599
 20
12454.684858
 30
0.0
 11
49718.611599
 21
12453.037898
 31
0.0
  0
LINE
  8
1
  6
CONTINUOUS
 62
     4
  5
160
 10
49720.294749
 20
12455.683058
 30
0.0
 11
49719.727259
 21
12458.892698
 31
0.0
  0
LINE
  8
1
  6
CONTINUOUS
 62
     4
  5
161
 10
49715.120559
 20
12457.894638
 30
0.0
 11
49715.120559
 21
12456.681118
 31
0.0
  0
LINE
  8
1
  6
CONTINUOUS
 62
     4
  5
162
 10
49714.611589
 20
12457.894638
 30
0.0
 11
49715.120559
 21
12457.894638
 31
0.0
  0
LINE
  8
1
  6
CONTINUOUS
 62
     4
  5
163
 10
49714.611589
 20
12456.681118
 30
0.0
 11
49715.120559
 21
12456.681118
 31
0.0
  0
LINE
  8
1
  6
CONTINUOUS
 62
     4
  5
164
 10
49714.611589
 20
12457.894638
 30
0.0
 11
49714.611589
 21
12456.681118
 31
0.0
  0
LINE
  8
1
  6
CONTINUOUS
 62
     4
  5
165
 10
49750.079889
 20
12459.287918
 30
0.0
 11
49750.789129
 21
12455.287838
 31
0.0
  0
LINE
  8
1
  6
CONTINUOUS
 62
     4
  5
166
 10
49753.734309
 20
12455.896558
 30
0.0
 11
49753.222749
 21
12458.781538
 31
0.0
  0
LINE
  8
1
  6
CONTINUOUS
 62
     4
  5
167
 10
49752.235049
 20
12455.683058
 30
0.0
 11
49751.667489
 21
12458.892698
 31
0.0
  0
LINE
  8
1
  6
CONTINUOUS
 62
     4
  5
168
 10
49755.198569
 20
12456.189438
 30
0.0
 11
49754.795929
 21
12458.466818
 31
0.0
  0
LINE
  8
1
  6
CONTINUOUS
 62
     4
  5
169
 10
49731.797639
 20
12398.666098
 30
0.0
 11
49732.492669
 21
12394.666158
 31
0.0
  0
LINE
  8
1
  6
CONTINUOUS
 62
     4
  5
16A
 10
49734.833959
 20
12398.666098
 30
0.0
 11
49735.543199
 21
12394.666158
 31
0.0
  0
LINE
  8
1
  6
CONTINUOUS
 62
     4
  5
16B
 10
49737.887079
 20
12398.666098
 30
0.0
 11
49738.596319
 21
12394.666158
 31
0.0
  0
LINE
  8
1
  6
CONTINUOUS
 62
     4
  5
16C
 10
49740.940199
 20
12398.666098
 30
0.0
 11
49741.649369
 21
12394.666158
 31
0.0
  0
LINE
  8
1
  6
CONTINUOUS
 62
     4
  5
16D
 10
49743.990659
 20
12398.666098
 30
0.0
 11
49744.685619
 21
12394.666158
 31
0.0
  0
LINE
  8
1
  6
CONTINUOUS
 62
     4
  5
16E
 10
49747.026769
 20
12398.666098
 30
0.0
 11
49747.736009
 21
12394.666158
 31
0.0
  0
LINE
  8
1
  6
CONTINUOUS
 62
     4
  5
16F
 10
49730.902479
 20
12395.061238
 30
0.0
 11
49730.334849
 21
12398.271018
 31
0.0
  0
LINE
  8
1
  6
CONTINUOUS
 62
     4
  5
170
 10
49733.935929
 20
12395.061238
 30
0.0
 11
49733.368369
 21
12398.271018
 31
0.0
  0
LINE
  8
1
  6
CONTINUOUS
 62
     4
  5
171
 10
49736.989049
 20
12395.061238
 30
0.0
 11
49736.421489
 21
12398.271018
 31
0.0
  0
LINE
  8
1
  6
CONTINUOUS
 62
     4
  5
172
 10
49740.042169
 20
12395.061238
 30
0.0
 11
49739.474679
 21
12398.271018
 31
0.0
  0
LINE
  8
1
  6
CONTINUOUS
 62
     4
  5
173
 10
49743.095359
 20
12395.061238
 30
0.0
 11
49742.527799
 21
12398.271018
 31
0.0
  0
LINE
  8
1
  6
CONTINUOUS
 62
     4
  5
174
 10
49746.128879
 20
12395.061238
 30
0.0
 11
49745.561319
 21
12398.271018
 31
0.0
  0
LINE
  8
1
  6
CONTINUOUS
 62
     4
  5
175
 10
49749.181999
 20
12395.061238
 30
0.0
 11
49748.614369
 21
12398.271018
 31
0.0
  0
LINE
  8
1
  6
CONTINUOUS
 62
     4
  5
176
 10
49728.746269
 20
12398.666098
 30
0.0
 11
49729.450469
 21
12394.666158
 31
0.0
  0
LINE
  8
1
  6
CONTINUOUS
 62
     4
  5
177
 10
49718.611599
 20
12396.666058
 30
0.0
 11
49718.611599
 21
12400.916178
 31
0.0
  0
LINE
  8
1
  6
CONTINUOUS
 62
     4
  5
178
 10
49722.699739
 20
12398.666098
 30
0.0
 11
49723.408979
 21
12394.666158
 31
0.0
  0
LINE
  8
1
  6
CONTINUOUS
 62
     4
  5
179
 10
49725.713589
 20
12398.666098
 30
0.0
 11
49726.422829
 21
12394.666158
 31
0.0
  0
LINE
  8
1
  6
CONTINUOUS
 62
     4
  5
17A
 10
49721.821309
 20
12395.061238
 30
0.0
 11
49721.253749
 21
12398.271018
 31
0.0
  0
LINE
  8
1
  6
CONTINUOUS
 62
     4
  5
17B
 10
49724.835229
 20
12395.061238
 30
0.0
 11
49724.267669
 21
12398.271018
 31
0.0
  0
LINE
  8
1
  6
CONTINUOUS
 62
     4
  5
17C
 10
49727.868819
 20
12395.061238
 30
0.0
 11
49727.301259
 21
12398.271018
 31
0.0
  0
LINE
  8
1
  6
CONTINUOUS
 62
     4
  5
17D
 10
49718.611599
 20
12399.269078
 30
0.0
 11
49719.814549
 21
12398.066058
 31
0.0
  0
LINE
  8
1
  6
CONTINUOUS
 62
     4
  5
17E
 10
49718.611599
 20
12399.269078
 30
0.0
 11
49718.611599
 21
12400.916178
 31
0.0
  0
LINE
  8
1
  6
CONTINUOUS
 62
     4
  5
17F
 10
49718.611599
 20
12394.063178
 30
0.0
 11
49719.814549
 21
12395.266058
 31
0.0
  0
LINE
  8
1
  6
CONTINUOUS
 62
     4
  5
180
 10
49718.611599
 20
12394.063178
 30
0.0
 11
49718.611599
 21
12392.416078
 31
0.0
  0
LINE
  8
1
  6
CONTINUOUS
 62
     4
  5
181
 10
49720.294749
 20
12395.061238
 30
0.0
 11
49719.727259
 21
12398.271018
 31
0.0
  0
LINE
  8
1
  6
CONTINUOUS
 62
     4
  5
182
 10
49715.120559
 20
12397.272818
 30
0.0
 11
49715.120559
 21
12396.059438
 31
0.0
  0
LINE
  8
1
  6
CONTINUOUS
 62
     4
  5
183
 10
49714.611589
 20
12397.272818
 30
0.0
 11
49715.120559
 21
12397.272818
 31
0.0
  0
LINE
  8
1
  6
CONTINUOUS
 62
     4
  5
184
 10
49714.611589
 20
12396.059438
 30
0.0
 11
49715.120559
 21
12396.059438
 31
0.0
  0
LINE
  8
1
  6
CONTINUOUS
 62
     4
  5
185
 10
49714.611589
 20
12397.272818
 30
0.0
 11
49714.611589
 21
12396.059438
 31
0.0
  0
LINE
  8
1
  6
CONTINUOUS
 62
     4
  5
186
 10
49750.079889
 20
12398.666098
 30
0.0
 11
49750.789129
 21
12394.666158
 31
0.0
  0
LINE
  8
1
  6
CONTINUOUS
 62
     4
  5
187
 10
49753.734309
 20
12395.274878
 30
0.0
 11
49753.222749
 21
12398.159718
 31
0.0
  0
LINE
  8
1
  6
CONTINUOUS
 62
     4
  5
188
 10
49752.235049
 20
12395.061238
 30
0.0
 11
49751.667489
 21
12398.271018
 31
0.0
  0
LINE
  8
1
  6
CONTINUOUS
 62
     4
  5
189
 10
49755.198569
 20
12395.567618
 30
0.0
 11
49754.795929
 21
12397.845138
 31
0.0
  0
LINE
  8
40
  6
CONTINUOUS
 62
     4
  5
18A
 10
49724.611579
 20
12382.002038
 30
0.0
 11
49714.096039
 21
12382.002038
 31
0.0
  0
LINE
  8
40
  6
CONTINUOUS
 62
     4
  5
18B
 10
49711.979099
 20
12384.502018
 30
0.0
 11
49719.611619
 21
12384.502018
 31
0.0
  0
LINE
  8
40
  6
CONTINUOUS
 62
     4
  5
18C
 10
49705.611619
 20
12444.707058
 30
0.0
 11
49705.611619
 21
12409.176038
 31
0.0
  0
LINE
  8
40
  6
CONTINUOUS
 62
     4
  5
18D
 10
49704.611599
 20
12440.977038
 30
0.0
 11
49704.611599
 21
12412.977038
 31
0.0
  0
LINE
  8
40
  6
CONTINUOUS
 62
     4
  5
18E
 10
49703.611579
 20
12412.392678
 30
0.0
 11
49703.611579
 21
12441.493078
 31
0.0
  0
LINE
  8
40
  6
CONTINUOUS
 62
     4
  5
18F
 10
49702.611489
 20
12412.831018
 30
0.0
 11
49702.611489
 21
12441.096178
 31
0.0
  0
LINE
  8
12
  6
CONTINUOUS
 62
     4
  5
190
 10
49719.611619
 20
12403.590038
 30
0.0
 11
49719.611619
 21
12381.976978
 31
0.0
  0
LINE
  8
12
  6
CONTINUOUS
 62
     4
  5
191
 10
49712.003879
 20
12469.476978
 30
0.0
 11
49719.611619
 21
12469.476978
 31
0.0
  0
LINE
  8
12
  6
CONTINUOUS
 62
     4
  5
192
 10
49706.623399
 20
12448.627618
 30
0.0
 11
49706.593859
 21
12448.627618
 31
0.0
  0
LINE
  8
12
  6
CONTINUOUS
 62
     4
  5
193
 10
49707.066639
 20
12450.345558
 30
0.0
 11
49719.611619
 21
12450.345558
 31
0.0
  0
LINE
  8
12
  6
CONTINUOUS
 62
     4
  5
194
 10
49706.718879
 20
12448.633778
 30
0.0
 11
49719.716899
 21
12450.258478
 31
0.0
  0
LINE
  8
12
  6
CONTINUOUS
 62
     4
  5
195
 10
49706.517979
 20
12405.307838
 30
0.0
 11
49706.488509
 21
12405.307838
 31
0.0
  0
LINE
  8
12
  6
CONTINUOUS
 62
     4
  5
196
 10
49706.961289
 20
12403.590038
 30
0.0
 11
49719.506339
 21
12403.590038
 31
0.0
  0
LINE
  8
12
  6
CONTINUOUS
 62
     4
  5
197
 10
49706.613599
 20
12405.301678
 30
0.0
 11
49719.611619
 21
12403.676978
 31
0.0
  0
LINE
  8
12
  6
CONTINUOUS
 62
     4
  5
198
 10
49719.611619
 20
12450.245318
 30
0.0
 11
49719.611619
 21
12469.476978
 31
0.0
  0
LINE
  8
12
  6
CONTINUOUS
 62
     4
  5
199
 10
49718.611599
 20
12450.245318
 30
0.0
 11
49718.611599
 21
12469.476978
 31
0.0
  0
LINE
  8
12
  6
CONTINUOUS
 62
     4
  5
19A
 10
49718.611599
 20
12403.590038
 30
0.0
 11
49718.611599
 21
12381.976978
 31
0.0
  0
LINE
  8
12
  6
CONTINUOUS
 62
     4
  5
19B
 10
49718.611599
 20
12453.037898
 30
0.0
 11
49718.611599
 21
12461.537858
 31
0.0
  0
LINE
  8
12
  6
CONTINUOUS
 62
     4
  5
19C
 10
49718.611599
 20
12461.537858
 30
0.0
 11
49715.611609
 21
12461.537858
 31
0.0
  0
LINE
  8
12
  6
CONTINUOUS
 62
     4
  5
19D
 10
49718.611599
 20
12453.037898
 30
0.0
 11
49715.611609
 21
12453.037898
 31
0.0
  0
LINE
  8
12
  6
CONTINUOUS
 62
     4
  5
19E
 10
49715.611609
 20
12453.037898
 30
0.0
 11
49718.611599
 21
12453.037898
 31
0.0
  0
LINE
  8
12
  6
CONTINUOUS
 62
     4
  5
19F
 10
49715.611609
 20
12461.537858
 30
0.0
 11
49718.611599
 21
12461.537858
 31
0.0
  0
LINE
  8
12
  6
CONTINUOUS
 62
     4
  5
1A0
 10
49715.611609
 20
12461.537858
 30
0.0
 11
49715.611609
 21
12453.037898
 31
0.0
  0
ARC
  8
12
  6
CONTINUOUS
 62
     4
  5
1A1
 10
49724.142859
 20
12457.287878
 30
0.0
 40
9.53134
 50
153.51896
 51
206.48104
  0
LINE
  8
12
  6
CONTINUOUS
 62
     4
  5
1A2
 10
49718.611599
 20
12455.887878
 30
0.0
 11
49749.611589
 21
12455.887878
 31
0.0
  0
LINE
  8
12
  6
CONTINUOUS
 62
     4
  5
1A3
 10
49718.611599
 20
12458.687878
 30
0.0
 11
49749.611589
 21
12458.687878
 31
0.0
  0
LINE
  8
12
  6
CONTINUOUS
 62
     4
  5
1A4
 10
49749.611589
 20
12455.887878
 30
0.0
 11
49749.611589
 21
12458.687878
 31
0.0
  0
LINE
  8
12
  6
CONTINUOUS
 62
     4
  5
1A5
 10
49756.611589
 20
12457.287878
 30
0.0
 11
49749.611589
 21
12458.687878
 31
0.0
  0
LINE
  8
12
  6
CONTINUOUS
 62
     4
  5
1A6
 10
49756.611589
 20
12457.287878
 30
0.0
 11
49749.611589
 21
12455.887878
 31
0.0
  0
LINE
  8
12
  6
CENTER
 62
     4
  5
1A7
 10
49715.611609
 20
12457.287878
 30
0.0
 11
49756.611589
 21
12457.287878
 31
0.0
  0
LINE
  8
12
  6
CENTER
 62
     4
  5
1A8
 10
49756.611589
 20
12457.287878
 30
0.0
 11
49717.104569
 21
12457.287878
 31
0.0
  0
LINE
  8
12
  6
CONTINUOUS
 62
     4
  5
1A9
 10
49718.611599
 20
12392.416078
 30
0.0
 11
49718.611599
 21
12400.916178
 31
0.0
  0
LINE
  8
12
  6
CONTINUOUS
 62
     4
  5
1AA
 10
49718.611599
 20
12400.916178
 30
0.0
 11
49715.611609
 21
12400.916178
 31
0.0
  0
LINE
  8
12
  6
CONTINUOUS
 62
     4
  5
1AB
 10
49718.611599
 20
12392.416078
 30
0.0
 11
49715.611609
 21
12392.416078
 31
0.0
  0
LINE
  8
12
  6
CONTINUOUS
 62
     4
  5
1AC
 10
49715.611609
 20
12392.416078
 30
0.0
 11
49718.611599
 21
12392.416078
 31
0.0
  0
LINE
  8
12
  6
CONTINUOUS
 62
     4
  5
1AD
 10
49715.611609
 20
12400.916178
 30
0.0
 11
49718.611599
 21
12400.916178
 31
0.0
  0
LINE
  8
12
  6
CONTINUOUS
 62
     4
  5
1AE
 10
49715.611609
 20
12400.916178
 30
0.0
 11
49715.611609
 21
12392.416078
 31
0.0
  0
ARC
  8
12
  6
CONTINUOUS
 62
     4
  5
1AF
 10
49724.142859
 20
12396.666058
 30
0.0
 40
9.53134
 50
153.51896
 51
206.48104
  0
LINE
  8
12
  6
CONTINUOUS
 62
     4
  5
1B0
 10
49718.611599
 20
12395.266058
 30
0.0
 11
49749.611589
 21
12395.266058
 31
0.0
  0
LINE
  8
12
  6
CONTINUOUS
 62
     4
  5
1B1
 10
49718.611599
 20
12398.066058
 30
0.0
 11
49749.611589
 21
12398.066058
 31
0.0
  0
LINE
  8
12
  6
CONTINUOUS
 62
     4
  5
1B2
 10
49749.611589
 20
12395.266058
 30
0.0
 11
49749.611589
 21
12398.066058
 31
0.0
  0
LINE
  8
12
  6
CONTINUOUS
 62
     4
  5
1B3
 10
49756.611589
 20
12396.666058
 30
0.0
 11
49749.611589
 21
12398.066058
 31
0.0
  0
LINE
  8
12
  6
CONTINUOUS
 62
     4
  5
1B4
 10
49756.611589
 20
12396.666058
 30
0.0
 11
49749.611589
 21
12395.266058
 31
0.0
  0
LINE
  8
12
  6
CENTER
 62
     4
  5
1B5
 10
49715.611609
 20
12396.666058
 30
0.0
 11
49756.611589
 21
12396.666058
 31
0.0
  0
LINE
  8
12
  6
CENTER
 62
     4
  5
1B6
 10
49756.611589
 20
12396.666058
 30
0.0
 11
49717.104569
 21
12396.666058
 31
0.0
  0
LINE
  8
12
  6
CONTINUOUS
 62
     4
  5
1B7
 10
49718.858839
 20
12451.579378
 30
0.0
 11
49718.858839
 21
12463.079398
 31
0.0
  0
LINE
  8
12
  6
CONTINUOUS
 62
     4
  5
1B8
 10
49719.658729
 20
12451.579378
 30
0.0
 11
49719.658729
 21
12463.079398
 31
0.0
  0
LINE
  8
12
  6
CONTINUOUS
 62
     4
  5
1B9
 10
49718.858839
 20
12451.579378
 30
0.0
 11
49719.658729
 21
12451.579378
 31
0.0
  0
LINE
  8
12
  6
CONTINUOUS
 62
     4
  5
1BA
 10
49718.858839
 20
12454.579298
 30
0.0
 11
49719.658729
 21
12454.579298
 31
0.0
  0
LINE
  8
12
  6
CONTINUOUS
 62
     4
  5
1BB
 10
49718.858839
 20
12460.079338
 30
0.0
 11
49719.658729
 21
12460.079338
 31
0.0
  0
LINE
  8
12
  6
CONTINUOUS
 62
     4
  5
1BC
 10
49718.858839
 20
12463.079398
 30
0.0
 11
49719.658729
 21
12463.079398
 31
0.0
  0
LINE
  8
12
  6
CONTINUOUS
 62
     4
  5
1BD
 10
49718.858839
 20
12390.961198
 30
0.0
 11
49718.858839
 21
12402.461218
 31
0.0
  0
LINE
  8
12
  6
CONTINUOUS
 62
     4
  5
1BE
 10
49719.658729
 20
12390.961198
 30
0.0
 11
49719.658729
 21
12402.461218
 31
0.0
  0
LINE
  8
12
  6
CONTINUOUS
 62
     4
  5
1BF
 10
49718.858839
 20
12390.961198
 30
0.0
 11
49719.658729
 21
12390.961198
 31
0.0
  0
LINE
  8
12
  6
CONTINUOUS
 62
     4
  5
1C0
 10
49718.858839
 20
12393.961258
 30
0.0
 11
49719.658729
 21
12393.961258
 31
0.0
  0
LINE
  8
12
  6
CONTINUOUS
 62
     4
  5
1C1
 10
49718.858839
 20
12399.461298
 30
0.0
 11
49719.658729
 21
12399.461298
 31
0.0
  0
LINE
  8
12
  6
CONTINUOUS
 62
     4
  5
1C2
 10
49718.858839
 20
12402.461218
 30
0.0
 11
49719.658729
 21
12402.461218
 31
0.0
  0
LINE
  8
8
  6
CONTINUOUS
 62
     4
  5
1C3
 10
49705.404979
 20
12409.976558
 30
0.0
 11
49712.242509
 21
12383.480998
 31
0.0
  0
LINE
  8
8
  6
CONTINUOUS
 62
     4
  5
1C4
 10
49705.374529
 20
12443.788798
 30
0.0
 11
49712.272889
 21
12470.519838
 31
0.0
  0
ARC
  8
8
  6
CONTINUOUS
 62
     4
  5
1C5
 10
49701.575629
 20
12444.944778
 30
0.0
 40
4.00008
 50
270.0
 51
345.529706
  0
LINE
  8
50
  6
CENTER
 62
     4
  5
1C6
 10
49718.858839
 20
12457.329318
 30
0.0
 11
49720.980819
 21
12457.329318
 31
0.0
  0
LINE
  8
50
  6
CENTER
 62
     4
  5
1C7
 10
49718.858839
 20
12396.711278
 30
0.0
 11
49720.980819
 21
12396.711278
 31
0.0
  0
ARC
  8
8
  6
CONTINUOUS
 62
     4
  5
1C8
 10
49701.524739
 20
12408.982558
 30
0.0
 40
4.00008
 50
14.470294
 51
90.0
  0
LINE
  8
40
  6
CONTINUOUS
 62
     4
  5
1C9
 10
49704.611599
 20
12873.204465
 30
0.0
 11
49704.611599
 21
12842.381925
 31
0.0
  0
LINE
  8
40
  6
CONTINUOUS
 62
     4
  5
1CA
 10
49706.611569
 20
12836.138485
 30
0.0
 11
49706.611569
 21
12879.419485
 31
0.0
  0
LINE
  8
40
  6
CONTINUOUS
 62
     4
  5
1CB
 10
49724.611579
 20
12812.743645
 30
0.0
 11
49714.124669
 21
12812.743645
 31
0.0
  0
LINE
  8
40
  6
CONTINUOUS
 62
     4
  5
1CC
 10
49724.611579
 20
12902.743625
 30
0.0
 11
49714.096039
 21
12902.743625
 31
0.0
  0
LINE
  8
40
  6
CONTINUOUS
 62
     4
  5
1CD
 10
49712.611619
 20
12901.997565
 30
0.0
 11
49712.611619
 21
12813.533105
 31
0.0
  0
ARC
  8
40
  6
CONTINUOUS
 62
     4
  5
1CE
 10
49714.227359
 20
12814.743545
 30
0.0
 40
2.00004
 50
194.470295
 51
270.0
  0
ARC
  8
40
  6
CONTINUOUS
 62
     4
  5
1CF
 10
49714.184309
 20
12900.741905
 30
0.0
 40
2.00004
 50
90.0
 51
165.930352
  0
LINE
  8
1
  6
CONTINUOUS
 62
     4
  5
1D0
 10
49731.797639
 20
12825.432685
 30
0.0
 11
49732.492669
 21
12829.432765
 31
0.0
  0
LINE
  8
1
  6
CONTINUOUS
 62
     4
  5
1D1
 10
49734.833959
 20
12825.432685
 30
0.0
 11
49735.543199
 21
12829.432765
 31
0.0
  0
LINE
  8
1
  6
CONTINUOUS
 62
     4
  5
1D2
 10
49737.887079
 20
12825.432685
 30
0.0
 11
49738.596319
 21
12829.432765
 31
0.0
  0
LINE
  8
1
  6
CONTINUOUS
 62
     4
  5
1D3
 10
49740.940199
 20
12825.432685
 30
0.0
 11
49741.649369
 21
12829.432765
 31
0.0
  0
LINE
  8
1
  6
CONTINUOUS
 62
     4
  5
1D4
 10
49743.990659
 20
12825.432685
 30
0.0
 11
49744.685619
 21
12829.432765
 31
0.0
  0
LINE
  8
1
  6
CONTINUOUS
 62
     4
  5
1D5
 10
49747.026769
 20
12825.432685
 30
0.0
 11
49747.736009
 21
12829.432765
 31
0.0
  0
LINE
  8
1
  6
CONTINUOUS
 62
     4
  5
1D6
 10
49730.902479
 20
12829.037545
 30
0.0
 11
49730.334849
 21
12825.827905
 31
0.0
  0
LINE
  8
1
  6
CONTINUOUS
 62
     4
  5
1D7
 10
49733.935929
 20
12829.037545
 30
0.0
 11
49733.368369
 21
12825.827905
 31
0.0
  0
LINE
  8
1
  6
CONTINUOUS
 62
     4
  5
1D8
 10
49736.989049
 20
12829.037545
 30
0.0
 11
49736.421489
 21
12825.827905
 31
0.0
  0
LINE
  8
1
  6
CONTINUOUS
 62
     4
  5
1D9
 10
49740.042169
 20
12829.037545
 30
0.0
 11
49739.474679
 21
12825.827905
 31
0.0
  0
LINE
  8
1
  6
CONTINUOUS
 62
     4
  5
1DA
 10
49743.095359
 20
12829.037545
 30
0.0
 11
49742.527799
 21
12825.827905
 31
0.0
  0
LINE
  8
1
  6
CONTINUOUS
 62
     4
  5
1DB
 10
49746.128879
 20
12829.037545
 30
0.0
 11
49745.561319
 21
12825.827905
 31
0.0
  0
LINE
  8
1
  6
CONTINUOUS
 62
     4
  5
1DC
 10
49749.181999
 20
12829.037545
 30
0.0
 11
49748.614369
 21
12825.827905
 31
0.0
  0
LINE
  8
1
  6
CONTINUOUS
 62
     4
  5
1DD
 10
49728.746269
 20
12825.432685
 30
0.0
 11
49729.450469
 21
12829.432765
 31
0.0
  0
LINE
  8
1
  6
CONTINUOUS
 62
     4
  5
1DE
 10
49718.611599
 20
12827.432725
 30
0.0
 11
49718.611599
 21
12823.182745
 31
0.0
  0
LINE
  8
1
  6
CONTINUOUS
 62
     4
  5
1DF
 10
49722.699739
 20
12825.432685
 30
0.0
 11
49723.408979
 21
12829.432765
 31
0.0
  0
LINE
  8
1
  6
CONTINUOUS
 62
     4
  5
1E0
 10
49725.713589
 20
12825.432685
 30
0.0
 11
49726.422829
 21
12829.432765
 31
0.0
  0
LINE
  8
1
  6
CONTINUOUS
 62
     4
  5
1E1
 10
49721.821309
 20
12829.037545
 30
0.0
 11
49721.253749
 21
12825.827905
 31
0.0
  0
LINE
  8
1
  6
CONTINUOUS
 62
     4
  5
1E2
 10
49724.835229
 20
12829.037545
 30
0.0
 11
49724.267669
 21
12825.827905
 31
0.0
  0
LINE
  8
1
  6
CONTINUOUS
 62
     4
  5
1E3
 10
49727.868819
 20
12829.037545
 30
0.0
 11
49727.301259
 21
12825.827905
 31
0.0
  0
LINE
  8
1
  6
CONTINUOUS
 62
     4
  5
1E4
 10
49718.611599
 20
12824.829705
 30
0.0
 11
49719.814549
 21
12826.032725
 31
0.0
  0
LINE
  8
1
  6
CONTINUOUS
 62
     4
  5
1E5
 10
49718.611599
 20
12824.829705
 30
0.0
 11
49718.611599
 21
12823.182745
 31
0.0
  0
LINE
  8
1
  6
CONTINUOUS
 62
     4
  5
1E6
 10
49718.611599
 20
12830.035745
 30
0.0
 11
49719.814549
 21
12828.832725
 31
0.0
  0
LINE
  8
1
  6
CONTINUOUS
 62
     4
  5
1E7
 10
49718.611599
 20
12830.035745
 30
0.0
 11
49718.611599
 21
12831.682705
 31
0.0
  0
LINE
  8
1
  6
CONTINUOUS
 62
     4
  5
1E8
 10
49720.294749
 20
12829.037545
 30
0.0
 11
49719.727259
 21
12825.827905
 31
0.0
  0
LINE
  8
1
  6
CONTINUOUS
 62
     4
  5
1E9
 10
49715.120559
 20
12826.825965
 30
0.0
 11
49715.120559
 21
12828.039485
 31
0.0
  0
LINE
  8
1
  6
CONTINUOUS
 62
     4
  5
1EA
 10
49714.611589
 20
12826.825965
 30
0.0
 11
49715.120559
 21
12826.825965
 31
0.0
  0
LINE
  8
1
  6
CONTINUOUS
 62
     4
  5
1EB
 10
49714.611589
 20
12828.039485
 30
0.0
 11
49715.120559
 21
12828.039485
 31
0.0
  0
LINE
  8
1
  6
CONTINUOUS
 62
     4
  5
1EC
 10
49714.611589
 20
12826.825965
 30
0.0
 11
49714.611589
 21
12828.039485
 31
0.0
  0
LINE
  8
1
  6
CONTINUOUS
 62
     4
  5
1ED
 10
49750.079889
 20
12825.432685
 30
0.0
 11
49750.789129
 21
12829.432765
 31
0.0
  0
LINE
  8
1
  6
CONTINUOUS
 62
     4
  5
1EE
 10
49753.734309
 20
12828.824045
 30
0.0
 11
49753.222749
 21
12825.939065
 31
0.0
  0
LINE
  8
1
  6
CONTINUOUS
 62
     4
  5
1EF
 10
49752.235049
 20
12829.037545
 30
0.0
 11
49751.667489
 21
12825.827905
 31
0.0
  0
LINE
  8
1
  6
CONTINUOUS
 62
     4
  5
1F0
 10
49755.198569
 20
12828.531165
 30
0.0
 11
49754.795929
 21
12826.253785
 31
0.0
  0
LINE
  8
1
  6
CONTINUOUS
 62
     4
  5
1F1
 10
49731.797639
 20
12886.054505
 30
0.0
 11
49732.492669
 21
12890.054445
 31
0.0
  0
LINE
  8
1
  6
CONTINUOUS
 62
     4
  5
1F2
 10
49734.833959
 20
12886.054505
 30
0.0
 11
49735.543199
 21
12890.054445
 31
0.0
  0
LINE
  8
1
  6
CONTINUOUS
 62
     4
  5
1F3
 10
49737.887079
 20
12886.054505
 30
0.0
 11
49738.596319
 21
12890.054445
 31
0.0
  0
LINE
  8
1
  6
CONTINUOUS
 62
     4
  5
1F4
 10
49740.940199
 20
12886.054505
 30
0.0
 11
49741.649369
 21
12890.054445
 31
0.0
  0
LINE
  8
1
  6
CONTINUOUS
 62
     4
  5
1F5
 10
49743.990659
 20
12886.054505
 30
0.0
 11
49744.685619
 21
12890.054445
 31
0.0
  0
LINE
  8
1
  6
CONTINUOUS
 62
     4
  5
1F6
 10
49747.026769
 20
12886.054505
 30
0.0
 11
49747.736009
 21
12890.054445
 31
0.0
  0
LINE
  8
1
  6
CONTINUOUS
 62
     4
  5
1F7
 10
49730.902479
 20
12889.659365
 30
0.0
 11
49730.334849
 21
12886.449585
 31
0.0
  0
LINE
  8
1
  6
CONTINUOUS
 62
     4
  5
1F8
 10
49733.935929
 20
12889.659365
 30
0.0
 11
49733.368369
 21
12886.449585
 31
0.0
  0
LINE
  8
1
  6
CONTINUOUS
 62
     4
  5
1F9
 10
49736.989049
 20
12889.659365
 30
0.0
 11
49736.421489
 21
12886.449585
 31
0.0
  0
LINE
  8
1
  6
CONTINUOUS
 62
     4
  5
1FA
 10
49740.042169
 20
12889.659365
 30
0.0
 11
49739.474679
 21
12886.449585
 31
0.0
  0
LINE
  8
1
  6
CONTINUOUS
 62
     4
  5
1FB
 10
49743.095359
 20
12889.659365
 30
0.0
 11
49742.527799
 21
12886.449585
 31
0.0
  0
LINE
  8
1
  6
CONTINUOUS
 62
     4
  5
1FC
 10
49746.128879
 20
12889.659365
 30
0.0
 11
49745.561319
 21
12886.449585
 31
0.0
  0
LINE
  8
1
  6
CONTINUOUS
 62
     4
  5
1FD
 10
49749.181999
 20
12889.659365
 30
0.0
 11
49748.614369
 21
12886.449585
 31
0.0
  0
LINE
  8
1
  6
CONTINUOUS
 62
     4
  5
1FE
 10
49728.746269
 20
12886.054505
 30
0.0
 11
49729.450469
 21
12890.054445
 31
0.0
  0
LINE
  8
1
  6
CONTINUOUS
 62
     4
  5
1FF
 10
49718.611599
 20
12888.054545
 30
0.0
 11
49718.611599
 21
12883.804425
 31
0.0
  0
LINE
  8
1
  6
CONTINUOUS
 62
     4
  5
200
 10
49722.699739
 20
12886.054505
 30
0.0
 11
49723.408979
 21
12890.054445
 31
0.0
  0
LINE
  8
1
  6
CONTINUOUS
 62
     4
  5
201
 10
49725.713589
 20
12886.054505
 30
0.0
 11
49726.422829
 21
12890.054445
 31
0.0
  0
LINE
  8
1
  6
CONTINUOUS
 62
     4
  5
202
 10
49721.821309
 20
12889.659365
 30
0.0
 11
49721.253749
 21
12886.449585
 31
0.0
  0
LINE
  8
1
  6
CONTINUOUS
 62
     4
  5
203
 10
49724.835229
 20
12889.659365
 30
0.0
 11
49724.267669
 21
12886.449585
 31
0.0
  0
LINE
  8
1
  6
CONTINUOUS
 62
     4
  5
204
 10
49727.868819
 20
12889.659365
 30
0.0
 11
49727.301259
 21
12886.449585
 31
0.0
  0
LINE
  8
1
  6
CONTINUOUS
 62
     4
  5
205
 10
49718.611599
 20
12885.451525
 30
0.0
 11
49719.814549
 21
12886.654545
 31
0.0
  0
LINE
  8
1
  6
CONTINUOUS
 62
     4
  5
206
 10
49718.611599
 20
12885.451525
 30
0.0
 11
49718.611599
 21
12883.804425
 31
0.0
  0
LINE
  8
1
  6
CONTINUOUS
 62
     4
  5
207
 10
49718.611599
 20
12890.657425
 30
0.0
 11
49719.814549
 21
12889.454545
 31
0.0
  0
LINE
  8
1
  6
CONTINUOUS
 62
     4
  5
208
 10
49718.611599
 20
12890.657425
 30
0.0
 11
49718.611599
 21
12892.304525
 31
0.0
  0
LINE
  8
1
  6
CONTINUOUS
 62
     4
  5
209
 10
49720.294749
 20
12889.659365
 30
0.0
 11
49719.727259
 21
12886.449585
 31
0.0
  0
LINE
  8
1
  6
CONTINUOUS
 62
     4
  5
20A
 10
49715.120559
 20
12887.447785
 30
0.0
 11
49715.120559
 21
12888.661165
 31
0.0
  0
LINE
  8
1
  6
CONTINUOUS
 62
     4
  5
20B
 10
49714.611589
 20
12887.447785
 30
0.0
 11
49715.120559
 21
12887.447785
 31
0.0
  0
LINE
  8
1
  6
CONTINUOUS
 62
     4
  5
20C
 10
49714.611589
 20
12888.661165
 30
0.0
 11
49715.120559
 21
12888.661165
 31
0.0
  0
LINE
  8
1
  6
CONTINUOUS
 62
     4
  5
20D
 10
49714.611589
 20
12887.447785
 30
0.0
 11
49714.611589
 21
12888.661165
 31
0.0
  0
LINE
  8
1
  6
CONTINUOUS
 62
     4
  5
20E
 10
49750.079889
 20
12886.054505
 30
0.0
 11
49750.789129
 21
12890.054445
 31
0.0
  0
LINE
  8
1
  6
CONTINUOUS
 62
     4
  5
20F
 10
49753.734309
 20
12889.445725
 30
0.0
 11
49753.222749
 21
12886.560885
 31
0.0
  0
LINE
  8
1
  6
CONTINUOUS
 62
     4
  5
210
 10
49752.235049
 20
12889.659365
 30
0.0
 11
49751.667489
 21
12886.449585
 31
0.0
  0
LINE
  8
1
  6
CONTINUOUS
 62
     4
  5
211
 10
49755.198569
 20
12889.152985
 30
0.0
 11
49754.795929
 21
12886.875465
 31
0.0
  0
LINE
  8
40
  6
CONTINUOUS
 62
     4
  5
212
 10
49724.611579
 20
12902.718565
 30
0.0
 11
49714.096039
 21
12902.718565
 31
0.0
  0
LINE
  8
40
  6
CONTINUOUS
 62
     4
  5
213
 10
49711.979099
 20
12900.218585
 30
0.0
 11
49719.611619
 21
12900.218585
 31
0.0
  0
LINE
  8
40
  6
CONTINUOUS
 62
     4
  5
214
 10
49705.611619
 20
12840.013545
 30
0.0
 11
49705.611619
 21
12875.544565
 31
0.0
  0
LINE
  8
40
  6
CONTINUOUS
 62
     4
  5
215
 10
49704.611599
 20
12843.743565
 30
0.0
 11
49704.611599
 21
12871.743565
 31
0.0
  0
LINE
  8
40
  6
CONTINUOUS
 62
     4
  5
216
 10
49703.611579
 20
12872.327925
 30
0.0
 11
49703.611579
 21
12843.227525
 31
0.0
  0
LINE
  8
40
  6
CONTINUOUS
 62
     4
  5
217
 10
49702.611489
 20
12871.889585
 30
0.0
 11
49702.611489
 21
12843.624425
 31
0.0
  0
LINE
  8
12
  6
CONTINUOUS
 62
     4
  5
218
 10
49719.611619
 20
12881.130565
 30
0.0
 11
49719.611619
 21
12902.743625
 31
0.0
  0
LINE
  8
12
  6
CONTINUOUS
 62
     4
  5
219
 10
49712.003879
 20
12815.243625
 30
0.0
 11
49719.611619
 21
12815.243625
 31
0.0
  0
LINE
  8
12
  6
CONTINUOUS
 62
     4
  5
21A
 10
49706.623399
 20
12836.092985
 30
0.0
 11
49706.593859
 21
12836.092985
 31
0.0
  0
LINE
  8
12
  6
CONTINUOUS
 62
     4
  5
21B
 10
49707.066639
 20
12834.375045
 30
0.0
 11
49719.611619
 21
12834.375045
 31
0.0
  0
LINE
  8
12
  6
CONTINUOUS
 62
     4
  5
21C
 10
49706.718879
 20
12836.086825
 30
0.0
 11
49719.716899
 21
12834.462125
 31
0.0
  0
LINE
  8
12
  6
CONTINUOUS
 62
     4
  5
21D
 10
49706.517979
 20
12879.412765
 30
0.0
 11
49706.488509
 21
12879.412765
 31
0.0
  0
LINE
  8
12
  6
CONTINUOUS
 62
     4
  5
21E
 10
49706.961289
 20
12881.130565
 30
0.0
 11
49719.506339
 21
12881.130565
 31
0.0
  0
LINE
  8
12
  6
CONTINUOUS
 62
     4
  5
21F
 10
49706.613599
 20
12879.418925
 30
0.0
 11
49719.611619
 21
12881.043625
 31
0.0
  0
LINE
  8
12
  6
CONTINUOUS
 62
     4
  5
220
 10
49719.611619
 20
12834.475285
 30
0.0
 11
49719.611619
 21
12815.243625
 31
0.0
  0
LINE
  8
12
  6
CONTINUOUS
 62
     4
  5
221
 10
49718.611599
 20
12834.475285
 30
0.0
 11
49718.611599
 21
12815.243625
 31
0.0
  0
LINE
  8
12
  6
CONTINUOUS
 62
     4
  5
222
 10
49718.611599
 20
12881.130565
 30
0.0
 11
49718.611599
 21
12902.743625
 31
0.0
  0
LINE
  8
12
  6
CONTINUOUS
 62
     4
  5
223
 10
49718.611599
 20
12831.682705
 30
0.0
 11
49718.611599
 21
12823.182745
 31
0.0
  0
LINE
  8
12
  6
CONTINUOUS
 62
     4
  5
224
 10
49718.611599
 20
12823.182745
 30
0.0
 11
49715.611609
 21
12823.182745
 31
0.0
  0
LINE
  8
12
  6
CONTINUOUS
 62
     4
  5
225
 10
49718.611599
 20
12831.682705
 30
0.0
 11
49715.611609
 21
12831.682705
 31
0.0
  0
LINE
  8
12
  6
CONTINUOUS
 62
     4
  5
226
 10
49715.611609
 20
12831.682705
 30
0.0
 11
49718.611599
 21
12831.682705
 31
0.0
  0
LINE
  8
12
  6
CONTINUOUS
 62
     4
  5
227
 10
49715.611609
 20
12823.182745
 30
0.0
 11
49718.611599
 21
12823.182745
 31
0.0
  0
LINE
  8
12
  6
CONTINUOUS
 62
     4
  5
228
 10
49715.611609
 20
12823.182745
 30
0.0
 11
49715.611609
 21
12831.682705
 31
0.0
  0
ARC
  8
12
  6
CONTINUOUS
 62
     4
  5
229
 10
49724.142859
 20
12827.432725
 30
0.0
 40
9.53134
 50
153.51896
 51
206.48104
  0
LINE
  8
12
  6
CONTINUOUS
 62
     4
  5
22A
 10
49718.611599
 20
12828.832725
 30
0.0
 11
49749.611589
 21
12828.832725
 31
0.0
  0
LINE
  8
12
  6
CONTINUOUS
 62
     4
  5
22B
 10
49718.611599
 20
12826.032725
 30
0.0
 11
49749.611589
 21
12826.032725
 31
0.0
  0
LINE
  8
12
  6
CONTINUOUS
 62
     4
  5
22C
 10
49749.611589
 20
12828.832725
 30
0.0
 11
49749.611589
 21
12826.032725
 31
0.0
  0
LINE
  8
12
  6
CONTINUOUS
 62
     4
  5
22D
 10
49756.611589
 20
12827.432725
 30
0.0
 11
49749.611589
 21
12826.032725
 31
0.0
  0
LINE
  8
12
  6
CONTINUOUS
 62
     4
  5
22E
 10
49756.611589
 20
12827.432725
 30
0.0
 11
49749.611589
 21
12828.832725
 31
0.0
  0
LINE
  8
12
  6
CENTER
 62
     4
  5
22F
 10
49715.611609
 20
12827.432725
 30
0.0
 11
49756.611589
 21
12827.432725
 31
0.0
  0
LINE
  8
12
  6
CENTER
 62
     4
  5
230
 10
49756.611589
 20
12827.432725
 30
0.0
 11
49717.104569
 21
12827.432725
 31
0.0
  0
LINE
  8
12
  6
CONTINUOUS
 62
     4
  5
231
 10
49718.611599
 20
12892.304525
 30
0.0
 11
49718.611599
 21
12883.804425
 31
0.0
  0
LINE
  8
12
  6
CONTINUOUS
 62
     4
  5
232
 10
49718.611599
 20
12883.804425
 30
0.0
 11
49715.611609
 21
12883.804425
 31
0.0
  0
LINE
  8
12
  6
CONTINUOUS
 62
     4
  5
233
 10
49718.611599
 20
12892.304525
 30
0.0
 11
49715.611609
 21
12892.304525
 31
0.0
  0
LINE
  8
12
  6
CONTINUOUS
 62
     4
  5
234
 10
49715.611609
 20
12892.304525
 30
0.0
 11
49718.611599
 21
12892.304525
 31
0.0
  0
LINE
  8
12
  6
CONTINUOUS
 62
     4
  5
235
 10
49715.611609
 20
12883.804425
 30
0.0
 11
49718.611599
 21
12883.804425
 31
0.0
  0
LINE
  8
12
  6
CONTINUOUS
 62
     4
  5
236
 10
49715.611609
 20
12883.804425
 30
0.0
 11
49715.611609
 21
12892.304525
 31
0.0
  0
ARC
  8
12
  6
CONTINUOUS
 62
     4
  5
237
 10
49724.142859
 20
12888.054545
 30
0.0
 40
9.53134
 50
153.51896
 51
206.48104
  0
LINE
  8
12
  6
CONTINUOUS
 62
     4
  5
238
 10
49718.611599
 20
12889.454545
 30
0.0
 11
49749.611589
 21
12889.454545
 31
0.0
  0
LINE
  8
12
  6
CONTINUOUS
 62
     4
  5
239
 10
49718.611599
 20
12886.654545
 30
0.0
 11
49749.611589
 21
12886.654545
 31
0.0
  0
LINE
  8
12
  6
CONTINUOUS
 62
     4
  5
23A
 10
49749.611589
 20
12889.454545
 30
0.0
 11
49749.611589
 21
12886.654545
 31
0.0
  0
LINE
  8
12
  6
CONTINUOUS
 62
     4
  5
23B
 10
49756.611589
 20
12888.054545
 30
0.0
 11
49749.611589
 21
12886.654545
 31
0.0
  0
LINE
  8
12
  6
CONTINUOUS
 62
     4
  5
23C
 10
49756.611589
 20
12888.054545
 30
0.0
 11
49749.611589
 21
12889.454545
 31
0.0
  0
LINE
  8
12
  6
CENTER
 62
     4
  5
23D
 10
49715.611609
 20
12888.054545
 30
0.0
 11
49756.611589
 21
12888.054545
 31
0.0
  0
LINE
  8
12
  6
CENTER
 62
     4
  5
23E
 10
49756.611589
 20
12888.054545
 30
0.0
 11
49717.104569
 21
12888.054545
 31
0.0
  0
LINE
  8
12
  6
CONTINUOUS
 62
     4
  5
23F
 10
49718.858839
 20
12833.141225
 30
0.0
 11
49718.858839
 21
12821.641205
 31
0.0
  0
LINE
  8
12
  6
CONTINUOUS
 62
     4
  5
240
 10
49719.658729
 20
12833.141225
 30
0.0
 11
49719.658729
 21
12821.641205
 31
0.0
  0
LINE
  8
12
  6
CONTINUOUS
 62
     4
  5
241
 10
49718.858839
 20
12833.141225
 30
0.0
 11
49719.658729
 21
12833.141225
 31
0.0
  0
LINE
  8
12
  6
CONTINUOUS
 62
     4
  5
242
 10
49718.858839
 20
12830.141305
 30
0.0
 11
49719.658729
 21
12830.141305
 31
0.0
  0
LINE
  8
12
  6
CONTINUOUS
 62
     4
  5
243
 10
49718.858839
 20
12824.641265
 30
0.0
 11
49719.658729
 21
12824.641265
 31
0.0
  0
LINE
  8
12
  6
CONTINUOUS
 62
     4
  5
244
 10
49718.858839
 20
12821.641205
 30
0.0
 11
49719.658729
 21
12821.641205
 31
0.0
  0
LINE
  8
12
  6
CONTINUOUS
 62
     4
  5
245
 10
49718.858839
 20
12893.759405
 30
0.0
 11
49718.858839
 21
12882.259385
 31
0.0
  0
LINE
  8
12
  6
CONTINUOUS
 62
     4
  5
246
 10
49719.658729
 20
12893.759405
 30
0.0
 11
49719.658729
 21
12882.259385
 31
0.0
  0
LINE
  8
12
  6
CONTINUOUS
 62
     4
  5
247
 10
49718.858839
 20
12893.759405
 30
0.0
 11
49719.658729
 21
12893.759405
 31
0.0
  0
LINE
  8
12
  6
CONTINUOUS
 62
     4
  5
248
 10
49718.858839
 20
12890.759345
 30
0.0
 11
49719.658729
 21
12890.759345
 31
0.0
  0
LINE
  8
12
  6
CONTINUOUS
 62
     4
  5
249
 10
49718.858839
 20
12885.259305
 30
0.0
 11
49719.658729
 21
12885.259305
 31
0.0
  0
LINE
  8
12
  6
CONTINUOUS
 62
     4
  5
24A
 10
49718.858839
 20
12882.259385
 30
0.0
 11
49719.658729
 21
12882.259385
 31
0.0
  0
LINE
  8
8
  6
CONTINUOUS
 62
     4
  5
24B
 10
49705.404979
 20
12874.744045
 30
0.0
 11
49712.242509
 21
12901.239605
 31
0.0
  0
LINE
  8
8
  6
CONTINUOUS
 62
     4
  5
24C
 10
49705.374529
 20
12840.931805
 30
0.0
 11
49712.272889
 21
12814.200765
 31
0.0
  0
ARC
  8
8
  6
CONTINUOUS
 62
     4
  5
24D
 10
49701.575629
 20
12839.775825
 30
0.0
 40
4.00008
 50
14.470294
 51
90.0
  0
LINE
  8
50
  6
CENTER
 62
     4
  5
24E
 10
49718.858839
 20
12827.391285
 30
0.0
 11
49720.980819
 21
12827.391285
 31
0.0
  0
LINE
  8
50
  6
CENTER
 62
     4
  5
24F
 10
49718.858839
 20
12888.009325
 30
0.0
 11
49720.980819
 21
12888.009325
 31
0.0
  0
ARC
  8
8
  6
CONTINUOUS
 62
     4
  5
250
 10
49701.524739
 20
12875.738045
 30
0.0
 40
4.00008
 50
270.0
 51
345.529706
  0
LINE
  8
40
  6
DOT
 62
     3
  5
251
 10
49668.611369
 20
12434.476978
 30
0.0
 11
49668.611369
 21
12419.476958
 31
0.0
  0
LINE
  8
40
  6
DOT
 62
     3
  5
252
 10
49668.611369
 20
12434.476978
 30
0.0
 11
49674.611489
 21
12434.476978
 31
0.0
  0
LINE
  8
40
  6
DOT
 62
     3
  5
253
 10
49668.611369
 20
12419.476958
 30
0.0
 11
49674.611489
 21
12419.476958
 31
0.0
  0
LINE
  8
40
  6
CONTINUOUS
 62
     4
  5
254
 10
49674.611349
 20
12412.977038
 30
0.0
 11
49697.195682
 21
12412.977038
 31
0.0
  0
LINE
  8
40
  6
CONTINUOUS
 62
     4
  5
255
 10
49674.611349
 20
12440.977038
 30
0.0
 11
49697.195682
 21
12440.977038
 31
0.0
  0
LINE
  8
40
  6
CONTINUOUS
 62
     4
  5
256
 10
49674.611489
 20
12412.977038
 30
0.0
 11
49674.611489
 21
12440.977038
 31
0.0
  0
LINE
  8
40
  6
DOT
 62
     3
  5
257
 10
49668.611369
 20
12850.243625
 30
0.0
 11
49668.611369
 21
12865.243645
 31
0.0
  0
LINE
  8
40
  6
DOT
 62
     3
  5
258
 10
49668.611369
 20
12850.243625
 30
0.0
 11
49674.611489
 21
12850.243625
 31
0.0
  0
LINE
  8
40
  6
DOT
 62
     3
  5
259
 10
49668.611369
 20
12865.243645
 30
0.0
 11
49674.611489
 21
12865.243645
 31
0.0
  0
LINE
  8
40
  6
CONTINUOUS
 62
     4
  5
25A
 10
49674.611349
 20
12843.743565
 30
0.0
 11
49697.195682
 21
12843.743565
 31
0.0
  0
LINE
  8
7
  6
CONTINUOUS
 62
     4
  5
25B
 10
49704.661559
 20
12871.743565
 30
0.0
 11
49674.611349
 21
12871.743565
 31
0.0
  0
LINE
  8
7
  6
CONTINUOUS
 62
     4
  5
25C
 10
49649.569508
 20
12871.743565
 30
0.0
 11
49649.569508
 21
12412.977038
 31
0.0
  0
ARC
  8
7
  6
CONTINUOUS
 62
     4
  5
25D
 10
49659.586245
 20
12871.743565
 30
0.0
 40
10.016736
 50
90.0
 51
180.0
  0
LINE
  8
7
  6
CONTINUOUS
 62
     4
  5
25E
 10
49659.586245
 20
12881.760302
 30
0.0
 11
49674.611349
 21
12881.760302
 31
0.0
  0
LINE
  8
40
  6
CONTINUOUS
 62
     4
  5
25F
 10
49674.611349
 20
12871.743565
 30
0.0
 11
49697.195682
 21
12871.743565
 31
0.0
  0
LINE
  8
40
  6
CONTINUOUS
 62
     4
  5
260
 10
49674.611489
 20
12871.743565
 30
0.0
 11
49674.611489
 21
12843.743565
 31
0.0
  0
LINE
  8
7
  6
CONTINUOUS
 62
     4
  5
261
 10
49659.586245
 20
12402.960302
 30
0.0
 11
49674.611349
 21
12402.960302
 31
0.0
  0
LINE
  8
7
  6
CONTINUOUS
 62
     4
  5
262
 10
49674.611349
 20
12881.760302
 30
0.0
 11
49674.611349
 21
12402.960302
 31
0.0
  0
ARC
  8
7
  6
CONTINUOUS
 62
     4
  5
263
 10
49659.586245
 20
12412.977038
 30
0.0
 40
10.016736
 50
180.0
 51
270.0
  0
TEXT
  8
8
  6
CONTINUOUS
 62
     2
  5
264
 10
49573.702479
 20
11677.423615
 30
0.0
 40
90.0
  1
引戸
 50
360.0
 41
0.837
  7

 72
     5
 11
49753.702479
 21
11677.423615
 31
0.0
  0
LINE
  8
1
  6
CONTINUOUS
 62
     6
  5
265
 10
48185.591763
 20
12873.766302
 30
0.0
 11
48185.437763
 21
12875.522302
 31
0.0
  0
LINE
  8
1
  6
CONTINUOUS
 62
     6
  5
266
 10
48354.055763
 20
12455.799302
 30
0.0
 11
48354.013763
 21
12454.035302
 31
0.0
  0
LINE
  8
1
  6
CONTINUOUS
 62
     6
  5
267
 10
48515.039763
 20
12458.570302
 30
0.0
 11
48515.146763
 21
12456.800302
 31
0.0
  0
LINE
  8
1
  6
CONTINUOUS
 62
     6
  5
268
 10
48201.527763
 20
12463.575302
 30
0.0
 11
48201.373763
 21
12461.818302
 31
0.0
  0
LINE
  8
1
  6
CONTINUOUS
 62
     6
  5
269
 10
48318.560763
 20
12881.983302
 30
0.0
 11
48318.507763
 21
12883.746302
 31
0.0
  0
LINE
  8
1
  6
CONTINUOUS
 62
     6
  5
26A
 10
48529.967763
 20
12905.828302
 30
0.0
 11
48531.732763
 21
12905.986302
 31
0.0
  0
LINE
  8
1
  6
CONTINUOUS
 62
     6
  5
26B
 10
48330.057763
 20
12847.127302
 30
0.0
 11
48336.229763
 21
12847.127302
 31
0.0
  0
LINE
  8
1
  6
CONTINUOUS
 62
     6
  5
26C
 10
48329.056763
 20
12855.859302
 30
0.0
 11
48330.057763
 21
12847.127302
 31
0.0
  0
LINE
  8
1
  6
CONTINUOUS
 62
     6
  5
26D
 10
48336.229763
 20
12491.599302
 30
0.0
 11
48330.057763
 21
12491.599302
 31
0.0
  0
LINE
  8
1
  6
CONTINUOUS
 62
     6
  5
26E
 10
48330.057763
 20
12491.599302
 30
0.0
 11
48329.056763
 21
12482.857302
 31
0.0
  0
LINE
  8
1
  6
CONTINUOUS
 62
     6
  5
26F
 10
48142.358763
 20
12560.259302
 30
0.0
 11
48142.358763
 21
12778.460302
 31
0.0
  0
LINE
  8
1
  6
CONTINUOUS
 62
     6
  5
270
 10
48573.584763
 20
12463.323302
 30
0.0
 11
48575.868763
 21
12443.305302
 31
0.0
  0
LINE
  8
1
  6
CONTINUOUS
 62
     6
  5
271
 10
48493.986763
 20
12447.785302
 30
0.0
 11
48575.357763
 21
12447.785302
 31
0.0
  0
LINE
  8
1
  6
CONTINUOUS
 62
     6
  5
272
 10
48493.986763
 20
12440.184302
 30
0.0
 11
48577.187763
 21
12440.184302
 31
0.0
  0
LINE
  8
1
  6
CONTINUOUS
 62
     6
  5
273
 10
48334.502763
 20
12884.229302
 30
0.0
 11
48334.552763
 21
12882.465302
 31
0.0
  0
LINE
  8
1
  6
CONTINUOUS
 62
     6
  5
274
 10
48201.373763
 20
12876.898302
 30
0.0
 11
48201.527763
 21
12875.141302
 31
0.0
  0
LINE
  8
1
  6
CONTINUOUS
 62
     6
  5
275
 10
48499.176763
 20
12455.841302
 30
0.0
 11
48499.068763
 21
12457.611302
 31
0.0
  0
LINE
  8
1
  6
CONTINUOUS
 62
     6
  5
276
 10
48338.022763
 20
12454.392302
 30
0.0
 11
48338.059763
 21
12456.156302
 31
0.0
  0
LINE
  8
1
  6
CONTINUOUS
 62
     6
  5
277
 10
48185.437763
 20
12463.197302
 30
0.0
 11
48185.591763
 21
12464.953302
 31
0.0
  0
LINE
  8
1
  6
CONTINUOUS
 62
     6
  5
278
 10
48531.431763
 20
12889.891302
 30
0.0
 11
48531.674763
 21
12887.284302
 31
0.0
  0
LINE
  8
1
  6
CONTINUOUS
 62
     6
  5
279
 10
48533.195763
 20
12890.056302
 30
0.0
 11
48531.431763
 21
12889.891302
 31
0.0
  0
LINE
  8
1
  6
CONTINUOUS
 62
     6
  5
27A
 10
48383.292763
 20
12924.726302
 30
0.0
 11
48517.918763
 21
12921.202302
 31
0.0
  0
LINE
  8
1
  6
CONTINUOUS
 62
     6
  5
27B
 10
48506.215763
 20
12907.501302
 30
0.0
 11
48394.254763
 21
12910.434302
 31
0.0
  0
LINE
  8
1
  6
CONTINUOUS
 62
     6
  5
27C
 10
48393.733763
 20
12890.444302
 30
0.0
 11
48505.694763
 21
12887.512302
 31
0.0
  0
LINE
  8
1
  6
CONTINUOUS
 62
     6
  5
27D
 10
48529.552763
 20
12910.304302
 30
0.0
 11
48529.967763
 21
12905.828302
 31
0.0
  0
LINE
  8
1
  6
CONTINUOUS
 62
     6
  5
27E
 10
48468.272763
 20
12797.239302
 30
0.0
 11
48468.545763
 21
12801.599302
 31
0.0
  0
LINE
  8
1
  6
CONTINUOUS
 62
     6
  5
27F
 10
48470.471763
 20
12803.475302
 30
0.0
 11
48517.727763
 21
12805.063302
 31
0.0
  0
LINE
  8
1
  6
CONTINUOUS
 62
     6
  5
280
 10
48546.024763
 20
12868.152302
 30
0.0
 11
48524.978763
 21
12810.327302
 31
0.0
  0
LINE
  8
1
  6
CONTINUOUS
 62
     6
  5
281
 10
48548.745763
 20
12871.236302
 30
0.0
 11
48526.469763
 21
12810.036302
 31
0.0
  0
LINE
  8
1
  6
CONTINUOUS
 62
     6
  5
282
 10
48466.279763
 20
12795.363302
 30
0.0
 11
48460.055763
 21
12795.363302
 31
0.0
  0
LINE
  8
1
  6
CONTINUOUS
 62
     6
  5
283
 10
48468.545763
 20
12537.127302
 30
0.0
 11
48468.272763
 21
12541.488302
 31
0.0
  0
LINE
  8
1
  6
CONTINUOUS
 62
     6
  5
284
 10
48517.727763
 20
12533.656302
 30
0.0
 11
48470.471763
 21
12535.251302
 31
0.0
  0
LINE
  8
1
  6
CONTINUOUS
 62
     6
  5
285
 10
48524.978763
 20
12528.392302
 30
0.0
 11
48546.024763
 21
12470.567302
 31
0.0
  0
LINE
  8
1
  6
CONTINUOUS
 62
     6
  5
286
 10
48132.055763
 20
12525.264302
 30
0.0
 11
48132.055763
 21
12813.455302
 31
0.0
  0
LINE
  8
1
  6
CONTINUOUS
 62
     6
  5
287
 10
48526.469763
 20
12528.679302
 30
0.0
 11
48548.745763
 21
12467.480302
 31
0.0
  0
LINE
  8
1
  6
CONTINUOUS
 62
     6
  5
288
 10
48458.055763
 20
12545.358302
 30
0.0
 11
48458.055763
 21
12793.358302
 31
0.0
  0
LINE
  8
1
  6
CONTINUOUS
 62
     6
  5
289
 10
48460.055763
 20
12543.363302
 30
0.0
 11
48466.279763
 21
12543.363302
 31
0.0
  0
LINE
  8
1
  6
CONTINUOUS
 62
     6
  5
28A
 10
48402.460763
 20
12455.358302
 30
0.0
 11
48416.943763
 21
12455.358302
 31
0.0
  0
LINE
  8
1
  6
CONTINUOUS
 62
     6
  5
28B
 10
48367.777763
 20
12891.557302
 30
0.0
 11
48371.098763
 21
12914.451302
 31
0.0
  0
LINE
  8
1
  6
CONTINUOUS
 62
     6
  5
28C
 10
48568.517763
 20
12463.099302
 30
0.0
 11
48590.428763
 21
12465.597302
 31
0.0
  0
LINE
  8
1
  6
CONTINUOUS
 62
     6
  5
28D
 10
48492.788763
 20
12787.860302
 30
0.0
 11
48492.788763
 21
12699.357302
 31
0.0
  0
LINE
  8
1
  6
CONTINUOUS
 62
     6
  5
28E
 10
48492.788763
 20
12699.357302
 30
0.0
 11
48492.553763
 21
12699.126302
 31
0.0
  0
LINE
  8
1
  6
CONTINUOUS
 62
     6
  5
28F
 10
48492.553763
 20
12699.126302
 30
0.0
 11
48492.553763
 21
12639.593302
 31
0.0
  0
LINE
  8
1
  6
CONTINUOUS
 62
     6
  5
290
 10
48492.788763
 20
12787.860302
 30
0.0
 11
48489.556763
 21
12787.860302
 31
0.0
  0
LINE
  8
1
  6
CONTINUOUS
 62
     6
  5
291
 10
48488.058763
 20
12789.358302
 30
0.0
 11
48488.058763
 21
12801.858302
 31
0.0
  0
LINE
  8
1
  6
CONTINUOUS
 62
     6
  5
292
 10
48525.456763
 20
12803.363302
 30
0.0
 11
48489.556763
 21
12803.363302
 31
0.0
  0
LINE
  8
1
  6
CONTINUOUS
 62
     6
  5
293
 10
48532.971763
 20
12808.622302
 30
0.0
 11
48555.235763
 21
12869.797302
 31
0.0
  0
LINE
  8
1
  6
CONTINUOUS
 62
     6
  5
294
 10
48492.788763
 20
12639.362302
 30
0.0
 11
48492.788763
 21
12550.859302
 31
0.0
  0
LINE
  8
1
  6
CONTINUOUS
 62
     6
  5
295
 10
48492.553763
 20
12639.593302
 30
0.0
 11
48492.788763
 21
12639.362302
 31
0.0
  0
LINE
  8
1
  6
CONTINUOUS
 62
     6
  5
296
 10
48489.556763
 20
12550.859302
 30
0.0
 11
48492.788763
 21
12550.859302
 31
0.0
  0
LINE
  8
1
  6
CONTINUOUS
 62
     6
  5
297
 10
48488.058763
 20
12536.858302
 30
0.0
 11
48488.058763
 21
12549.361302
 31
0.0
  0
LINE
  8
1
  6
CONTINUOUS
 62
     6
  5
298
 10
48489.556763
 20
12535.363302
 30
0.0
 11
48525.456763
 21
12535.363302
 31
0.0
  0
LINE
  8
1
  6
CONTINUOUS
 62
     6
  5
299
 10
48555.235763
 20
12468.929302
 30
0.0
 11
48532.971763
 21
12530.093302
 31
0.0
  0
LINE
  8
1
  6
CONTINUOUS
 62
     6
  5
29A
 10
48585.521763
 20
12464.610302
 30
0.0
 11
48587.794763
 21
12444.663302
 31
0.0
  0
LINE
  8
1
  6
CONTINUOUS
 62
     6
  5
29B
 10
48585.521763
 20
12464.610302
 30
0.0
 11
48573.591763
 21
12463.323302
 31
0.0
  0
LINE
  8
1
  6
CONTINUOUS
 62
     6
  5
29C
 10
48334.552763
 20
12882.465302
 30
0.0
 11
48358.055763
 21
12882.997302
 31
0.0
  0
LINE
  8
1
  6
CONTINUOUS
 62
     6
  5
29D
 10
48162.809763
 20
12871.614302
 30
0.0
 11
48185.591763
 21
12873.766302
 31
0.0
  0
LINE
  8
1
  6
CONTINUOUS
 62
     6
  5
29E
 10
48185.591763
 20
12464.953302
 30
0.0
 11
48162.809763
 21
12467.106302
 31
0.0
  0
LINE
  8
1
  6
CONTINUOUS
 62
     6
  5
29F
 10
48358.619763
 20
12455.715302
 30
0.0
 11
48354.055763
 21
12455.799302
 31
0.0
  0
LINE
  8
1
  6
CONTINUOUS
 62
     6
  5
2A0
 10
48540.803763
 20
12878.235302
 30
0.0
 11
48544.470763
 21
12877.930302
 31
0.0
  0
LINE
  8
1
  6
CONTINUOUS
 62
     6
  5
2A1
 10
48556.589763
 20
12466.556302
 30
0.0
 11
48549.041763
 21
12465.989302
 31
0.0
  0
LINE
  8
1
  6
CONTINUOUS
 62
     6
  5
2A2
 10
48552.582763
 20
12872.471302
 30
0.0
 11
48556.589763
 21
12872.156302
 31
0.0
  0
LINE
  8
1
  6
CONTINUOUS
 62
     6
  5
2A3
 10
48549.041763
 20
12872.730302
 30
0.0
 11
48552.582763
 21
12872.471302
 31
0.0
  0
LINE
  8
1
  6
CONTINUOUS
 62
     6
  5
2A4
 10
48563.529763
 20
12875.019302
 30
0.0
 11
48585.338763
 21
12872.737302
 31
0.0
  0
LINE
  8
1
  6
CONTINUOUS
 62
     6
  5
2A5
 10
48564.991763
 20
12876.264302
 30
0.0
 11
48585.289763
 21
12874.133302
 31
0.0
  0
LINE
  8
1
  6
CONTINUOUS
 62
     6
  5
2A6
 10
48585.338763
 20
12465.989302
 30
0.0
 11
48563.529763
 21
12463.701302
 31
0.0
  0
LINE
  8
1
  6
CONTINUOUS
 62
     6
  5
2A7
 10
48573.591763
 20
12463.323302
 30
0.0
 11
48564.991763
 21
12462.451302
 31
0.0
  0
ARC
  8
1
  6
CONTINUOUS
 62
     6
  5
2A8
 10
48888.192763
 20
12669.360302
 30
0.0
 40
700.66453
 50
178.691818
 51
181.308197
  0
ARC
  8
1
  6
CONTINUOUS
 62
     6
  5
2A9
 10
48792.053763
 20
12669.360302
 30
0.0
 40
129.99997
 50
304.77038
 51
55.22962
  0
ARC
  8
1
  6
CONTINUOUS
 62
     6
  5
2AA
 10
48333.688763
 20
12721.124302
 30
0.0
 40
199.99999
 50
141.883483
 51
162.809082
  0
ARC
  8
1
  6
CONTINUOUS
 62
     6
  5
2AB
 10
48336.229763
 20
12836.125302
 30
0.0
 40
11.0
 50
12.20213
 51
90.0
  0
ARC
  8
1
  6
CONTINUOUS
 62
     6
  5
2AC
 10
47550.059763
 20
12669.360302
 30
0.0
 40
799.99998
 50
347.16143
 51
12.83857
  0
ARC
  8
1
  6
CONTINUOUS
 62
     6
  5
2AD
 10
48400.081763
 20
10456.909302
 30
0.0
 40
2399.9999
 50
91.695862
 51
95.249237
  0
ARC
  8
1
  6
CONTINUOUS
 62
     6
  5
2AE
 10
48333.688763
 20
12617.595302
 30
0.0
 40
199.99999
 50
197.19093
 51
218.11653
  0
ARC
  8
1
  6
CONTINUOUS
 62
     6
  5
2AF
 10
47565.058763
 20
12669.360302
 30
0.0
 40
799.99998
 50
347.79788
 51
12.20213
  0
ARC
  8
1
  6
CONTINUOUS
 62
     6
  5
2B0
 10
48336.229763
 20
12502.594302
 30
0.0
 40
11.0
 50
270.0
 51
347.79788
  0
ARC
  8
1
  6
CONTINUOUS
 62
     6
  5
2B1
 10
48400.081763
 20
14881.810302
 30
0.0
 40
2399.9999
 50
264.75077
 51
268.30415
  0
ARC
  8
1
  6
CONTINUOUS
 62
     6
  5
2B2
 10
48547.354763
 20
12669.360302
 30
0.0
 40
359.99995
 50
162.38858
 51
177.453262
  0
ARC
  8
1
  6
CONTINUOUS
 62
     6
  5
2B3
 10
48251.885763
 20
12763.153302
 30
0.0
 40
49.999999
 50
93.676681
 51
162.38858
  0
ARC
  8
1
  6
CONTINUOUS
 62
     6
  5
2B4
 10
48400.081763
 20
10456.909302
 30
0.0
 40
2360.9981
 50
92.431244
 51
93.676681
  0
ARC
  8
1
  6
CONTINUOUS
 62
     6
  5
2B5
 10
48301.199763
 20
12785.809302
 30
0.0
 40
30.0
 50
8.69857
 51
92.431244
  0
ARC
  8
1
  6
CONTINUOUS
 62
     6
  5
2B6
 10
47540.058763
 20
12669.360302
 30
0.0
 40
799.99998
 50
351.30143
 51
8.69857
  0
ARC
  8
1
  6
CONTINUOUS
 62
     6
  5
2B7
 10
48251.885763
 20
12575.566302
 30
0.0
 40
49.999999
 50
197.61143
 51
266.32333
  0
ARC
  8
1
  6
CONTINUOUS
 62
     6
  5
2B8
 10
48400.081763
 20
14881.810302
 30
0.0
 40
2360.9981
 50
266.32333
 51
267.56877
  0
ARC
  8
1
  6
CONTINUOUS
 62
     6
  5
2B9
 10
48301.199763
 20
12552.906302
 30
0.0
 40
30.0
 50
267.56877
 51
351.30143
  0
ARC
  8
1
  6
CONTINUOUS
 62
     6
  5
2BA
 10
48547.354763
 20
12669.360302
 30
0.0
 40
359.99995
 50
182.546752
 51
197.61143
  0
ARC
  8
1
  6
CONTINUOUS
 62
     6
  5
2BB
 10
48380.555763
 20
12457.380302
 30
0.0
 40
22.0
 50
180.470779
 51
358.45469
  0
ARC
  8
1
  6
CONTINUOUS
 62
     6
  5
2BC
 10
48493.986763
 20
14008.712302
 30
0.0
 40
1560.9291
 50
266.6018
 51
270.0
  0
ARC
  8
1
  6
CONTINUOUS
 62
     6
  5
2BD
 10
48581.833763
 20
12443.984302
 30
0.0
 40
5.999998
 50
186.5
 51
6.5
  0
ARC
  8
1
  6
CONTINUOUS
 62
     6
  5
2BE
 10
48493.986763
 20
14008.712302
 30
0.0
 40
1568.5291
 50
266.46768
 51
270.0
  0
ARC
  8
1
  6
CONTINUOUS
 62
     6
  5
2BF
 10
48399.965763
 20
10483.358302
 30
0.0
 40
2399.9999
 50
91.943771
 51
94.742752
  0
ARC
  8
1
  6
CONTINUOUS
 62
     6
  5
2C0
 10
48326.843763
 20
12872.765302
 30
0.0
 40
13.999998
 50
58.00379
 51
125.50177
  0
ARC
  8
1
  6
CONTINUOUS
 62
     6
  5
2C1
 10
48194.374763
 20
12865.027302
 30
0.0
 40
13.999998
 50
61.18475
 51
128.682739
  0
ARC
  8
1
  6
CONTINUOUS
 62
     6
  5
2C2
 10
48416.943763
 20
13955.359302
 30
0.0
 40
1499.9998
 50
273.74977
 51
274.8771
  0
ARC
  8
1
  6
CONTINUOUS
 62
     6
  5
2C3
 10
48506.487763
 20
12467.526302
 30
0.0
 40
13.999998
 50
239.6952
 51
307.19317
  0
ARC
  8
1
  6
CONTINUOUS
 62
     6
  5
2C4
 10
48346.269763
 20
12465.436302
 30
0.0
 40
13.999998
 50
234.96394
 51
302.46191
  0
ARC
  8
1
  6
CONTINUOUS
 62
     6
  5
2C5
 10
48399.965763
 20
14855.362302
 30
0.0
 40
2399.9999
 50
265.25726
 51
268.52194
  0
ARC
  8
1
  6
CONTINUOUS
 62
     6
  5
2C6
 10
48194.374763
 20
12473.688302
 30
0.0
 40
13.999998
 50
231.31727
 51
298.81526
  0
ARC
  8
1
  6
CONTINUOUS
 62
     6
  5
2C7
 10
48521.288763
 20
12896.995302
 30
0.0
 40
13.999998
 50
331.51353
 51
39.0115
  0
ARC
  8
1
  6
CONTINUOUS
 62
     6
  5
2C8
 10
48505.955763
 20
12897.506302
 30
0.0
 40
10.0
 50
268.5
 51
88.5
  0
ARC
  8
1
  6
CONTINUOUS
 62
     6
  5
2C9
 10
48393.992763
 20
12900.439302
 30
0.0
 40
10.0
 50
88.5
 51
268.5
  0
ARC
  8
1
  6
CONTINUOUS
 62
     6
  5
2CA
 10
48424.381763
 20
12773.435302
 30
0.0
 40
108.13588
 50
102.737808
 51
135.976776
  0
ARC
  8
1
  6
CONTINUOUS
 62
     6
  5
2CB
 10
48416.943763
 20
11383.358302
 30
0.0
 40
1496.7
 50
85.21687
 51
90.246277
  0
ARC
  8
1
  6
CONTINUOUS
 62
     6
  5
2CC
 10
48410.705763
 20
12833.938302
 30
0.0
 40
46.107687
 50
90.246277
 51
102.737808
  0
ARC
  8
1
  6
CONTINUOUS
 62
     6
  5
2CD
 10
46820.055763
 20
12669.360302
 30
0.0
 40
1599.9999
 50
352.9958
 51
7.00421
  0
ARC
  8
1
  6
CONTINUOUS
 62
     6
  5
2CE
 10
48541.328763
 20
12869.867302
 30
0.0
 40
5.0
 50
340.0
 51
85.21687
  0
ARC
  8
1
  6
CONTINUOUS
 62
     6
  5
2CF
 10
48517.461763
 20
12813.060302
 30
0.0
 40
7.999999
 50
271.93232
 51
340.0
  0
ARC
  8
1
  6
CONTINUOUS
 62
     6
  5
2D0
 10
48323.280763
 20
12755.759302
 30
0.0
 40
199.99999
 50
145.500198
 51
162.699127
  0
ARC
  8
1
  6
CONTINUOUS
 62
     6
  5
2D1
 10
48424.381763
 20
12565.284302
 30
0.0
 40
108.13588
 50
224.02323
 51
257.2622
  0
ARC
  8
1
  6
CONTINUOUS
 62
     6
  5
2D2
 10
48416.943763
 20
13955.359302
 30
0.0
 40
1496.7
 50
269.75373
 51
274.78314
  0
ARC
  8
1
  6
CONTINUOUS
 62
     6
  5
2D3
 10
48410.705763
 20
12504.785302
 30
0.0
 40
46.107687
 50
257.2622
 51
269.75373
  0
ARC
  8
1
  6
CONTINUOUS
 62
     6
  5
2D4
 10
48541.328763
 20
12468.852302
 30
0.0
 40
5.0
 50
274.78314
 51
20.0
  0
ARC
  8
1
  6
CONTINUOUS
 62
     6
  5
2D5
 10
48517.461763
 20
12525.656302
 30
0.0
 40
7.999999
 50
20.0
 51
88.06768
  0
ARC
  8
1
  6
CONTINUOUS
 62
     6
  5
2D6
 10
48416.943763
 20
13955.359302
 30
0.0
 40
1499.9998
 50
270.0
 51
273.13861
  0
ARC
  8
1
  6
CONTINUOUS
 62
     6
  5
2D7
 10
48323.280763
 20
12582.957302
 30
0.0
 40
199.99999
 50
197.30088
 51
214.49981
  0
ARC
  8
1
  6
CONTINUOUS
 62
     6
  5
2D8
 10
48378.580763
 20
12246.619302
 30
0.0
 40
211.98525
 50
83.62876
 51
95.296722
  0
ARC
  8
1
  6
CONTINUOUS
 62
     6
  5
2D9
 10
48357.880763
 20
12892.992302
 30
0.0
 40
10.0
 50
271.00056
 51
351.7478
  0
ARC
  8
1
  6
CONTINUOUS
 62
     6
  5
2DA
 10
48541.630763
 20
12888.205302
 30
0.0
 40
10.0
 50
185.262527
 51
265.26338
  0
ARC
  8
1
  6
CONTINUOUS
 62
     6
  5
2DB
 10
48474.027763
 20
13458.379302
 30
0.0
 40
999.99992
 50
276.40151
 51
280.54869
  0
ARC
  8
1
  6
CONTINUOUS
 62
     6
  5
2DC
 10
48590.590763
 20
12464.163302
 30
0.0
 40
1.442241
 50
51.91355
 51
96.5
  0
ARC
  8
1
  6
CONTINUOUS
 62
     6
  5
2DD
 10
48568.710763
 20
12461.426302
 30
0.0
 40
1.687318
 50
96.5
 51
130.131362
  0
ARC
  8
1
  6
CONTINUOUS
 62
     6
  5
2DE
 10
48473.752763
 20
11878.975302
 30
0.0
 40
999.99992
 50
79.90357
 51
83.59342
  0
ARC
  8
1
  6
CONTINUOUS
 62
     6
  5
2DF
 10
48554.395763
 20
12331.853302
 30
0.0
 40
539.99997
 50
56.88861
 51
79.90357
  0
ARC
  8
1
  6
CONTINUOUS
 62
     6
  5
2E0
 10
48740.129763
 20
12616.643302
 30
0.0
 40
199.99999
 50
45.43081
 51
56.88861
  0
ARC
  8
1
  6
CONTINUOUS
 62
     6
  5
2E1
 10
48525.456763
 20
12811.363302
 30
0.0
 40
7.999999
 50
270.0
 51
340.0
  0
ARC
  8
1
  6
CONTINUOUS
 62
     6
  5
2E2
 10
48558.237763
 20
12332.567302
 30
0.0
 40
539.99997
 50
55.22962
 51
79.45132
  0
ARC
  8
1
  6
CONTINUOUS
 62
     6
  5
2E3
 10
48474.027763
 20
11880.340302
 30
0.0
 40
999.99992
 50
79.45132
 51
83.61195
  0
ARC
  8
1
  6
CONTINUOUS
 62
     6
  5
2E4
 10
48473.752763
 20
13459.740302
 30
0.0
 40
999.99992
 50
276.40658
 51
280.09643
  0
ARC
  8
1
  6
CONTINUOUS
 62
     6
  5
2E5
 10
48554.395763
 20
13006.862302
 30
0.0
 40
539.99997
 50
280.09643
 51
303.1114
  0
ARC
  8
1
  6
CONTINUOUS
 62
     6
  5
2E6
 10
48740.129763
 20
12722.076302
 30
0.0
 40
199.99999
 50
303.1114
 51
314.56919
  0
ARC
  8
1
  6
CONTINUOUS
 62
     6
  5
2E7
 10
48792.053763
 20
12669.360302
 30
0.0
 40
125.99998
 50
314.56919
 51
45.43081
  0
ARC
  8
1
  6
CONTINUOUS
 62
     6
  5
2E8
 10
48525.456763
 20
12527.364302
 30
0.0
 40
7.999999
 50
20.0
 51
90.0
  0
ARC
  8
1
  6
CONTINUOUS
 62
     6
  5
2E9
 10
48558.237763
 20
13006.152302
 30
0.0
 40
539.99997
 50
280.54869
 51
304.77038
  0
ARC
  8
1
  6
CONTINUOUS
 62
     6
  5
2EA
 10
48181.062763
 20
12840.870302
 30
0.0
 40
5.999998
 50
95.249237
 51
141.883483
  0
ARC
  8
1
  6
CONTINUOUS
 62
     6
  5
2EB
 10
48148.356763
 20
12778.460302
 30
0.0
 40
5.999998
 50
162.809082
 51
180.0
  0
ARC
  8
1
  6
CONTINUOUS
 62
     6
  5
2EC
 10
48181.062763
 20
12497.849302
 30
0.0
 40
5.999998
 50
218.11653
 51
264.75077
  0
ARC
  8
1
  6
CONTINUOUS
 62
     6
  5
2ED
 10
48148.356763
 20
12560.259302
 30
0.0
 40
5.999998
 50
180.0
 51
197.19093
  0
ARC
  8
1
  6
CONTINUOUS
 62
     6
  5
2EE
 10
48333.999763
 20
12884.215302
 30
0.0
 40
0.5
 50
1.75277
 51
58.00379
  0
ARC
  8
1
  6
CONTINUOUS
 62
     6
  5
2EF
 10
48319.004763
 20
12883.760302
 30
0.0
 40
0.5
 50
125.50177
 51
181.752777
  0
ARC
  8
1
  6
CONTINUOUS
 62
     6
  5
2F0
 10
48200.877763
 20
12876.856302
 30
0.0
 40
0.5
 50
4.93374
 51
61.18475
  0
ARC
  8
1
  6
CONTINUOUS
 62
     6
  5
2F1
 10
48185.934763
 20
12875.564302
 30
0.0
 40
0.5
 50
128.682739
 51
184.933746
  0
ARC
  8
1
  6
CONTINUOUS
 62
     6
  5
2F2
 10
48514.647763
 20
12456.772302
 30
0.0
 40
0.5
 50
307.19317
 51
3.44419
  0
ARC
  8
1
  6
CONTINUOUS
 62
     6
  5
2F3
 10
48499.678763
 20
12455.869302
 30
0.0
 40
0.5
 50
183.444198
 51
239.6952
  0
ARC
  8
1
  6
CONTINUOUS
 62
     6
  5
2F4
 10
48353.516763
 20
12454.049302
 30
0.0
 40
0.5
 50
302.46191
 51
358.71292
  0
ARC
  8
1
  6
CONTINUOUS
 62
     6
  5
2F5
 10
48338.519763
 20
12454.385302
 30
0.0
 40
0.5
 50
178.712921
 51
234.96394
  0
ARC
  8
1
  6
CONTINUOUS
 62
     6
  5
2F6
 10
48200.877763
 20
12461.860302
 30
0.0
 40
0.5
 50
298.81526
 51
355.06626
  0
ARC
  8
1
  6
CONTINUOUS
 62
     6
  5
2F7
 10
48185.934763
 20
12463.155302
 30
0.0
 40
0.5
 50
175.066268
 51
231.31727
  0
ARC
  8
1
  6
CONTINUOUS
 62
     6
  5
2F8
 10
48533.153763
 20
12890.553302
 30
0.0
 40
0.5
 50
275.26252
 51
331.51353
  0
ARC
  8
1
  6
CONTINUOUS
 62
     6
  5
2F9
 10
48531.774763
 20
12905.492302
 30
0.0
 40
0.5
 50
39.0115
 51
95.262527
  0
ARC
  8
1
  6
CONTINUOUS
 62
     6
  5
2FA
 10
48517.601763
 20
12909.205302
 30
0.0
 40
11.999996
 50
5.26252
 51
88.5
  0
ARC
  8
1
  6
CONTINUOUS
 62
     6
  5
2FB
 10
48382.975763
 20
12912.729302
 30
0.0
 40
11.999996
 50
88.5
 51
171.747802
  0
ARC
  8
1
  6
CONTINUOUS
 62
     6
  5
2FC
 10
48470.540763
 20
12801.473302
 30
0.0
 40
2.0
 50
91.932327
 51
176.445831
  0
ARC
  8
1
  6
CONTINUOUS
 62
     6
  5
2FD
 10
48460.055763
 20
12793.358302
 30
0.0
 40
2.0
 50
90.0
 51
180.0
  0
ARC
  8
1
  6
CONTINUOUS
 62
     6
  5
2FE
 10
48466.279763
 20
12797.357302
 30
0.0
 40
2.0
 50
270.0
 51
356.44583
  0
ARC
  8
1
  6
CONTINUOUS
 62
     6
  5
2FF
 10
48564.055763
 20
12796.357302
 30
0.0
 40
39.999999
 50
160.0
 51
169.91687
  0
ARC
  8
1
  6
CONTINUOUS
 62
     6
  5
300
 10
48544.043763
 20
12872.947302
 30
0.0
 40
5.0
 50
340.0
 51
85.1229
  0
ARC
  8
1
  6
CONTINUOUS
 62
     6
  5
301
 10
48163.397763
 20
12865.640302
 30
0.0
 40
5.999998
 50
95.671036
 51
145.500198
  0
ARC
  8
1
  6
CONTINUOUS
 62
     6
  5
302
 10
48138.053763
 20
12813.455302
 30
0.0
 40
5.999998
 50
162.699127
 51
180.0
  0
ARC
  8
1
  6
CONTINUOUS
 62
     6
  5
303
 10
48470.540763
 20
12537.246302
 30
0.0
 40
2.0
 50
183.554183
 51
268.06768
  0
ARC
  8
1
  6
CONTINUOUS
 62
     6
  5
304
 10
48460.055763
 20
12545.358302
 30
0.0
 40
2.0
 50
180.0
 51
270.0
  0
ARC
  8
1
  6
CONTINUOUS
 62
     6
  5
305
 10
48466.279763
 20
12541.362302
 30
0.0
 40
2.0
 50
3.55418
 51
90.0
  0
ARC
  8
1
  6
CONTINUOUS
 62
     6
  5
306
 10
48544.043763
 20
12465.772302
 30
0.0
 40
5.0
 50
274.8771
 51
20.0
  0
ARC
  8
1
  6
CONTINUOUS
 62
     6
  5
307
 10
48163.397763
 20
12473.079302
 30
0.0
 40
5.999998
 50
214.49981
 51
264.32897
  0
ARC
  8
1
  6
CONTINUOUS
 62
     6
  5
308
 10
48138.053763
 20
12525.264302
 30
0.0
 40
5.999998
 50
180.0
 51
197.30088
  0
ARC
  8
1
  6
CONTINUOUS
 62
     6
  5
309
 10
48402.047763
 20
12456.800302
 30
0.0
 40
0.5
 50
358.45469
 51
83.62876
  0
ARC
  8
1
  6
CONTINUOUS
 62
     6
  5
30A
 10
48359.056763
 20
12457.205302
 30
0.0
 40
0.5
 50
95.296722
 51
180.470779
  0
ARC
  8
1
  6
CONTINUOUS
 62
     6
  5
30B
 10
48564.055763
 20
12542.362302
 30
0.0
 40
39.999999
 50
190.08314
 51
200.0
  0
ARC
  8
1
  6
CONTINUOUS
 62
     6
  5
30C
 10
48489.556763
 20
12789.358302
 30
0.0
 40
1.499999
 50
180.0
 51
270.0
  0
ARC
  8
1
  6
CONTINUOUS
 62
     6
  5
30D
 10
48489.556763
 20
12801.858302
 30
0.0
 40
1.499999
 50
90.0
 51
180.0
  0
ARC
  8
1
  6
CONTINUOUS
 62
     6
  5
30E
 10
48564.207763
 20
12868.303302
 30
0.0
 40
7.999999
 50
84.39154
 51
137.474227
  0
ARC
  8
1
  6
CONTINUOUS
 62
     6
  5
30F
 10
48562.753763
 20
12867.061302
 30
0.0
 40
7.999999
 50
84.43093
 51
160.0
  0
ARC
  8
1
  6
CONTINUOUS
 62
     6
  5
310
 10
48489.556763
 20
12549.361302
 30
0.0
 40
1.499999
 50
90.0
 51
180.0
  0
ARC
  8
1
  6
CONTINUOUS
 62
     6
  5
311
 10
48489.556763
 20
12536.858302
 30
0.0
 40
1.499999
 50
180.0
 51
270.0
  0
ARC
  8
1
  6
CONTINUOUS
 62
     6
  5
312
 10
48564.207763
 20
12470.413302
 30
0.0
 40
7.999999
 50
222.52578
 51
275.60847
  0
ARC
  8
1
  6
CONTINUOUS
 62
     6
  5
313
 10
48562.753763
 20
12471.665302
 30
0.0
 40
7.999999
 50
200.0
 51
275.56907
  0
LINE
  8
7
  6
CONTINUOUS
 62
     3
  5
314
 10
49226.569427
 20
13094.410281
 30
0.0
 11
49226.569427
 21
13064.360072
 31
0.0
  0
LINE
  8
40
  6
CONTINUOUS
 62
     4
  5
315
 10
49228.030327
 20
13094.360322
 30
0.0
 11
49197.207787
 21
13094.360322
 31
0.0
  0
LINE
  8
40
  6
CONTINUOUS
 62
     4
  5
316
 10
49190.964347
 20
13096.360292
 30
0.0
 11
49234.245347
 21
13096.360292
 31
0.0
  0
LINE
  8
40
  6
CONTINUOUS
 62
     4
  5
317
 10
49167.569507
 20
13114.360302
 30
0.0
 11
49167.569507
 21
13103.873392
 31
0.0
  0
LINE
  8
40
  6
CONTINUOUS
 62
     4
  5
318
 10
49257.569487
 20
13114.360302
 30
0.0
 11
49257.569487
 21
13103.844762
 31
0.0
  0
LINE
  8
40
  6
CONTINUOUS
 62
     4
  5
319
 10
49256.823427
 20
13102.360342
 30
0.0
 11
49168.358967
 21
13102.360342
 31
0.0
  0
ARC
  8
40
  6
CONTINUOUS
 62
     4
  5
31A
 10
49169.569407
 20
13103.976082
 30
0.0
 40
2.00004
 50
180.0
 51
255.529705
  0
ARC
  8
40
  6
CONTINUOUS
 62
     4
  5
31B
 10
49255.567767
 20
13103.933032
 30
0.0
 40
2.00004
 50
284.069648
 51
360.0
  0
LINE
  8
1
  6
CONTINUOUS
 62
     4
  5
31C
 10
49180.258547
 20
13121.546362
 30
0.0
 11
49184.258627
 21
13122.241392
 31
0.0
  0
LINE
  8
1
  6
CONTINUOUS
 62
     4
  5
31D
 10
49180.258547
 20
13124.582682
 30
0.0
 11
49184.258627
 21
13125.291922
 31
0.0
  0
LINE
  8
1
  6
CONTINUOUS
 62
     4
  5
31E
 10
49180.258547
 20
13127.635802
 30
0.0
 11
49184.258627
 21
13128.345042
 31
0.0
  0
LINE
  8
1
  6
CONTINUOUS
 62
     4
  5
31F
 10
49180.258547
 20
13130.688922
 30
0.0
 11
49184.258627
 21
13131.398092
 31
0.0
  0
LINE
  8
1
  6
CONTINUOUS
 62
     4
  5
320
 10
49180.258547
 20
13133.739382
 30
0.0
 11
49184.258627
 21
13134.434342
 31
0.0
  0
LINE
  8
1
  6
CONTINUOUS
 62
     4
  5
321
 10
49180.258547
 20
13136.775492
 30
0.0
 11
49184.258627
 21
13137.484732
 31
0.0
  0
LINE
  8
1
  6
CONTINUOUS
 62
     4
  5
322
 10
49183.863407
 20
13120.651202
 30
0.0
 11
49180.653767
 21
13120.083572
 31
0.0
  0
LINE
  8
1
  6
CONTINUOUS
 62
     4
  5
323
 10
49183.863407
 20
13123.684652
 30
0.0
 11
49180.653767
 21
13123.117092
 31
0.0
  0
LINE
  8
1
  6
CONTINUOUS
 62
     4
  5
324
 10
49183.863407
 20
13126.737772
 30
0.0
 11
49180.653767
 21
13126.170212
 31
0.0
  0
LINE
  8
1
  6
CONTINUOUS
 62
     4
  5
325
 10
49183.863407
 20
13129.790892
 30
0.0
 11
49180.653767
 21
13129.223402
 31
0.0
  0
LINE
  8
1
  6
CONTINUOUS
 62
     4
  5
326
 10
49183.863407
 20
13132.844082
 30
0.0
 11
49180.653767
 21
13132.276522
 31
0.0
  0
LINE
  8
1
  6
CONTINUOUS
 62
     4
  5
327
 10
49183.863407
 20
13135.877602
 30
0.0
 11
49180.653767
 21
13135.310042
 31
0.0
  0
LINE
  8
1
  6
CONTINUOUS
 62
     4
  5
328
 10
49183.863407
 20
13138.930722
 30
0.0
 11
49180.653767
 21
13138.363092
 31
0.0
  0
LINE
  8
1
  6
CONTINUOUS
 62
     4
  5
329
 10
49180.258547
 20
13118.494992
 30
0.0
 11
49184.258627
 21
13119.199192
 31
0.0
  0
LINE
  8
1
  6
CONTINUOUS
 62
     4
  5
32A
 10
49182.258587
 20
13108.360322
 30
0.0
 11
49178.008607
 21
13108.360322
 31
0.0
  0
LINE
  8
1
  6
CONTINUOUS
 62
     4
  5
32B
 10
49180.258547
 20
13112.448462
 30
0.0
 11
49184.258627
 21
13113.157702
 31
0.0
  0
LINE
  8
1
  6
CONTINUOUS
 62
     4
  5
32C
 10
49180.258547
 20
13115.462312
 30
0.0
 11
49184.258627
 21
13116.171552
 31
0.0
  0
LINE
  8
1
  6
CONTINUOUS
 62
     4
  5
32D
 10
49183.863407
 20
13111.570032
 30
0.0
 11
49180.653767
 21
13111.002472
 31
0.0
  0
LINE
  8
1
  6
CONTINUOUS
 62
     4
  5
32E
 10
49183.863407
 20
13114.583952
 30
0.0
 11
49180.653767
 21
13114.016392
 31
0.0
  0
LINE
  8
1
  6
CONTINUOUS
 62
     4
  5
32F
 10
49183.863407
 20
13117.617542
 30
0.0
 11
49180.653767
 21
13117.049982
 31
0.0
  0
LINE
  8
1
  6
CONTINUOUS
 62
     4
  5
330
 10
49179.655567
 20
13108.360322
 30
0.0
 11
49180.858587
 21
13109.563272
 31
0.0
  0
LINE
  8
1
  6
CONTINUOUS
 62
     4
  5
331
 10
49179.655567
 20
13108.360322
 30
0.0
 11
49178.008607
 21
13108.360322
 31
0.0
  0
LINE
  8
1
  6
CONTINUOUS
 62
     4
  5
332
 10
49184.861607
 20
13108.360322
 30
0.0
 11
49183.658587
 21
13109.563272
 31
0.0
  0
LINE
  8
1
  6
CONTINUOUS
 62
     4
  5
333
 10
49184.861607
 20
13108.360322
 30
0.0
 11
49186.508567
 21
13108.360322
 31
0.0
  0
LINE
  8
1
  6
CONTINUOUS
 62
     4
  5
334
 10
49183.863407
 20
13110.043472
 30
0.0
 11
49180.653767
 21
13109.475982
 31
0.0
  0
LINE
  8
1
  6
CONTINUOUS
 62
     4
  5
335
 10
49181.651827
 20
13104.869282
 30
0.0
 11
49182.865347
 21
13104.869282
 31
0.0
  0
LINE
  8
1
  6
CONTINUOUS
 62
     4
  5
336
 10
49181.651827
 20
13104.360312
 30
0.0
 11
49181.651827
 21
13104.869282
 31
0.0
  0
LINE
  8
1
  6
CONTINUOUS
 62
     4
  5
337
 10
49182.865347
 20
13104.360312
 30
0.0
 11
49182.865347
 21
13104.869282
 31
0.0
  0
LINE
  8
1
  6
CONTINUOUS
 62
     4
  5
338
 10
49181.651827
 20
13104.360312
 30
0.0
 11
49182.865347
 21
13104.360312
 31
0.0
  0
LINE
  8
1
  6
CONTINUOUS
 62
     4
  5
339
 10
49180.258547
 20
13139.828612
 30
0.0
 11
49184.258627
 21
13140.537852
 31
0.0
  0
LINE
  8
1
  6
CONTINUOUS
 62
     4
  5
33A
 10
49183.649907
 20
13143.483032
 30
0.0
 11
49180.764927
 21
13142.971472
 31
0.0
  0
LINE
  8
1
  6
CONTINUOUS
 62
     4
  5
33B
 10
49183.863407
 20
13141.983772
 30
0.0
 11
49180.653767
 21
13141.416212
 31
0.0
  0
LINE
  8
1
  6
CONTINUOUS
 62
     4
  5
33C
 10
49183.357027
 20
13144.947292
 30
0.0
 11
49181.079647
 21
13144.544652
 31
0.0
  0
LINE
  8
1
  6
CONTINUOUS
 62
     4
  5
33D
 10
49240.880367
 20
13121.546362
 30
0.0
 11
49244.880307
 21
13122.241392
 31
0.0
  0
LINE
  8
1
  6
CONTINUOUS
 62
     4
  5
33E
 10
49240.880367
 20
13124.582682
 30
0.0
 11
49244.880307
 21
13125.291922
 31
0.0
  0
LINE
  8
1
  6
CONTINUOUS
 62
     4
  5
33F
 10
49240.880367
 20
13127.635802
 30
0.0
 11
49244.880307
 21
13128.345042
 31
0.0
  0
LINE
  8
1
  6
CONTINUOUS
 62
     4
  5
340
 10
49240.880367
 20
13130.688922
 30
0.0
 11
49244.880307
 21
13131.398092
 31
0.0
  0
LINE
  8
1
  6
CONTINUOUS
 62
     4
  5
341
 10
49240.880367
 20
13133.739382
 30
0.0
 11
49244.880307
 21
13134.434342
 31
0.0
  0
LINE
  8
1
  6
CONTINUOUS
 62
     4
  5
342
 10
49240.880367
 20
13136.775492
 30
0.0
 11
49244.880307
 21
13137.484732
 31
0.0
  0
LINE
  8
1
  6
CONTINUOUS
 62
     4
  5
343
 10
49244.485227
 20
13120.651202
 30
0.0
 11
49241.275447
 21
13120.083572
 31
0.0
  0
LINE
  8
1
  6
CONTINUOUS
 62
     4
  5
344
 10
49244.485227
 20
13123.684652
 30
0.0
 11
49241.275447
 21
13123.117092
 31
0.0
  0
LINE
  8
1
  6
CONTINUOUS
 62
     4
  5
345
 10
49244.485227
 20
13126.737772
 30
0.0
 11
49241.275447
 21
13126.170212
 31
0.0
  0
LINE
  8
1
  6
CONTINUOUS
 62
     4
  5
346
 10
49244.485227
 20
13129.790892
 30
0.0
 11
49241.275447
 21
13129.223402
 31
0.0
  0
LINE
  8
1
  6
CONTINUOUS
 62
     4
  5
347
 10
49244.485227
 20
13132.844082
 30
0.0
 11
49241.275447
 21
13132.276522
 31
0.0
  0
LINE
  8
1
  6
CONTINUOUS
 62
     4
  5
348
 10
49244.485227
 20
13135.877602
 30
0.0
 11
49241.275447
 21
13135.310042
 31
0.0
  0
LINE
  8
1
  6
CONTINUOUS
 62
     4
  5
349
 10
49244.485227
 20
13138.930722
 30
0.0
 11
49241.275447
 21
13138.363092
 31
0.0
  0
LINE
  8
1
  6
CONTINUOUS
 62
     4
  5
34A
 10
49240.880367
 20
13118.494992
 30
0.0
 11
49244.880307
 21
13119.199192
 31
0.0
  0
LINE
  8
1
  6
CONTINUOUS
 62
     4
  5
34B
 10
49242.880407
 20
13108.360322
 30
0.0
 11
49238.630287
 21
13108.360322
 31
0.0
  0
LINE
  8
1
  6
CONTINUOUS
 62
     4
  5
34C
 10
49240.880367
 20
13112.448462
 30
0.0
 11
49244.880307
 21
13113.157702
 31
0.0
  0
LINE
  8
1
  6
CONTINUOUS
 62
     4
  5
34D
 10
49240.880367
 20
13115.462312
 30
0.0
 11
49244.880307
 21
13116.171552
 31
0.0
  0
LINE
  8
1
  6
CONTINUOUS
 62
     4
  5
34E
 10
49244.485227
 20
13111.570032
 30
0.0
 11
49241.275447
 21
13111.002472
 31
0.0
  0
LINE
  8
1
  6
CONTINUOUS
 62
     4
  5
34F
 10
49244.485227
 20
13114.583952
 30
0.0
 11
49241.275447
 21
13114.016392
 31
0.0
  0
LINE
  8
1
  6
CONTINUOUS
 62
     4
  5
350
 10
49244.485227
 20
13117.617542
 30
0.0
 11
49241.275447
 21
13117.049982
 31
0.0
  0
LINE
  8
1
  6
CONTINUOUS
 62
     4
  5
351
 10
49240.277387
 20
13108.360322
 30
0.0
 11
49241.480407
 21
13109.563272
 31
0.0
  0
LINE
  8
1
  6
CONTINUOUS
 62
     4
  5
352
 10
49240.277387
 20
13108.360322
 30
0.0
 11
49238.630287
 21
13108.360322
 31
0.0
  0
LINE
  8
1
  6
CONTINUOUS
 62
     4
  5
353
 10
49245.483287
 20
13108.360322
 30
0.0
 11
49244.280407
 21
13109.563272
 31
0.0
  0
LINE
  8
1
  6
CONTINUOUS
 62
     4
  5
354
 10
49245.483287
 20
13108.360322
 30
0.0
 11
49247.130387
 21
13108.360322
 31
0.0
  0
LINE
  8
1
  6
CONTINUOUS
 62
     4
  5
355
 10
49244.485227
 20
13110.043472
 30
0.0
 11
49241.275447
 21
13109.475982
 31
0.0
  0
LINE
  8
1
  6
CONTINUOUS
 62
     4
  5
356
 10
49242.273647
 20
13104.869282
 30
0.0
 11
49243.487027
 21
13104.869282
 31
0.0
  0
LINE
  8
1
  6
CONTINUOUS
 62
     4
  5
357
 10
49242.273647
 20
13104.360312
 30
0.0
 11
49242.273647
 21
13104.869282
 31
0.0
  0
LINE
  8
1
  6
CONTINUOUS
 62
     4
  5
358
 10
49243.487027
 20
13104.360312
 30
0.0
 11
49243.487027
 21
13104.869282
 31
0.0
  0
LINE
  8
1
  6
CONTINUOUS
 62
     4
  5
359
 10
49242.273647
 20
13104.360312
 30
0.0
 11
49243.487027
 21
13104.360312
 31
0.0
  0
LINE
  8
1
  6
CONTINUOUS
 62
     4
  5
35A
 10
49240.880367
 20
13139.828612
 30
0.0
 11
49244.880307
 21
13140.537852
 31
0.0
  0
LINE
  8
1
  6
CONTINUOUS
 62
     4
  5
35B
 10
49244.271587
 20
13143.483032
 30
0.0
 11
49241.386747
 21
13142.971472
 31
0.0
  0
LINE
  8
1
  6
CONTINUOUS
 62
     4
  5
35C
 10
49244.485227
 20
13141.983772
 30
0.0
 11
49241.275447
 21
13141.416212
 31
0.0
  0
LINE
  8
1
  6
CONTINUOUS
 62
     4
  5
35D
 10
49243.978847
 20
13144.947292
 30
0.0
 11
49241.701327
 21
13144.544652
 31
0.0
  0
LINE
  8
40
  6
CONTINUOUS
 62
     4
  5
35E
 10
49257.544427
 20
13114.360302
 30
0.0
 11
49257.544427
 21
13103.844762
 31
0.0
  0
LINE
  8
40
  6
CONTINUOUS
 62
     4
  5
35F
 10
49255.044447
 20
13101.727822
 30
0.0
 11
49255.044447
 21
13109.360342
 31
0.0
  0
LINE
  8
40
  6
CONTINUOUS
 62
     4
  5
360
 10
49194.839407
 20
13095.360342
 30
0.0
 11
49230.370427
 21
13095.360342
 31
0.0
  0
LINE
  8
40
  6
CONTINUOUS
 62
     4
  5
361
 10
49198.569427
 20
13094.360322
 30
0.0
 11
49226.569427
 21
13094.360322
 31
0.0
  0
LINE
  8
40
  6
CONTINUOUS
 62
     4
  5
362
 10
49227.153787
 20
13093.360302
 30
0.0
 11
49198.053387
 21
13093.360302
 31
0.0
  0
LINE
  8
40
  6
CONTINUOUS
 62
     4
  5
363
 10
49226.715447
 20
13092.360212
 30
0.0
 11
49198.450287
 21
13092.360212
 31
0.0
  0
LINE
  8
12
  6
CONTINUOUS
 62
     4
  5
364
 10
49235.956427
 20
13109.360342
 30
0.0
 11
49257.569487
 21
13109.360342
 31
0.0
  0
LINE
  8
12
  6
CONTINUOUS
 62
     4
  5
365
 10
49170.069487
 20
13101.752602
 30
0.0
 11
49170.069487
 21
13109.360342
 31
0.0
  0
LINE
  8
12
  6
CONTINUOUS
 62
     4
  5
366
 10
49190.918847
 20
13096.372122
 30
0.0
 11
49190.918847
 21
13096.342582
 31
0.0
  0
LINE
  8
12
  6
CONTINUOUS
 62
     4
  5
367
 10
49189.200907
 20
13096.815362
 30
0.0
 11
49189.200907
 21
13109.360342
 31
0.0
  0
LINE
  8
12
  6
CONTINUOUS
 62
     4
  5
368
 10
49190.912687
 20
13096.467602
 30
0.0
 11
49189.287987
 21
13109.465622
 31
0.0
  0
LINE
  8
12
  6
CONTINUOUS
 62
     4
  5
369
 10
49234.238627
 20
13096.266702
 30
0.0
 11
49234.238627
 21
13096.237232
 31
0.0
  0
LINE
  8
12
  6
CONTINUOUS
 62
     4
  5
36A
 10
49235.956427
 20
13096.710012
 30
0.0
 11
49235.956427
 21
13109.255062
 31
0.0
  0
LINE
  8
12
  6
CONTINUOUS
 62
     4
  5
36B
 10
49234.244787
 20
13096.362322
 30
0.0
 11
49235.869487
 21
13109.360342
 31
0.0
  0
LINE
  8
12
  6
CONTINUOUS
 62
     4
  5
36C
 10
49189.301147
 20
13109.360342
 30
0.0
 11
49170.069487
 21
13109.360342
 31
0.0
  0
LINE
  8
12
  6
CONTINUOUS
 62
     4
  5
36D
 10
49189.301147
 20
13108.360322
 30
0.0
 11
49170.069487
 21
13108.360322
 31
0.0
  0
LINE
  8
12
  6
CONTINUOUS
 62
     4
  5
36E
 10
49235.956427
 20
13108.360322
 30
0.0
 11
49257.569487
 21
13108.360322
 31
0.0
  0
LINE
  8
12
  6
CONTINUOUS
 62
     4
  5
36F
 10
49186.508567
 20
13108.360322
 30
0.0
 11
49178.008607
 21
13108.360322
 31
0.0
  0
LINE
  8
12
  6
CONTINUOUS
 62
     4
  5
370
 10
49178.008607
 20
13108.360322
 30
0.0
 11
49178.008607
 21
13105.360332
 31
0.0
  0
LINE
  8
12
  6
CONTINUOUS
 62
     4
  5
371
 10
49186.508567
 20
13108.360322
 30
0.0
 11
49186.508567
 21
13105.360332
 31
0.0
  0
LINE
  8
12
  6
CONTINUOUS
 62
     4
  5
372
 10
49186.508567
 20
13105.360332
 30
0.0
 11
49186.508567
 21
13108.360322
 31
0.0
  0
LINE
  8
12
  6
CONTINUOUS
 62
     4
  5
373
 10
49178.008607
 20
13105.360332
 30
0.0
 11
49178.008607
 21
13108.360322
 31
0.0
  0
LINE
  8
12
  6
CONTINUOUS
 62
     4
  5
374
 10
49178.008607
 20
13105.360332
 30
0.0
 11
49186.508567
 21
13105.360332
 31
0.0
  0
ARC
  8
12
  6
CONTINUOUS
 62
     4
  5
375
 10
49182.258587
 20
13113.891582
 30
0.0
 40
9.53134
 50
243.51896
 51
296.48104
  0
LINE
  8
12
  6
CONTINUOUS
 62
     4
  5
376
 10
49183.658587
 20
13108.360322
 30
0.0
 11
49183.658587
 21
13139.360312
 31
0.0
  0
LINE
  8
12
  6
CONTINUOUS
 62
     4
  5
377
 10
49180.858587
 20
13108.360322
 30
0.0
 11
49180.858587
 21
13139.360312
 31
0.0
  0
LINE
  8
12
  6
CONTINUOUS
 62
     4
  5
378
 10
49183.658587
 20
13139.360312
 30
0.0
 11
49180.858587
 21
13139.360312
 31
0.0
  0
LINE
  8
12
  6
CONTINUOUS
 62
     4
  5
379
 10
49182.258587
 20
13146.360312
 30
0.0
 11
49180.858587
 21
13139.360312
 31
0.0
  0
LINE
  8
12
  6
CONTINUOUS
 62
     4
  5
37A
 10
49182.258587
 20
13146.360312
 30
0.0
 11
49183.658587
 21
13139.360312
 31
0.0
  0
LINE
  8
12
  6
CENTER
 62
     4
  5
37B
 10
49182.258587
 20
13105.360332
 30
0.0
 11
49182.258587
 21
13146.360312
 31
0.0
  0
LINE
  8
12
  6
CENTER
 62
     4
  5
37C
 10
49182.258587
 20
13146.360312
 30
0.0
 11
49182.258587
 21
13106.853292
 31
0.0
  0
LINE
  8
12
  6
CONTINUOUS
 62
     4
  5
37D
 10
49247.130387
 20
13108.360322
 30
0.0
 11
49238.630287
 21
13108.360322
 31
0.0
  0
LINE
  8
12
  6
CONTINUOUS
 62
     4
  5
37E
 10
49238.630287
 20
13108.360322
 30
0.0
 11
49238.630287
 21
13105.360332
 31
0.0
  0
LINE
  8
12
  6
CONTINUOUS
 62
     4
  5
37F
 10
49247.130387
 20
13108.360322
 30
0.0
 11
49247.130387
 21
13105.360332
 31
0.0
  0
LINE
  8
12
  6
CONTINUOUS
 62
     4
  5
380
 10
49247.130387
 20
13105.360332
 30
0.0
 11
49247.130387
 21
13108.360322
 31
0.0
  0
LINE
  8
12
  6
CONTINUOUS
 62
     4
  5
381
 10
49238.630287
 20
13105.360332
 30
0.0
 11
49238.630287
 21
13108.360322
 31
0.0
  0
LINE
  8
12
  6
CONTINUOUS
 62
     4
  5
382
 10
49238.630287
 20
13105.360332
 30
0.0
 11
49247.130387
 21
13105.360332
 31
0.0
  0
ARC
  8
12
  6
CONTINUOUS
 62
     4
  5
383
 10
49242.880407
 20
13113.891582
 30
0.0
 40
9.53134
 50
243.51896
 51
296.48104
  0
LINE
  8
12
  6
CONTINUOUS
 62
     4
  5
384
 10
49244.280407
 20
13108.360322
 30
0.0
 11
49244.280407
 21
13139.360312
 31
0.0
  0
LINE
  8
12
  6
CONTINUOUS
 62
     4
  5
385
 10
49241.480407
 20
13108.360322
 30
0.0
 11
49241.480407
 21
13139.360312
 31
0.0
  0
LINE
  8
12
  6
CONTINUOUS
 62
     4
  5
386
 10
49244.280407
 20
13139.360312
 30
0.0
 11
49241.480407
 21
13139.360312
 31
0.0
  0
LINE
  8
12
  6
CONTINUOUS
 62
     4
  5
387
 10
49242.880407
 20
13146.360312
 30
0.0
 11
49241.480407
 21
13139.360312
 31
0.0
  0
LINE
  8
12
  6
CONTINUOUS
 62
     4
  5
388
 10
49242.880407
 20
13146.360312
 30
0.0
 11
49244.280407
 21
13139.360312
 31
0.0
  0
LINE
  8
12
  6
CENTER
 62
     4
  5
389
 10
49242.880407
 20
13105.360332
 30
0.0
 11
49242.880407
 21
13146.360312
 31
0.0
  0
LINE
  8
12
  6
CENTER
 62
     4
  5
38A
 10
49242.880407
 20
13146.360312
 30
0.0
 11
49242.880407
 21
13106.853292
 31
0.0
  0
LINE
  8
12
  6
CONTINUOUS
 62
     4
  5
38B
 10
49187.967087
 20
13108.607562
 30
0.0
 11
49176.467067
 21
13108.607562
 31
0.0
  0
LINE
  8
12
  6
CONTINUOUS
 62
     4
  5
38C
 10
49187.967087
 20
13109.407452
 30
0.0
 11
49176.467067
 21
13109.407452
 31
0.0
  0
LINE
  8
12
  6
CONTINUOUS
 62
     4
  5
38D
 10
49187.967087
 20
13108.607562
 30
0.0
 11
49187.967087
 21
13109.407452
 31
0.0
  0
LINE
  8
12
  6
CONTINUOUS
 62
     4
  5
38E
 10
49184.967167
 20
13108.607562
 30
0.0
 11
49184.967167
 21
13109.407452
 31
0.0
  0
LINE
  8
12
  6
CONTINUOUS
 62
     4
  5
38F
 10
49179.467127
 20
13108.607562
 30
0.0
 11
49179.467127
 21
13109.407452
 31
0.0
  0
LINE
  8
12
  6
CONTINUOUS
 62
     4
  5
390
 10
49176.467067
 20
13108.607562
 30
0.0
 11
49176.467067
 21
13109.407452
 31
0.0
  0
LINE
  8
12
  6
CONTINUOUS
 62
     4
  5
391
 10
49248.585267
 20
13108.607562
 30
0.0
 11
49237.085247
 21
13108.607562
 31
0.0
  0
LINE
  8
12
  6
CONTINUOUS
 62
     4
  5
392
 10
49248.585267
 20
13109.407452
 30
0.0
 11
49237.085247
 21
13109.407452
 31
0.0
  0
LINE
  8
12
  6
CONTINUOUS
 62
     4
  5
393
 10
49248.585267
 20
13108.607562
 30
0.0
 11
49248.585267
 21
13109.407452
 31
0.0
  0
LINE
  8
12
  6
CONTINUOUS
 62
     4
  5
394
 10
49245.585207
 20
13108.607562
 30
0.0
 11
49245.585207
 21
13109.407452
 31
0.0
  0
LINE
  8
12
  6
CONTINUOUS
 62
     4
  5
395
 10
49240.085167
 20
13108.607562
 30
0.0
 11
49240.085167
 21
13109.407452
 31
0.0
  0
LINE
  8
12
  6
CONTINUOUS
 62
     4
  5
396
 10
49237.085247
 20
13108.607562
 30
0.0
 11
49237.085247
 21
13109.407452
 31
0.0
  0
LINE
  8
8
  6
CONTINUOUS
 62
     4
  5
397
 10
49229.569907
 20
13095.153702
 30
0.0
 11
49256.065467
 21
13101.991232
 31
0.0
  0
LINE
  8
8
  6
CONTINUOUS
 62
     4
  5
398
 10
49195.757667
 20
13095.123252
 30
0.0
 11
49169.026627
 21
13102.021612
 31
0.0
  0
ARC
  8
8
  6
CONTINUOUS
 62
     4
  5
399
 10
49194.601687
 20
13091.324352
 30
0.0
 40
4.00008
 50
360.0
 51
75.529706
  0
LINE
  8
50
  6
CENTER
 62
     4
  5
39A
 10
49182.217147
 20
13108.607562
 30
0.0
 11
49182.217147
 21
13110.729542
 31
0.0
  0
LINE
  8
50
  6
CENTER
 62
     4
  5
39B
 10
49242.835187
 20
13108.607562
 30
0.0
 11
49242.835187
 21
13110.729542
 31
0.0
  0
ARC
  8
8
  6
CONTINUOUS
 62
     4
  5
39C
 10
49230.563907
 20
13091.273462
 30
0.0
 40
4.00008
 50
104.470294
 51
180.0
  0
LINE
  8
40
  6
CONTINUOUS
 62
     4
  5
39D
 10
48766.342
 20
13094.360322
 30
0.0
 11
48797.16454
 21
13094.360322
 31
0.0
  0
LINE
  8
40
  6
CONTINUOUS
 62
     4
  5
39E
 10
48803.40798
 20
13096.360292
 30
0.0
 11
48760.12698
 21
13096.360292
 31
0.0
  0
LINE
  8
40
  6
CONTINUOUS
 62
     4
  5
39F
 10
48826.80282
 20
13114.360302
 30
0.0
 11
48826.80282
 21
13103.873392
 31
0.0
  0
LINE
  8
40
  6
CONTINUOUS
 62
     4
  5
3A0
 10
48736.80284
 20
13114.360302
 30
0.0
 11
48736.80284
 21
13103.844762
 31
0.0
  0
LINE
  8
40
  6
CONTINUOUS
 62
     4
  5
3A1
 10
48737.5489
 20
13102.360342
 30
0.0
 11
48826.01336
 21
13102.360342
 31
0.0
  0
ARC
  8
40
  6
CONTINUOUS
 62
     4
  5
3A2
 10
48824.80292
 20
13103.976082
 30
0.0
 40
2.00004
 50
284.470295
 51
360.0
  0
ARC
  8
40
  6
CONTINUOUS
 62
     4
  5
3A3
 10
48738.80456
 20
13103.933032
 30
0.0
 40
2.00004
 50
180.0
 51
255.930352
  0
LINE
  8
1
  6
CONTINUOUS
 62
     4
  5
3A4
 10
48814.11378
 20
13121.546362
 30
0.0
 11
48810.1137
 21
13122.241392
 31
0.0
  0
LINE
  8
1
  6
CONTINUOUS
 62
     4
  5
3A5
 10
48814.11378
 20
13124.582682
 30
0.0
 11
48810.1137
 21
13125.291922
 31
0.0
  0
LINE
  8
1
  6
CONTINUOUS
 62
     4
  5
3A6
 10
48814.11378
 20
13127.635802
 30
0.0
 11
48810.1137
 21
13128.345042
 31
0.0
  0
LINE
  8
1
  6
CONTINUOUS
 62
     4
  5
3A7
 10
48814.11378
 20
13130.688922
 30
0.0
 11
48810.1137
 21
13131.398092
 31
0.0
  0
LINE
  8
1
  6
CONTINUOUS
 62
     4
  5
3A8
 10
48814.11378
 20
13133.739382
 30
0.0
 11
48810.1137
 21
13134.434342
 31
0.0
  0
LINE
  8
1
  6
CONTINUOUS
 62
     4
  5
3A9
 10
48814.11378
 20
13136.775492
 30
0.0
 11
48810.1137
 21
13137.484732
 31
0.0
  0
LINE
  8
1
  6
CONTINUOUS
 62
     4
  5
3AA
 10
48810.50892
 20
13120.651202
 30
0.0
 11
48813.71856
 21
13120.083572
 31
0.0
  0
LINE
  8
1
  6
CONTINUOUS
 62
     4
  5
3AB
 10
48810.50892
 20
13123.684652
 30
0.0
 11
48813.71856
 21
13123.117092
 31
0.0
  0
LINE
  8
1
  6
CONTINUOUS
 62
     4
  5
3AC
 10
48810.50892
 20
13126.737772
 30
0.0
 11
48813.71856
 21
13126.170212
 31
0.0
  0
LINE
  8
1
  6
CONTINUOUS
 62
     4
  5
3AD
 10
48810.50892
 20
13129.790892
 30
0.0
 11
48813.71856
 21
13129.223402
 31
0.0
  0
LINE
  8
1
  6
CONTINUOUS
 62
     4
  5
3AE
 10
48810.50892
 20
13132.844082
 30
0.0
 11
48813.71856
 21
13132.276522
 31
0.0
  0
LINE
  8
1
  6
CONTINUOUS
 62
     4
  5
3AF
 10
48810.50892
 20
13135.877602
 30
0.0
 11
48813.71856
 21
13135.310042
 31
0.0
  0
LINE
  8
1
  6
CONTINUOUS
 62
     4
  5
3B0
 10
48810.50892
 20
13138.930722
 30
0.0
 11
48813.71856
 21
13138.363092
 31
0.0
  0
LINE
  8
1
  6
CONTINUOUS
 62
     4
  5
3B1
 10
48814.11378
 20
13118.494992
 30
0.0
 11
48810.1137
 21
13119.199192
 31
0.0
  0
LINE
  8
1
  6
CONTINUOUS
 62
     4
  5
3B2
 10
48812.11374
 20
13108.360322
 30
0.0
 11
48816.36372
 21
13108.360322
 31
0.0
  0
LINE
  8
1
  6
CONTINUOUS
 62
     4
  5
3B3
 10
48814.11378
 20
13112.448462
 30
0.0
 11
48810.1137
 21
13113.157702
 31
0.0
  0
LINE
  8
1
  6
CONTINUOUS
 62
     4
  5
3B4
 10
48814.11378
 20
13115.462312
 30
0.0
 11
48810.1137
 21
13116.171552
 31
0.0
  0
LINE
  8
1
  6
CONTINUOUS
 62
     4
  5
3B5
 10
48810.50892
 20
13111.570032
 30
0.0
 11
48813.71856
 21
13111.002472
 31
0.0
  0
LINE
  8
1
  6
CONTINUOUS
 62
     4
  5
3B6
 10
48810.50892
 20
13114.583952
 30
0.0
 11
48813.71856
 21
13114.016392
 31
0.0
  0
LINE
  8
1
  6
CONTINUOUS
 62
     4
  5
3B7
 10
48810.50892
 20
13117.617542
 30
0.0
 11
48813.71856
 21
13117.049982
 31
0.0
  0
LINE
  8
1
  6
CONTINUOUS
 62
     4
  5
3B8
 10
48814.71676
 20
13108.360322
 30
0.0
 11
48813.51374
 21
13109.563272
 31
0.0
  0
LINE
  8
1
  6
CONTINUOUS
 62
     4
  5
3B9
 10
48814.71676
 20
13108.360322
 30
0.0
 11
48816.36372
 21
13108.360322
 31
0.0
  0
LINE
  8
1
  6
CONTINUOUS
 62
     4
  5
3BA
 10
48809.51072
 20
13108.360322
 30
0.0
 11
48810.71374
 21
13109.563272
 31
0.0
  0
LINE
  8
1
  6
CONTINUOUS
 62
     4
  5
3BB
 10
48809.51072
 20
13108.360322
 30
0.0
 11
48807.86376
 21
13108.360322
 31
0.0
  0
LINE
  8
1
  6
CONTINUOUS
 62
     4
  5
3BC
 10
48810.50892
 20
13110.043472
 30
0.0
 11
48813.71856
 21
13109.475982
 31
0.0
  0
LINE
  8
1
  6
CONTINUOUS
 62
     4
  5
3BD
 10
48812.7205
 20
13104.869282
 30
0.0
 11
48811.50698
 21
13104.869282
 31
0.0
  0
LINE
  8
1
  6
CONTINUOUS
 62
     4
  5
3BE
 10
48812.7205
 20
13104.360312
 30
0.0
 11
48812.7205
 21
13104.869282
 31
0.0
  0
LINE
  8
1
  6
CONTINUOUS
 62
     4
  5
3BF
 10
48811.50698
 20
13104.360312
 30
0.0
 11
48811.50698
 21
13104.869282
 31
0.0
  0
LINE
  8
1
  6
CONTINUOUS
 62
     4
  5
3C0
 10
48812.7205
 20
13104.360312
 30
0.0
 11
48811.50698
 21
13104.360312
 31
0.0
  0
LINE
  8
1
  6
CONTINUOUS
 62
     4
  5
3C1
 10
48814.11378
 20
13139.828612
 30
0.0
 11
48810.1137
 21
13140.537852
 31
0.0
  0
LINE
  8
1
  6
CONTINUOUS
 62
     4
  5
3C2
 10
48810.72242
 20
13143.483032
 30
0.0
 11
48813.6074
 21
13142.971472
 31
0.0
  0
LINE
  8
1
  6
CONTINUOUS
 62
     4
  5
3C3
 10
48810.50892
 20
13141.983772
 30
0.0
 11
48813.71856
 21
13141.416212
 31
0.0
  0
LINE
  8
1
  6
CONTINUOUS
 62
     4
  5
3C4
 10
48811.0153
 20
13144.947292
 30
0.0
 11
48813.29268
 21
13144.544652
 31
0.0
  0
LINE
  8
1
  6
CONTINUOUS
 62
     4
  5
3C5
 10
48753.49196
 20
13121.546362
 30
0.0
 11
48749.49202
 21
13122.241392
 31
0.0
  0
LINE
  8
1
  6
CONTINUOUS
 62
     4
  5
3C6
 10
48753.49196
 20
13124.582682
 30
0.0
 11
48749.49202
 21
13125.291922
 31
0.0
  0
LINE
  8
1
  6
CONTINUOUS
 62
     4
  5
3C7
 10
48753.49196
 20
13127.635802
 30
0.0
 11
48749.49202
 21
13128.345042
 31
0.0
  0
LINE
  8
1
  6
CONTINUOUS
 62
     4
  5
3C8
 10
48753.49196
 20
13130.688922
 30
0.0
 11
48749.49202
 21
13131.398092
 31
0.0
  0
LINE
  8
1
  6
CONTINUOUS
 62
     4
  5
3C9
 10
48753.49196
 20
13133.739382
 30
0.0
 11
48749.49202
 21
13134.434342
 31
0.0
  0
LINE
  8
1
  6
CONTINUOUS
 62
     4
  5
3CA
 10
48753.49196
 20
13136.775492
 30
0.0
 11
48749.49202
 21
13137.484732
 31
0.0
  0
LINE
  8
1
  6
CONTINUOUS
 62
     4
  5
3CB
 10
48749.8871
 20
13120.651202
 30
0.0
 11
48753.09688
 21
13120.083572
 31
0.0
  0
LINE
  8
1
  6
CONTINUOUS
 62
     4
  5
3CC
 10
48749.8871
 20
13123.684652
 30
0.0
 11
48753.09688
 21
13123.117092
 31
0.0
  0
LINE
  8
1
  6
CONTINUOUS
 62
     4
  5
3CD
 10
48749.8871
 20
13126.737772
 30
0.0
 11
48753.09688
 21
13126.170212
 31
0.0
  0
LINE
  8
1
  6
CONTINUOUS
 62
     4
  5
3CE
 10
48749.8871
 20
13129.790892
 30
0.0
 11
48753.09688
 21
13129.223402
 31
0.0
  0
LINE
  8
1
  6
CONTINUOUS
 62
     4
  5
3CF
 10
48749.8871
 20
13132.844082
 30
0.0
 11
48753.09688
 21
13132.276522
 31
0.0
  0
LINE
  8
1
  6
CONTINUOUS
 62
     4
  5
3D0
 10
48749.8871
 20
13135.877602
 30
0.0
 11
48753.09688
 21
13135.310042
 31
0.0
  0
LINE
  8
1
  6
CONTINUOUS
 62
     4
  5
3D1
 10
48749.8871
 20
13138.930722
 30
0.0
 11
48753.09688
 21
13138.363092
 31
0.0
  0
LINE
  8
1
  6
CONTINUOUS
 62
     4
  5
3D2
 10
48753.49196
 20
13118.494992
 30
0.0
 11
48749.49202
 21
13119.199192
 31
0.0
  0
LINE
  8
1
  6
CONTINUOUS
 62
     4
  5
3D3
 10
48751.49192
 20
13108.360322
 30
0.0
 11
48755.74204
 21
13108.360322
 31
0.0
  0
LINE
  8
1
  6
CONTINUOUS
 62
     4
  5
3D4
 10
48753.49196
 20
13112.448462
 30
0.0
 11
48749.49202
 21
13113.157702
 31
0.0
  0
LINE
  8
1
  6
CONTINUOUS
 62
     4
  5
3D5
 10
48753.49196
 20
13115.462312
 30
0.0
 11
48749.49202
 21
13116.171552
 31
0.0
  0
LINE
  8
1
  6
CONTINUOUS
 62
     4
  5
3D6
 10
48749.8871
 20
13111.570032
 30
0.0
 11
48753.09688
 21
13111.002472
 31
0.0
  0
LINE
  8
1
  6
CONTINUOUS
 62
     4
  5
3D7
 10
48749.8871
 20
13114.583952
 30
0.0
 11
48753.09688
 21
13114.016392
 31
0.0
  0
LINE
  8
1
  6
CONTINUOUS
 62
     4
  5
3D8
 10
48749.8871
 20
13117.617542
 30
0.0
 11
48753.09688
 21
13117.049982
 31
0.0
  0
LINE
  8
1
  6
CONTINUOUS
 62
     4
  5
3D9
 10
48754.09494
 20
13108.360322
 30
0.0
 11
48752.89192
 21
13109.563272
 31
0.0
  0
LINE
  8
1
  6
CONTINUOUS
 62
     4
  5
3DA
 10
48754.09494
 20
13108.360322
 30
0.0
 11
48755.74204
 21
13108.360322
 31
0.0
  0
LINE
  8
1
  6
CONTINUOUS
 62
     4
  5
3DB
 10
48748.88904
 20
13108.360322
 30
0.0
 11
48750.09192
 21
13109.563272
 31
0.0
  0
LINE
  8
1
  6
CONTINUOUS
 62
     4
  5
3DC
 10
48748.88904
 20
13108.360322
 30
0.0
 11
48747.24194
 21
13108.360322
 31
0.0
  0
LINE
  8
1
  6
CONTINUOUS
 62
     4
  5
3DD
 10
48749.8871
 20
13110.043472
 30
0.0
 11
48753.09688
 21
13109.475982
 31
0.0
  0
LINE
  8
1
  6
CONTINUOUS
 62
     4
  5
3DE
 10
48752.09868
 20
13104.869282
 30
0.0
 11
48750.8853
 21
13104.869282
 31
0.0
  0
LINE
  8
1
  6
CONTINUOUS
 62
     4
  5
3DF
 10
48752.09868
 20
13104.360312
 30
0.0
 11
48752.09868
 21
13104.869282
 31
0.0
  0
LINE
  8
1
  6
CONTINUOUS
 62
     4
  5
3E0
 10
48750.8853
 20
13104.360312
 30
0.0
 11
48750.8853
 21
13104.869282
 31
0.0
  0
LINE
  8
1
  6
CONTINUOUS
 62
     4
  5
3E1
 10
48752.09868
 20
13104.360312
 30
0.0
 11
48750.8853
 21
13104.360312
 31
0.0
  0
LINE
  8
1
  6
CONTINUOUS
 62
     4
  5
3E2
 10
48753.49196
 20
13139.828612
 30
0.0
 11
48749.49202
 21
13140.537852
 31
0.0
  0
LINE
  8
1
  6
CONTINUOUS
 62
     4
  5
3E3
 10
48750.10074
 20
13143.483032
 30
0.0
 11
48752.98558
 21
13142.971472
 31
0.0
  0
LINE
  8
1
  6
CONTINUOUS
 62
     4
  5
3E4
 10
48749.8871
 20
13141.983772
 30
0.0
 11
48753.09688
 21
13141.416212
 31
0.0
  0
LINE
  8
1
  6
CONTINUOUS
 62
     4
  5
3E5
 10
48750.39348
 20
13144.947292
 30
0.0
 11
48752.671
 21
13144.544652
 31
0.0
  0
LINE
  8
40
  6
CONTINUOUS
 62
     4
  5
3E6
 10
48736.8279
 20
13114.360302
 30
0.0
 11
48736.8279
 21
13103.844762
 31
0.0
  0
LINE
  8
40
  6
CONTINUOUS
 62
     4
  5
3E7
 10
48739.32788
 20
13101.727822
 30
0.0
 11
48739.32788
 21
13109.360342
 31
0.0
  0
LINE
  8
40
  6
CONTINUOUS
 62
     4
  5
3E8
 10
48799.53292
 20
13095.360342
 30
0.0
 11
48764.0019
 21
13095.360342
 31
0.0
  0
LINE
  8
40
  6
CONTINUOUS
 62
     4
  5
3E9
 10
48795.8029
 20
13094.360322
 30
0.0
 11
48767.8029
 21
13094.360322
 31
0.0
  0
LINE
  8
40
  6
CONTINUOUS
 62
     4
  5
3EA
 10
48767.21854
 20
13093.360302
 30
0.0
 11
48796.31894
 21
13093.360302
 31
0.0
  0
LINE
  8
40
  6
CONTINUOUS
 62
     4
  5
3EB
 10
48767.65688
 20
13092.360212
 30
0.0
 11
48795.92204
 21
13092.360212
 31
0.0
  0
LINE
  8
12
  6
CONTINUOUS
 62
     4
  5
3EC
 10
48758.4159
 20
13109.360342
 30
0.0
 11
48736.80284
 21
13109.360342
 31
0.0
  0
LINE
  8
12
  6
CONTINUOUS
 62
     4
  5
3ED
 10
48824.30284
 20
13101.752602
 30
0.0
 11
48824.30284
 21
13109.360342
 31
0.0
  0
LINE
  8
12
  6
CONTINUOUS
 62
     4
  5
3EE
 10
48803.45348
 20
13096.372122
 30
0.0
 11
48803.45348
 21
13096.342582
 31
0.0
  0
LINE
  8
12
  6
CONTINUOUS
 62
     4
  5
3EF
 10
48805.17142
 20
13096.815362
 30
0.0
 11
48805.17142
 21
13109.360342
 31
0.0
  0
LINE
  8
12
  6
CONTINUOUS
 62
     4
  5
3F0
 10
48803.45964
 20
13096.467602
 30
0.0
 11
48805.08434
 21
13109.465622
 31
0.0
  0
LINE
  8
12
  6
CONTINUOUS
 62
     4
  5
3F1
 10
48760.1337
 20
13096.266702
 30
0.0
 11
48760.1337
 21
13096.237232
 31
0.0
  0
LINE
  8
12
  6
CONTINUOUS
 62
     4
  5
3F2
 10
48758.4159
 20
13096.710012
 30
0.0
 11
48758.4159
 21
13109.255062
 31
0.0
  0
LINE
  8
12
  6
CONTINUOUS
 62
     4
  5
3F3
 10
48760.12754
 20
13096.362322
 30
0.0
 11
48758.50284
 21
13109.360342
 31
0.0
  0
LINE
  8
12
  6
CONTINUOUS
 62
     4
  5
3F4
 10
48805.07118
 20
13109.360342
 30
0.0
 11
48824.30284
 21
13109.360342
 31
0.0
  0
LINE
  8
12
  6
CONTINUOUS
 62
     4
  5
3F5
 10
48805.07118
 20
13108.360322
 30
0.0
 11
48824.30284
 21
13108.360322
 31
0.0
  0
LINE
  8
12
  6
CONTINUOUS
 62
     4
  5
3F6
 10
48758.4159
 20
13108.360322
 30
0.0
 11
48736.80284
 21
13108.360322
 31
0.0
  0
LINE
  8
12
  6
CONTINUOUS
 62
     4
  5
3F7
 10
48807.86376
 20
13108.360322
 30
0.0
 11
48816.36372
 21
13108.360322
 31
0.0
  0
LINE
  8
12
  6
CONTINUOUS
 62
     4
  5
3F8
 10
48816.36372
 20
13108.360322
 30
0.0
 11
48816.36372
 21
13105.360332
 31
0.0
  0
LINE
  8
12
  6
CONTINUOUS
 62
     4
  5
3F9
 10
48807.86376
 20
13108.360322
 30
0.0
 11
48807.86376
 21
13105.360332
 31
0.0
  0
LINE
  8
12
  6
CONTINUOUS
 62
     4
  5
3FA
 10
48807.86376
 20
13105.360332
 30
0.0
 11
48807.86376
 21
13108.360322
 31
0.0
  0
LINE
  8
12
  6
CONTINUOUS
 62
     4
  5
3FB
 10
48816.36372
 20
13105.360332
 30
0.0
 11
48816.36372
 21
13108.360322
 31
0.0
  0
LINE
  8
12
  6
CONTINUOUS
 62
     4
  5
3FC
 10
48816.36372
 20
13105.360332
 30
0.0
 11
48807.86376
 21
13105.360332
 31
0.0
  0
ARC
  8
12
  6
CONTINUOUS
 62
     4
  5
3FD
 10
48812.11374
 20
13113.891582
 30
0.0
 40
9.53134
 50
243.51896
 51
296.48104
  0
LINE
  8
12
  6
CONTINUOUS
 62
     4
  5
3FE
 10
48810.71374
 20
13108.360322
 30
0.0
 11
48810.71374
 21
13139.360312
 31
0.0
  0
LINE
  8
12
  6
CONTINUOUS
 62
     4
  5
3FF
 10
48813.51374
 20
13108.360322
 30
0.0
 11
48813.51374
 21
13139.360312
 31
0.0
  0
LINE
  8
12
  6
CONTINUOUS
 62
     4
  5
400
 10
48810.71374
 20
13139.360312
 30
0.0
 11
48813.51374
 21
13139.360312
 31
0.0
  0
LINE
  8
12
  6
CONTINUOUS
 62
     4
  5
401
 10
48812.11374
 20
13146.360312
 30
0.0
 11
48813.51374
 21
13139.360312
 31
0.0
  0
LINE
  8
12
  6
CONTINUOUS
 62
     4
  5
402
 10
48812.11374
 20
13146.360312
 30
0.0
 11
48810.71374
 21
13139.360312
 31
0.0
  0
LINE
  8
12
  6
CENTER
 62
     4
  5
403
 10
48812.11374
 20
13105.360332
 30
0.0
 11
48812.11374
 21
13146.360312
 31
0.0
  0
LINE
  8
12
  6
CENTER
 62
     4
  5
404
 10
48812.11374
 20
13146.360312
 30
0.0
 11
48812.11374
 21
13106.853292
 31
0.0
  0
LINE
  8
12
  6
CONTINUOUS
 62
     4
  5
405
 10
48747.24194
 20
13108.360322
 30
0.0
 11
48755.74204
 21
13108.360322
 31
0.0
  0
LINE
  8
12
  6
CONTINUOUS
 62
     4
  5
406
 10
48755.74204
 20
13108.360322
 30
0.0
 11
48755.74204
 21
13105.360332
 31
0.0
  0
LINE
  8
12
  6
CONTINUOUS
 62
     4
  5
407
 10
48747.24194
 20
13108.360322
 30
0.0
 11
48747.24194
 21
13105.360332
 31
0.0
  0
LINE
  8
12
  6
CONTINUOUS
 62
     4
  5
408
 10
48747.24194
 20
13105.360332
 30
0.0
 11
48747.24194
 21
13108.360322
 31
0.0
  0
LINE
  8
12
  6
CONTINUOUS
 62
     4
  5
409
 10
48755.74204
 20
13105.360332
 30
0.0
 11
48755.74204
 21
13108.360322
 31
0.0
  0
LINE
  8
12
  6
CONTINUOUS
 62
     4
  5
40A
 10
48755.74204
 20
13105.360332
 30
0.0
 11
48747.24194
 21
13105.360332
 31
0.0
  0
ARC
  8
12
  6
CONTINUOUS
 62
     4
  5
40B
 10
48751.49192
 20
13113.891582
 30
0.0
 40
9.53134
 50
243.51896
 51
296.48104
  0
LINE
  8
12
  6
CONTINUOUS
 62
     4
  5
40C
 10
48750.09192
 20
13108.360322
 30
0.0
 11
48750.09192
 21
13139.360312
 31
0.0
  0
LINE
  8
12
  6
CONTINUOUS
 62
     4
  5
40D
 10
48752.89192
 20
13108.360322
 30
0.0
 11
48752.89192
 21
13139.360312
 31
0.0
  0
LINE
  8
12
  6
CONTINUOUS
 62
     4
  5
40E
 10
48750.09192
 20
13139.360312
 30
0.0
 11
48752.89192
 21
13139.360312
 31
0.0
  0
LINE
  8
12
  6
CONTINUOUS
 62
     4
  5
40F
 10
48751.49192
 20
13146.360312
 30
0.0
 11
48752.89192
 21
13139.360312
 31
0.0
  0
LINE
  8
12
  6
CONTINUOUS
 62
     4
  5
410
 10
48751.49192
 20
13146.360312
 30
0.0
 11
48750.09192
 21
13139.360312
 31
0.0
  0
LINE
  8
12
  6
CENTER
 62
     4
  5
411
 10
48751.49192
 20
13105.360332
 30
0.0
 11
48751.49192
 21
13146.360312
 31
0.0
  0
LINE
  8
12
  6
CENTER
 62
     4
  5
412
 10
48751.49192
 20
13146.360312
 30
0.0
 11
48751.49192
 21
13106.853292
 31
0.0
  0
LINE
  8
12
  6
CONTINUOUS
 62
     4
  5
413
 10
48806.40524
 20
13108.607562
 30
0.0
 11
48817.90526
 21
13108.607562
 31
0.0
  0
LINE
  8
12
  6
CONTINUOUS
 62
     4
  5
414
 10
48806.40524
 20
13109.407452
 30
0.0
 11
48817.90526
 21
13109.407452
 31
0.0
  0
LINE
  8
12
  6
CONTINUOUS
 62
     4
  5
415
 10
48806.40524
 20
13108.607562
 30
0.0
 11
48806.40524
 21
13109.407452
 31
0.0
  0
LINE
  8
12
  6
CONTINUOUS
 62
     4
  5
416
 10
48809.40516
 20
13108.607562
 30
0.0
 11
48809.40516
 21
13109.407452
 31
0.0
  0
LINE
  8
12
  6
CONTINUOUS
 62
     4
  5
417
 10
48814.9052
 20
13108.607562
 30
0.0
 11
48814.9052
 21
13109.407452
 31
0.0
  0
LINE
  8
12
  6
CONTINUOUS
 62
     4
  5
418
 10
48817.90526
 20
13108.607562
 30
0.0
 11
48817.90526
 21
13109.407452
 31
0.0
  0
LINE
  8
12
  6
CONTINUOUS
 62
     4
  5
419
 10
48745.78706
 20
13108.607562
 30
0.0
 11
48757.28708
 21
13108.607562
 31
0.0
  0
LINE
  8
12
  6
CONTINUOUS
 62
     4
  5
41A
 10
48745.78706
 20
13109.407452
 30
0.0
 11
48757.28708
 21
13109.407452
 31
0.0
  0
LINE
  8
12
  6
CONTINUOUS
 62
     4
  5
41B
 10
48745.78706
 20
13108.607562
 30
0.0
 11
48745.78706
 21
13109.407452
 31
0.0
  0
LINE
  8
12
  6
CONTINUOUS
 62
     4
  5
41C
 10
48748.78712
 20
13108.607562
 30
0.0
 11
48748.78712
 21
13109.407452
 31
0.0
  0
LINE
  8
12
  6
CONTINUOUS
 62
     4
  5
41D
 10
48754.28716
 20
13108.607562
 30
0.0
 11
48754.28716
 21
13109.407452
 31
0.0
  0
LINE
  8
12
  6
CONTINUOUS
 62
     4
  5
41E
 10
48757.28708
 20
13108.607562
 30
0.0
 11
48757.28708
 21
13109.407452
 31
0.0
  0
LINE
  8
8
  6
CONTINUOUS
 62
     4
  5
41F
 10
48764.80242
 20
13095.153702
 30
0.0
 11
48738.30686
 21
13101.991232
 31
0.0
  0
LINE
  8
8
  6
CONTINUOUS
 62
     4
  5
420
 10
48798.61466
 20
13095.123252
 30
0.0
 11
48825.3457
 21
13102.021612
 31
0.0
  0
ARC
  8
8
  6
CONTINUOUS
 62
     4
  5
421
 10
48799.77064
 20
13091.324352
 30
0.0
 40
4.00008
 50
104.470294
 51
180.0
  0
LINE
  8
50
  6
CENTER
 62
     4
  5
422
 10
48812.15518
 20
13108.607562
 30
0.0
 11
48812.15518
 21
13110.729542
 31
0.0
  0
LINE
  8
50
  6
CENTER
 62
     4
  5
423
 10
48751.53714
 20
13108.607562
 30
0.0
 11
48751.53714
 21
13110.729542
 31
0.0
  0
ARC
  8
8
  6
CONTINUOUS
 62
     4
  5
424
 10
48763.80842
 20
13091.273462
 30
0.0
 40
4.00008
 50
360.0
 51
75.529706
  0
LINE
  8
40
  6
DOT
 62
     3
  5
425
 10
49205.069487
 20
13058.360092
 30
0.0
 11
49220.069507
 21
13058.360092
 31
0.0
  0
LINE
  8
40
  6
DOT
 62
     3
  5
426
 10
49205.069487
 20
13058.360092
 30
0.0
 11
49205.069487
 21
13064.360212
 31
0.0
  0
LINE
  8
40
  6
DOT
 62
     3
  5
427
 10
49220.069507
 20
13058.360092
 30
0.0
 11
49220.069507
 21
13064.360212
 31
0.0
  0
LINE
  8
40
  6
CONTINUOUS
 62
     4
  5
428
 10
49226.569427
 20
13064.360072
 30
0.0
 11
49226.569427
 21
13086.944404
 31
0.0
  0
LINE
  8
40
  6
CONTINUOUS
 62
     4
  5
429
 10
49198.569427
 20
13064.360072
 30
0.0
 11
49198.569427
 21
13086.944404
 31
0.0
  0
LINE
  8
40
  6
CONTINUOUS
 62
     4
  5
42A
 10
49226.569427
 20
13064.360212
 30
0.0
 11
49198.569427
 21
13064.360212
 31
0.0
  0
LINE
  8
40
  6
DOT
 62
     3
  5
42B
 10
48789.30284
 20
13058.360092
 30
0.0
 11
48774.30282
 21
13058.360092
 31
0.0
  0
LINE
  8
40
  6
DOT
 62
     3
  5
42C
 10
48789.30284
 20
13058.360092
 30
0.0
 11
48789.30284
 21
13064.360212
 31
0.0
  0
LINE
  8
40
  6
DOT
 62
     3
  5
42D
 10
48774.30282
 20
13058.360092
 30
0.0
 11
48774.30282
 21
13064.360212
 31
0.0
  0
LINE
  8
40
  6
CONTINUOUS
 62
     4
  5
42E
 10
48795.8029
 20
13064.360072
 30
0.0
 11
48795.8029
 21
13086.944404
 31
0.0
  0
LINE
  8
7
  6
CONTINUOUS
 62
     4
  5
42F
 10
48767.8029
 20
13094.410281
 30
0.0
 11
48767.8029
 21
13064.360072
 31
0.0
  0
LINE
  8
7
  6
CONTINUOUS
 62
     4
  5
430
 10
48767.8029
 20
13039.318231
 30
0.0
 11
49226.569427
 21
13039.318231
 31
0.0
  0
ARC
  8
7
  6
CONTINUOUS
 62
     4
  5
431
 10
48767.8029
 20
13049.334967
 30
0.0
 40
10.016736
 50
180.0
 51
270.0
  0
LINE
  8
7
  6
CONTINUOUS
 62
     4
  5
432
 10
48757.786163
 20
13049.334967
 30
0.0
 11
48757.786163
 21
13064.360072
 31
0.0
  0
LINE
  8
40
  6
CONTINUOUS
 62
     4
  5
433
 10
48767.8029
 20
13064.360072
 30
0.0
 11
48767.8029
 21
13086.944404
 31
0.0
  0
LINE
  8
40
  6
CONTINUOUS
 62
     4
  5
434
 10
48767.8029
 20
13064.360212
 30
0.0
 11
48795.8029
 21
13064.360212
 31
0.0
  0
LINE
  8
7
  6
CONTINUOUS
 62
     4
  5
435
 10
49236.586163
 20
13049.334967
 30
0.0
 11
49236.586163
 21
13064.360072
 31
0.0
  0
LINE
  8
7
  6
CONTINUOUS
 62
     4
  5
436
 10
48757.786163
 20
13064.360072
 30
0.0
 11
49236.586163
 21
13064.360072
 31
0.0
  0
ARC
  8
7
  6
CONTINUOUS
 62
     4
  5
437
 10
49226.569427
 20
13049.334967
 30
0.0
 40
10.016736
 50
270.0
 51
360.0
  0
LINE
  8
1
  6
CONTINUOUS
 62
     6
  5
438
 10
49707.186663
 20
11294.362302
 30
0.0
 11
49857.186663
 21
11294.362302
 31
0.0
  0
LINE
  8
2
  6
CONTINUOUS
 62
     2
  5
439
 10
49848.499563
 20
11276.860302
 30
0.0
 11
49857.186663
 21
11285.13373
 31
0.0
  0
LINE
  8
2
  6
CONTINUOUS
 62
     2
  5
43A
 10
49747.186663
 20
11288.648016
 30
0.0
 11
49721.999563
 21
11266.860302
 31
0.0
  0
LINE
  8
2
  6
CONTINUOUS
 62
     2
  5
43B
 10
49765.499563
 20
11266.860302
 30
0.0
 11
49796.686663
 21
11294.362302
 31
0.0
  0
LINE
  8
2
  6
CONTINUOUS
 62
     2
  5
43C
 10
49750.999563
 20
11266.860302
 30
0.0
 11
49782.186663
 21
11294.362302
 31
0.0
  0
LINE
  8
2
  6
CONTINUOUS
 62
     2
  5
43D
 10
49779.999563
 20
11266.860302
 30
0.0
 11
49811.186663
 21
11294.362302
 31
0.0
  0
LINE
  8
2
  6
CONTINUOUS
 62
     2
  5
43E
 10
49794.499563
 20
11266.860302
 30
0.0
 11
49825.686663
 21
11294.362302
 31
0.0
  0
LINE
  8
2
  6
CONTINUOUS
 62
     2
  5
43F
 10
49808.999563
 20
11266.860302
 30
0.0
 11
49840.186663
 21
11294.362302
 31
0.0
  0
LINE
  8
2
  6
CONTINUOUS
 62
     2
  5
440
 10
49823.499563
 20
11266.860302
 30
0.0
 11
49852.186663
 21
11291.981349
 31
0.0
  0
LINE
  8
2
  6
CONTINUOUS
 62
     2
  5
441
 10
49707.499563
 20
11266.860302
 30
0.0
 11
49738.686663
 21
11294.362302
 31
0.0
  0
LINE
  8
2
  6
CONTINUOUS
 62
     2
  5
442
 10
49707.186663
 20
11280.371825
 30
0.0
 11
49724.186663
 21
11294.362302
 31
0.0
  0
LINE
  8
2
  6
CONTINUOUS
 62
     2
  5
443
 10
49736.499563
 20
11266.860302
 30
0.0
 11
49762.436663
 21
11289.362302
 31
0.0
  0
LINE
  8
2
  6
CONTINUOUS
 62
     2
  5
444
 10
49750.373763
 20
12222.797482
 30
0.0
 11
49719.186663
 21
12195.295482
 31
0.0
  0
LINE
  8
2
  6
CONTINUOUS
 62
     2
  5
445
 10
49764.873763
 20
12222.797482
 30
0.0
 11
49733.686663
 21
12195.295482
 31
0.0
  0
LINE
  8
2
  6
CONTINUOUS
 62
     2
  5
446
 10
49735.873763
 20
12222.797482
 30
0.0
 11
49704.686663
 21
12195.295482
 31
0.0
  0
LINE
  8
2
  6
CONTINUOUS
 62
     2
  5
447
 10
49808.373763
 20
12222.797482
 30
0.0
 11
49777.186663
 21
12195.295482
 31
0.0
  0
LINE
  8
2
  6
CONTINUOUS
 62
     2
  5
448
 10
49808.686663
 20
12209.285958
 30
0.0
 11
49791.686663
 21
12195.295482
 31
0.0
  0
LINE
  8
2
  6
CONTINUOUS
 62
     2
  5
449
 10
49721.373763
 20
12222.797482
 30
0.0
 11
49707.186663
 21
12210.286744
 31
0.0
  0
LINE
  8
2
  6
CONTINUOUS
 62
     2
  5
44A
 10
49793.873763
 20
12222.797482
 30
0.0
 11
49762.080817
 21
12195.295482
 31
0.0
  0
LINE
  8
2
  6
CONTINUOUS
 62
     2
  5
44B
 10
49779.373763
 20
12222.797482
 30
0.0
 11
49747.673376
 21
12195.295482
 31
0.0
  0
LINE
  8
2
  6
CONTINUOUS
 62
     2
  5
44C
 10
49805.499643
 20
13017.360312
 30
0.0
 11
49836.686743
 21
13044.862312
 31
0.0
  0
LINE
  8
2
  6
CONTINUOUS
 62
     2
  5
44D
 10
49790.999643
 20
13017.360312
 30
0.0
 11
49822.186743
 21
13044.862312
 31
0.0
  0
LINE
  8
2
  6
CONTINUOUS
 62
     2
  5
44E
 10
49819.999643
 20
13017.360312
 30
0.0
 11
49851.186743
 21
13044.862312
 31
0.0
  0
LINE
  8
2
  6
CONTINUOUS
 62
     2
  5
44F
 10
49834.499643
 20
13017.360312
 30
0.0
 11
49848.686743
 21
13029.871049
 31
0.0
  0
LINE
  8
2
  6
CONTINUOUS
 62
     2
  5
450
 10
49808.200031
 20
13044.862312
 30
0.0
 11
49791.186663
 21
13030.102188
 31
0.0
  0
LINE
  8
5
  6
CONTINUOUS
 62
     3
  5
451
 10
49152.966968
 20
12889.318231
 30
0.0
 11
49562.966968
 21
12889.318231
 31
0.0
  0
LINE
  8
5
  6
CONTINUOUS
 62
     3
  5
452
 10
49066.364428
 20
13039.318231
 30
0.0
 11
49152.966968
 21
12889.318231
 31
0.0
  0
LINE
  8
5
  6
CONTINUOUS
 62
     3
  5
453
 10
49649.569508
 20
12739.318231
 30
0.0
 11
49562.966968
 21
12889.318231
 31
0.0
  0
TEXT
  8
5
  6
CONTINUOUS
 62
     3
  5
454
 10
49177.089311
 20
12889.318231
 30
0.0
 40
60.0
  1
テスリックス
 41
0.837
  7

 72
     5
 11
49537.089311
 21
12889.318231
 31
0.0
  0
LINE
  8
1
  6
CONTINUOUS
 62
     3
  5
455
 10
49095.936463
 20
12204.007761
 30
0.0
 11
49145.936463
 21
12190.610302
 31
0.0
  0
LINE
  8
1
  6
CONTINUOUS
 62
     3
  5
456
 10
49095.936463
 20
12177.212842
 30
0.0
 11
49145.936463
 21
12190.610302
 31
0.0
  0
LINE
  8
1
  6
CONTINUOUS
 62
     3
  5
457
 10
48907.539004
 20
12365.610302
 30
0.0
 11
48920.936463
 21
12415.610302
 31
0.0
  0
LINE
  8
1
  6
CONTINUOUS
 62
     3
  5
458
 10
48934.333923
 20
12365.610302
 30
0.0
 11
48920.936463
 21
12415.610302
 31
0.0
  0
TEXT
  8
1
  6
CONTINUOUS
 62
     3
  5
459
 10
48886.537413
 20
12424.751347
 30
0.0
 40
90.0
  1
A
 41
0.75
  7

 72
     5
 11
48954.037413
 21
12424.751347
 31
0.0
  0
LINE
  8
1
  6
CONTINUOUS
 62
     3
  5
45A
 10
49020.936463
 20
12190.610302
 30
0.0
 11
49145.936463
 21
12190.610302
 31
0.0
  0
LINE
  8
1
  6
CONTINUOUS
 62
     3
  5
45B
 10
48920.936463
 20
12415.610302
 30
0.0
 11
48920.936463
 21
12290.610302
 31
0.0
  0
TEXT
  8
1
  6
CONTINUOUS
 62
     3
  5
45C
 10
49158.595198
 20
12145.375512
 30
0.0
 40
90.0
  1
B
 41
0.75
  7

 72
     5
 11
49226.095198
 21
12145.375512
 31
0.0
  0
TEXT
  8
5
  6
CONTINUOUS
 62
     3
  5
45D
 10
48813.195577
 20
10936.294639
 30
0.0
 40
90.0
  1
平面図
 41
0.837
  7

 72
     5
 11
49083.195577
 21
10936.294639
 31
0.0
  0
TEXT
  8
5
  6
CONTINUOUS
 62
     3
  5
45E
 10
49987.185163
 20
13048.261872
 30
0.0
 40
60.0
  1
190
 50
90.0
 41
0.666667
  7

 72
     5
 11
49987.185163
 21
13168.261872
 31
0.0
  0
TEXT
  8
5
  6
CONTINUOUS
 62
     3
  5
45F
 10
49987.185163
 20
12473.262942
 30
0.0
 40
60.0
  1
920
 50
90.0
 41
0.666667
  7

 72
     5
 11
49987.185163
 21
12593.262942
 31
0.0
  0
TEXT
  8
5
  6
CONTINUOUS
 62
     3
  5
460
 10
50087.185163
 20
12114.360802
 30
0.0
 40
60.0
  1
2,000
 50
90.0
 41
0.6
  7

 72
     5
 11
50087.185163
 21
12294.360802
 31
0.0
  0
TEXT
  8
5
  6
CONTINUOUS
 62
     3
  5
461
 10
49987.185163
 20
11709.362302
 30
0.0
 40
60.0
  1
800
 50
90.0
 41
0.666667
  7

 72
     5
 11
49987.185163
 21
11829.362302
 31
0.0
  0
TEXT
  8
5
  6
CONTINUOUS
 62
     3
  5
462
 10
49987.185163
 20
11203.261302
 30
0.0
 40
60.0
  1
90
 50
90.0
 41
0.75
  7

 72
     5
 11
49987.185163
 21
11293.261302
 31
0.0
  0
LINE
  8
5
  6
CONTINUOUS
 62
     5
  5
463
 10
46882.395087
 20
10780.453374
 30
0.0
 11
46882.395087
 21
8480.453374
 31
0.0
  0
LINE
  8
5
  6
CONTINUOUS
 62
     5
  5
464
 10
46882.395087
 20
10780.453374
 30
0.0
 11
48479.895087
 21
10780.453374
 31
0.0
  0
LINE
  8
5
  6
CONTINUOUS
 62
     5
  5
465
 10
46882.395087
 20
8480.453374
 30
0.0
 11
48479.895087
 21
8480.453374
 31
0.0
  0
LINE
  8
5
  6
CONTINUOUS
 62
     4
  5
466
 10
48479.895087
 20
10780.453374
 30
0.0
 11
48479.895087
 21
8480.453374
 31
0.0
  0
LINE
  8
5
  6
CONTINUOUS
 62
     3
  5
467
 10
46882.395087
 20
9960.453374
 30
0.0
 11
46882.395087
 21
9760.453374
 31
0.0
  0
CIRCLE
  8
5
  6
CONTINUOUS
 62
     3
  5
468
 10
46882.395087
 20
9860.453374
 30
0.0
 40
7.5
  0
CIRCLE
  8
5
  6
CONTINUOUS
 62
     3
  5
469
 10
46882.395087
 20
9960.453374
 30
0.0
 40
7.5
  0
LINE
  8
5
  6
CONTINUOUS
 62
     5
  5
46A
 10
48814.896087
 20
10780.453374
 30
0.0
 11
48814.896087
 21
8480.453374
 31
0.0
  0
LINE
  8
5
  6
CONTINUOUS
 62
     5
  5
46B
 10
50632.395087
 20
10780.453374
 30
0.0
 11
50632.395087
 21
8480.453374
 31
0.0
  0
LINE
  8
5
  6
CONTINUOUS
 62
     5
  5
46C
 10
50632.395087
 20
10780.453374
 30
0.0
 11
48814.896087
 21
10780.453374
 31
0.0
  0
LINE
  8
2
  6
CONTINUOUS
 62
     5
  5
46D
 10
50632.395087
 20
10780.451374
 30
0.0
 11
50632.395087
 21
8480.453374
 31
0.0
  0
LINE
  8
5
  6
CONTINUOUS
 62
     3
  5
46E
 10
49464.896087
 20
9960.453374
 30
0.0
 11
49464.896087
 21
9760.453374
 31
0.0
  0
LINE
  8
5
  6
CONTINUOUS
 62
     3
  5
46F
 10
48814.896087
 20
9960.453374
 30
0.0
 11
48814.896087
 21
9760.453374
 31
0.0
  0
LINE
  8
5
  6
CONTINUOUS
 62
     3
  5
470
 10
49014.896087
 20
9860.453374
 30
0.0
 11
49014.896087
 21
9760.453374
 31
0.0
  0
CIRCLE
  8
5
  6
CONTINUOUS
 62
     3
  5
471
 10
49464.896087
 20
9960.453374
 30
0.0
 40
7.5
  0
CIRCLE
  8
5
  6
CONTINUOUS
 62
     3
  5
472
 10
48814.896087
 20
9960.453374
 30
0.0
 40
7.5
  0
CIRCLE
  8
5
  6
CONTINUOUS
 62
     3
  5
473
 10
48814.896087
 20
9860.453374
 30
0.0
 40
7.5
  0
CIRCLE
  8
5
  6
CONTINUOUS
 62
     3
  5
474
 10
49014.896087
 20
9860.453374
 30
0.0
 40
7.5
  0
CIRCLE
  8
5
  6
CONTINUOUS
 62
     3
  5
475
 10
49464.896087
 20
9860.453374
 30
0.0
 40
7.5
  0
TEXT
  8
5
  6
CONTINUOUS
 62
     3
  5
476
 10
49079.896087
 20
9960.453374
 30
0.0
 40
60.0
  1
650
 41
0.666667
  7

 72
     5
 11
49199.896087
 21
9960.453374
 31
0.0
  0
LINE
  8
5
  6
CONTINUOUS
 62
     3
  5
477
 10
49464.896087
 20
9960.453374
 30
0.0
 11
48814.896087
 21
9960.453374
 31
0.0
  0
TEXT
  8
5
  6
CONTINUOUS
 62
     3
  5
478
 10
48854.896087
 20
9860.453374
 30
0.0
 40
60.0
  1
200
 41
0.666667
  7

 72
     5
 11
48974.896087
 21
9860.453374
 31
0.0
  0
LINE
  8
5
  6
CONTINUOUS
 62
     3
  5
479
 10
48814.896087
 20
9860.453374
 30
0.0
 11
49014.896087
 21
9860.453374
 31
0.0
  0
TEXT
  8
5
  6
CONTINUOUS
 62
     3
  5
47A
 10
49179.896087
 20
9860.453374
 30
0.0
 40
60.0
  1
450
 41
0.666667
  7

 72
     5
 11
49299.896087
 21
9860.453374
 31
0.0
  0
LINE
  8
5
  6
CONTINUOUS
 62
     3
  5
47B
 10
49014.896087
 20
9860.453374
 30
0.0
 11
49464.896087
 21
9860.453374
 31
0.0
  0
LINE
  8
5
  6
CONTINUOUS
 62
     5
  5
47C
 10
50632.395087
 20
8480.453374
 30
0.0
 11
48814.896087
 21
8480.453374
 31
0.0
  0
ARC
  8
7
  6
CONTINUOUS
 62
     4
  5
47D
 10
49491.896087
 20
9580.453374
 30
0.0
 40
7.7
 50
90.0
 51
270.0
  0
ARC
  8
7
  6
CONTINUOUS
 62
     4
  5
47E
 10
49491.896087
 20
9580.453374
 30
0.0
 40
6.8
 50
90.0
 51
270.0
  0
LINE
  8
7
  6
CONTINUOUS
 62
     4
  5
47F
 10
49498.896087
 20
9588.053374
 30
0.0
 11
49491.896087
 21
9588.053374
 31
0.0
  0
LINE
  8
7
  6
CONTINUOUS
 62
     4
  5
480
 10
49491.896087
 20
9587.153374
 30
0.0
 11
49498.196087
 21
9587.153374
 31
0.0
  0
ARC
  8
7
  6
CONTINUOUS
 62
     4
  5
481
 10
49456.896087
 20
9580.453374
 30
0.0
 40
41.8
 50
350.63
 51
9.02
  0
LINE
  8
7
  6
CONTINUOUS
 62
     4
  5
482
 10
49491.896087
 20
9573.653374
 30
0.0
 11
49498.096087
 21
9573.653374
 31
0.0
  0
LINE
  8
7
  6
CONTINUOUS
 62
     4
  5
483
 10
49498.896087
 20
9572.753374
 30
0.0
 11
49491.896087
 21
9572.753374
 31
0.0
  0
ARC
  8
7
  6
CONTINUOUS
 62
     4
  5
484
 10
49456.896087
 20
9580.453374
 30
0.0
 40
45.0
 50
299.87
 51
60.13
  0
ARC
  8
7
  6
DIVIDE
 62
     4
  5
485
 10
49456.896087
 20
9580.453374
 30
0.0
 40
42.7
 50
301.61
 51
58.39
  0
CIRCLE
  8
7
  6
CONTINUOUS
 62
     4
  5
486
 10
49491.896087
 20
9580.453374
 30
0.0
 40
4.0
  0
CIRCLE
  8
7
  6
CONTINUOUS
 62
     4
  5
487
 10
49491.896087
 20
9580.453374
 30
0.0
 40
4.4
  0
ARC
  8
7
  6
CONTINUOUS
 62
     4
  5
488
 10
49439.396087
 20
9610.753374
 30
0.0
 40
7.7
 50
210.0
 51
30.0
  0
ARC
  8
7
  6
CONTINUOUS
 62
     4
  5
489
 10
49439.396087
 20
9610.753374
 30
0.0
 40
6.8
 50
210.0
 51
30.0
  0
LINE
  8
7
  6
CONTINUOUS
 62
     4
  5
48A
 10
49429.296087
 20
9613.053374
 30
0.0
 11
49432.796087
 21
9606.953374
 31
0.0
  0
LINE
  8
7
  6
CONTINUOUS
 62
     4
  5
48B
 10
49433.596087
 20
9607.453374
 30
0.0
 11
49430.396087
 21
9612.853374
 31
0.0
  0
ARC
  8
7
  6
CONTINUOUS
 62
     4
  5
48C
 10
49456.896087
 20
9580.453374
 30
0.0
 40
41.8
 50
110.63
 51
129.02
  0
LINE
  8
7
  6
CONTINUOUS
 62
     4
  5
48D
 10
49445.296087
 20
9614.153374
 30
0.0
 11
49442.196087
 21
9619.553374
 31
0.0
  0
LINE
  8
7
  6
CONTINUOUS
 62
     4
  5
48E
 10
49442.596087
 20
9620.653374
 30
0.0
 11
49446.096087
 21
9614.653374
 31
0.0
  0
ARC
  8
7
  6
DIVIDE
 62
     4
  5
48F
 10
49456.896087
 20
9580.453374
 30
0.0
 40
42.7
 50
98.62
 51
160.29
  0
ARC
  8
7
  6
CONTINUOUS
 62
     4
  5
490
 10
49456.896087
 20
9580.453374
 30
0.0
 40
45.0
 50
98.18
 51
161.32
  0
CIRCLE
  8
7
  6
CONTINUOUS
 62
     4
  5
491
 10
49439.396087
 20
9610.753374
 30
0.0
 40
4.0
  0
CIRCLE
  8
7
  6
CONTINUOUS
 62
     4
  5
492
 10
49439.396087
 20
9610.753374
 30
0.0
 40
4.4
  0
ARC
  8
7
  6
CONTINUOUS
 62
     4
  5
493
 10
49439.396087
 20
9550.153374
 30
0.0
 40
7.7
 50
330.0
 51
150.0
  0
ARC
  8
7
  6
CONTINUOUS
 62
     4
  5
494
 10
49439.396087
 20
9550.153374
 30
0.0
 40
6.8
 50
330.0
 51
150.0
  0
LINE
  8
7
  6
CONTINUOUS
 62
     4
  5
495
 10
49442.496087
 20
9540.253374
 30
0.0
 11
49445.996087
 21
9546.353374
 31
0.0
  0
LINE
  8
7
  6
CONTINUOUS
 62
     4
  5
496
 10
49445.196087
 20
9546.753374
 30
0.0
 11
49442.096087
 21
9541.353374
 31
0.0
  0
ARC
  8
7
  6
CONTINUOUS
 62
     4
  5
497
 10
49456.896087
 20
9580.453374
 30
0.0
 40
41.8
 50
230.63
 51
249.02
  0
LINE
  8
7
  6
CONTINUOUS
 62
     4
  5
498
 10
49433.496087
 20
9553.553374
 30
0.0
 11
49430.396087
 21
9548.153374
 31
0.0
  0
LINE
  8
7
  6
CONTINUOUS
 62
     4
  5
499
 10
49429.196087
 20
9547.953374
 30
0.0
 11
49432.696087
 21
9553.953374
 31
0.0
  0
ARC
  8
7
  6
DIVIDE
 62
     4
  5
49A
 10
49456.896087
 20
9580.453374
 30
0.0
 40
42.7
 50
199.71
 51
261.38
  0
ARC
  8
7
  6
CONTINUOUS
 62
     4
  5
49B
 10
49456.896087
 20
9580.453374
 30
0.0
 40
45.0
 50
198.68
 51
261.82
  0
CIRCLE
  8
7
  6
CONTINUOUS
 62
     4
  5
49C
 10
49439.396087
 20
9550.153374
 30
0.0
 40
4.0
  0
CIRCLE
  8
7
  6
CONTINUOUS
 62
     4
  5
49D
 10
49439.396087
 20
9550.153374
 30
0.0
 40
4.4
  0
ARC
  8
7
  6
CONTINUOUS
 62
     4
  5
49E
 10
49491.896087
 20
9280.453374
 30
0.0
 40
7.7
 50
90.0
 51
270.0
  0
ARC
  8
7
  6
CONTINUOUS
 62
     4
  5
49F
 10
49491.896087
 20
9280.453374
 30
0.0
 40
6.8
 50
90.0
 51
270.0
  0
LINE
  8
7
  6
CONTINUOUS
 62
     4
  5
4A0
 10
49498.896087
 20
9288.053374
 30
0.0
 11
49491.896087
 21
9288.053374
 31
0.0
  0
LINE
  8
7
  6
CONTINUOUS
 62
     4
  5
4A1
 10
49491.896087
 20
9287.153374
 30
0.0
 11
49498.196087
 21
9287.153374
 31
0.0
  0
ARC
  8
7
  6
CONTINUOUS
 62
     4
  5
4A2
 10
49456.896087
 20
9280.453374
 30
0.0
 40
41.8
 50
350.63
 51
9.02
  0
LINE
  8
7
  6
CONTINUOUS
 62
     4
  5
4A3
 10
49491.896087
 20
9273.653374
 30
0.0
 11
49498.096087
 21
9273.653374
 31
0.0
  0
LINE
  8
7
  6
CONTINUOUS
 62
     4
  5
4A4
 10
49498.896087
 20
9272.753374
 30
0.0
 11
49491.896087
 21
9272.753374
 31
0.0
  0
ARC
  8
7
  6
DIVIDE
 62
     4
  5
4A5
 10
49456.896087
 20
9280.453374
 30
0.0
 40
42.7
 50
301.61
 51
58.39
  0
ARC
  8
7
  6
CONTINUOUS
 62
     4
  5
4A6
 10
49456.896087
 20
9280.453374
 30
0.0
 40
45.0
 50
299.87
 51
60.13
  0
CIRCLE
  8
7
  6
CONTINUOUS
 62
     4
  5
4A7
 10
49491.896087
 20
9280.453374
 30
0.0
 40
4.0
  0
CIRCLE
  8
7
  6
CONTINUOUS
 62
     4
  5
4A8
 10
49491.896087
 20
9280.453374
 30
0.0
 40
4.4
  0
ARC
  8
7
  6
CONTINUOUS
 62
     4
  5
4A9
 10
49439.396087
 20
9250.153374
 30
0.0
 40
7.7
 50
330.0
 51
150.0
  0
ARC
  8
7
  6
CONTINUOUS
 62
     4
  5
4AA
 10
49439.396087
 20
9250.153374
 30
0.0
 40
6.8
 50
330.0
 51
150.0
  0
LINE
  8
7
  6
CONTINUOUS
 62
     4
  5
4AB
 10
49442.496087
 20
9240.253374
 30
0.0
 11
49445.996087
 21
9246.353374
 31
0.0
  0
LINE
  8
7
  6
CONTINUOUS
 62
     4
  5
4AC
 10
49445.196087
 20
9246.753374
 30
0.0
 11
49442.096087
 21
9241.353374
 31
0.0
  0
ARC
  8
7
  6
CONTINUOUS
 62
     4
  5
4AD
 10
49456.896087
 20
9280.453374
 30
0.0
 40
41.8
 50
230.63
 51
249.02
  0
LINE
  8
7
  6
CONTINUOUS
 62
     4
  5
4AE
 10
49433.496087
 20
9253.553374
 30
0.0
 11
49430.396087
 21
9248.153374
 31
0.0
  0
LINE
  8
7
  6
CONTINUOUS
 62
     4
  5
4AF
 10
49429.196087
 20
9247.953374
 30
0.0
 11
49432.696087
 21
9253.953374
 31
0.0
  0
ARC
  8
7
  6
DIVIDE
 62
     4
  5
4B0
 10
49456.896087
 20
9280.453374
 30
0.0
 40
42.7
 50
199.71
 51
261.38
  0
ARC
  8
7
  6
CONTINUOUS
 62
     4
  5
4B1
 10
49456.896087
 20
9280.453374
 30
0.0
 40
45.0
 50
198.68
 51
261.82
  0
CIRCLE
  8
7
  6
CONTINUOUS
 62
     4
  5
4B2
 10
49439.396087
 20
9250.153374
 30
0.0
 40
4.0
  0
CIRCLE
  8
7
  6
CONTINUOUS
 62
     4
  5
4B3
 10
49439.396087
 20
9250.153374
 30
0.0
 40
4.4
  0
ARC
  8
7
  6
CONTINUOUS
 62
     4
  5
4B4
 10
49439.396087
 20
9310.753374
 30
0.0
 40
7.7
 50
210.0
 51
30.0
  0
ARC
  8
7
  6
CONTINUOUS
 62
     4
  5
4B5
 10
49439.396087
 20
9310.753374
 30
0.0
 40
6.8
 50
210.0
 51
30.0
  0
LINE
  8
7
  6
CONTINUOUS
 62
     4
  5
4B6
 10
49429.296087
 20
9313.053374
 30
0.0
 11
49432.796087
 21
9306.953374
 31
0.0
  0
LINE
  8
7
  6
CONTINUOUS
 62
     4
  5
4B7
 10
49433.596087
 20
9307.453374
 30
0.0
 11
49430.396087
 21
9312.853374
 31
0.0
  0
ARC
  8
7
  6
CONTINUOUS
 62
     4
  5
4B8
 10
49456.896087
 20
9280.453374
 30
0.0
 40
41.8
 50
110.63
 51
129.02
  0
LINE
  8
7
  6
CONTINUOUS
 62
     4
  5
4B9
 10
49445.296087
 20
9314.153374
 30
0.0
 11
49442.196087
 21
9319.553374
 31
0.0
  0
LINE
  8
7
  6
CONTINUOUS
 62
     4
  5
4BA
 10
49442.596087
 20
9320.653374
 30
0.0
 11
49446.096087
 21
9314.653374
 31
0.0
  0
ARC
  8
7
  6
DIVIDE
 62
     4
  5
4BB
 10
49456.896087
 20
9280.453374
 30
0.0
 40
42.7
 50
98.62
 51
160.29
  0
ARC
  8
7
  6
CONTINUOUS
 62
     4
  5
4BC
 10
49456.896087
 20
9280.453374
 30
0.0
 40
45.0
 50
98.18
 51
161.32
  0
CIRCLE
  8
7
  6
CONTINUOUS
 62
     4
  5
4BD
 10
49439.396087
 20
9310.753374
 30
0.0
 40
4.0
  0
CIRCLE
  8
7
  6
CONTINUOUS
 62
     4
  5
4BE
 10
49439.396087
 20
9310.753374
 30
0.0
 40
4.4
  0
ARC
  8
7
  6
CONTINUOUS
 62
     4
  5
4BF
 10
49040.396087
 20
9310.753374
 30
0.0
 40
7.7
 50
150.0
 51
330.0
  0
ARC
  8
7
  6
CONTINUOUS
 62
     4
  5
4C0
 10
49040.396087
 20
9310.753374
 30
0.0
 40
6.8
 50
150.0
 51
330.0
  0
LINE
  8
7
  6
CONTINUOUS
 62
     4
  5
4C1
 10
49037.296087
 20
9320.653374
 30
0.0
 11
49033.796087
 21
9314.553374
 31
0.0
  0
LINE
  8
7
  6
CONTINUOUS
 62
     4
  5
4C2
 10
49034.596087
 20
9314.153374
 30
0.0
 11
49037.696087
 21
9319.553374
 31
0.0
  0
ARC
  8
7
  6
CONTINUOUS
 62
     4
  5
4C3
 10
49022.896087
 20
9280.453374
 30
0.0
 40
41.8
 50
50.63
 51
69.02
  0
LINE
  8
7
  6
CONTINUOUS
 62
     4
  5
4C4
 10
49046.296087
 20
9307.353374
 30
0.0
 11
49049.396087
 21
9312.753374
 31
0.0
  0
LINE
  8
7
  6
CONTINUOUS
 62
     4
  5
4C5
 10
49050.596087
 20
9312.953374
 30
0.0
 11
49047.096087
 21
9306.953374
 31
0.0
  0
ARC
  8
7
  6
DIVIDE
 62
     4
  5
4C6
 10
49022.896087
 20
9280.453374
 30
0.0
 40
42.7
 50
19.71
 51
81.38
  0
ARC
  8
7
  6
CONTINUOUS
 62
     4
  5
4C7
 10
49022.896087
 20
9280.453374
 30
0.0
 40
45.0
 50
18.68
 51
81.82
  0
CIRCLE
  8
7
  6
CONTINUOUS
 62
     4
  5
4C8
 10
49040.396087
 20
9310.753374
 30
0.0
 40
4.4
  0
CIRCLE
  8
7
  6
CONTINUOUS
 62
     4
  5
4C9
 10
49040.396087
 20
9310.753374
 30
0.0
 40
4.0
  0
ARC
  8
7
  6
CONTINUOUS
 62
     4
  5
4CA
 10
49040.396087
 20
9250.153374
 30
0.0
 40
7.7
 50
30.0
 51
210.0
  0
ARC
  8
7
  6
CONTINUOUS
 62
     4
  5
4CB
 10
49040.396087
 20
9250.153374
 30
0.0
 40
6.8
 50
30.0
 51
210.0
  0
LINE
  8
7
  6
CONTINUOUS
 62
     4
  5
4CC
 10
49050.496087
 20
9247.853374
 30
0.0
 11
49046.996087
 21
9253.953374
 31
0.0
  0
LINE
  8
7
  6
CONTINUOUS
 62
     4
  5
4CD
 10
49046.196087
 20
9253.453374
 30
0.0
 11
49049.396087
 21
9248.053374
 31
0.0
  0
ARC
  8
7
  6
CONTINUOUS
 62
     4
  5
4CE
 10
49022.896087
 20
9280.453374
 30
0.0
 40
41.8
 50
290.63
 51
309.02
  0
LINE
  8
7
  6
CONTINUOUS
 62
     4
  5
4CF
 10
49034.496087
 20
9246.753374
 30
0.0
 11
49037.596087
 21
9241.353374
 31
0.0
  0
LINE
  8
7
  6
CONTINUOUS
 62
     4
  5
4D0
 10
49037.196087
 20
9240.253374
 30
0.0
 11
49033.696087
 21
9246.253374
 31
0.0
  0
ARC
  8
7
  6
CONTINUOUS
 62
     4
  5
4D1
 10
49022.896087
 20
9280.453374
 30
0.0
 40
45.0
 50
278.18
 51
341.32
  0
ARC
  8
7
  6
DIVIDE
 62
     4
  5
4D2
 10
49022.896087
 20
9280.453374
 30
0.0
 40
42.7
 50
278.62
 51
340.29
  0
CIRCLE
  8
7
  6
CONTINUOUS
 62
     4
  5
4D3
 10
49040.396087
 20
9250.153374
 30
0.0
 40
4.0
  0
CIRCLE
  8
7
  6
CONTINUOUS
 62
     4
  5
4D4
 10
49040.396087
 20
9250.153374
 30
0.0
 40
4.4
  0
ARC
  8
7
  6
CONTINUOUS
 62
     4
  5
4D5
 10
48987.896087
 20
9280.453374
 30
0.0
 40
7.7
 50
270.0
 51
90.0
  0
ARC
  8
7
  6
CONTINUOUS
 62
     4
  5
4D6
 10
48987.896087
 20
9280.453374
 30
0.0
 40
6.8
 50
270.0
 51
90.0
  0
LINE
  8
7
  6
CONTINUOUS
 62
     4
  5
4D7
 10
48980.896087
 20
9272.853374
 30
0.0
 11
48987.896087
 21
9272.853374
 31
0.0
  0
LINE
  8
7
  6
CONTINUOUS
 62
     4
  5
4D8
 10
48987.896087
 20
9273.753374
 30
0.0
 11
48981.596087
 21
9273.753374
 31
0.0
  0
ARC
  8
7
  6
CONTINUOUS
 62
     4
  5
4D9
 10
49022.896087
 20
9280.453374
 30
0.0
 40
41.8
 50
170.63
 51
189.02
  0
LINE
  8
7
  6
CONTINUOUS
 62
     4
  5
4DA
 10
48987.896087
 20
9287.253374
 30
0.0
 11
48981.696087
 21
9287.253374
 31
0.0
  0
LINE
  8
7
  6
CONTINUOUS
 62
     4
  5
4DB
 10
48980.896087
 20
9288.153374
 30
0.0
 11
48987.896087
 21
9288.153374
 31
0.0
  0
ARC
  8
7
  6
CONTINUOUS
 62
     4
  5
4DC
 10
49022.896087
 20
9280.453374
 30
0.0
 40
45.0
 50
119.87
 51
240.13
  0
ARC
  8
7
  6
DIVIDE
 62
     4
  5
4DD
 10
49022.896087
 20
9280.453374
 30
0.0
 40
42.7
 50
121.61
 51
238.39
  0
CIRCLE
  8
7
  6
CONTINUOUS
 62
     4
  5
4DE
 10
48987.896087
 20
9280.453374
 30
0.0
 40
4.0
  0
CIRCLE
  8
7
  6
CONTINUOUS
 62
     4
  5
4DF
 10
48987.896087
 20
9280.453374
 30
0.0
 40
4.4
  0
ARC
  8
7
  6
CONTINUOUS
 62
     4
  5
4E0
 10
49040.396087
 20
9610.753374
 30
0.0
 40
7.7
 50
150.0
 51
330.0
  0
ARC
  8
7
  6
CONTINUOUS
 62
     4
  5
4E1
 10
49040.396087
 20
9610.753374
 30
0.0
 40
6.8
 50
150.0
 51
330.0
  0
LINE
  8
7
  6
CONTINUOUS
 62
     4
  5
4E2
 10
49037.296087
 20
9620.653374
 30
0.0
 11
49033.796087
 21
9614.553374
 31
0.0
  0
LINE
  8
7
  6
CONTINUOUS
 62
     4
  5
4E3
 10
49034.596087
 20
9614.153374
 30
0.0
 11
49037.696087
 21
9619.553374
 31
0.0
  0
ARC
  8
7
  6
CONTINUOUS
 62
     4
  5
4E4
 10
49022.896087
 20
9580.453374
 30
0.0
 40
41.8
 50
50.63
 51
69.02
  0
LINE
  8
7
  6
CONTINUOUS
 62
     4
  5
4E5
 10
49046.296087
 20
9607.353374
 30
0.0
 11
49049.396087
 21
9612.753374
 31
0.0
  0
LINE
  8
7
  6
CONTINUOUS
 62
     4
  5
4E6
 10
49050.596087
 20
9612.953374
 30
0.0
 11
49047.096087
 21
9606.953374
 31
0.0
  0
ARC
  8
7
  6
CONTINUOUS
 62
     4
  5
4E7
 10
49022.896087
 20
9580.453374
 30
0.0
 40
45.0
 50
18.68
 51
81.82
  0
ARC
  8
7
  6
DIVIDE
 62
     4
  5
4E8
 10
49022.896087
 20
9580.453374
 30
0.0
 40
42.7
 50
19.71
 51
81.38
  0
CIRCLE
  8
7
  6
CONTINUOUS
 62
     4
  5
4E9
 10
49040.396087
 20
9610.753374
 30
0.0
 40
4.4
  0
CIRCLE
  8
7
  6
CONTINUOUS
 62
     4
  5
4EA
 10
49040.396087
 20
9610.753374
 30
0.0
 40
4.0
  0
ARC
  8
7
  6
CONTINUOUS
 62
     4
  5
4EB
 10
49040.396087
 20
9550.153374
 30
0.0
 40
7.7
 50
30.0
 51
210.0
  0
ARC
  8
7
  6
CONTINUOUS
 62
     4
  5
4EC
 10
49040.396087
 20
9550.153374
 30
0.0
 40
6.8
 50
30.0
 51
210.0
  0
LINE
  8
7
  6
CONTINUOUS
 62
     4
  5
4ED
 10
49050.496087
 20
9547.853374
 30
0.0
 11
49046.996087
 21
9553.953374
 31
0.0
  0
LINE
  8
7
  6
CONTINUOUS
 62
     4
  5
4EE
 10
49046.196087
 20
9553.453374
 30
0.0
 11
49049.396087
 21
9548.053374
 31
0.0
  0
ARC
  8
7
  6
CONTINUOUS
 62
     4
  5
4EF
 10
49022.896087
 20
9580.453374
 30
0.0
 40
41.8
 50
290.63
 51
309.02
  0
LINE
  8
7
  6
CONTINUOUS
 62
     4
  5
4F0
 10
49034.496087
 20
9546.753374
 30
0.0
 11
49037.596087
 21
9541.353374
 31
0.0
  0
LINE
  8
7
  6
CONTINUOUS
 62
     4
  5
4F1
 10
49037.196087
 20
9540.253374
 30
0.0
 11
49033.696087
 21
9546.253374
 31
0.0
  0
ARC
  8
7
  6
DIVIDE
 62
     4
  5
4F2
 10
49022.896087
 20
9580.453374
 30
0.0
 40
42.7
 50
278.62
 51
340.29
  0
ARC
  8
7
  6
CONTINUOUS
 62
     4
  5
4F3
 10
49022.896087
 20
9580.453374
 30
0.0
 40
45.0
 50
278.18
 51
341.32
  0
CIRCLE
  8
7
  6
CONTINUOUS
 62
     4
  5
4F4
 10
49040.396087
 20
9550.153374
 30
0.0
 40
4.0
  0
CIRCLE
  8
7
  6
CONTINUOUS
 62
     4
  5
4F5
 10
49040.396087
 20
9550.153374
 30
0.0
 40
4.4
  0
ARC
  8
7
  6
CONTINUOUS
 62
     4
  5
4F6
 10
48987.896087
 20
9580.453374
 30
0.0
 40
7.7
 50
270.0
 51
90.0
  0
ARC
  8
7
  6
CONTINUOUS
 62
     4
  5
4F7
 10
48987.896087
 20
9580.453374
 30
0.0
 40
6.8
 50
270.0
 51
90.0
  0
LINE
  8
7
  6
CONTINUOUS
 62
     4
  5
4F8
 10
48980.896087
 20
9572.853374
 30
0.0
 11
48987.896087
 21
9572.853374
 31
0.0
  0
LINE
  8
7
  6
CONTINUOUS
 62
     4
  5
4F9
 10
48987.896087
 20
9573.753374
 30
0.0
 11
48981.596087
 21
9573.753374
 31
0.0
  0
ARC
  8
7
  6
CONTINUOUS
 62
     4
  5
4FA
 10
49022.896087
 20
9580.453374
 30
0.0
 40
41.8
 50
170.63
 51
189.02
  0
LINE
  8
7
  6
CONTINUOUS
 62
     4
  5
4FB
 10
48987.896087
 20
9587.253374
 30
0.0
 11
48981.696087
 21
9587.253374
 31
0.0
  0
LINE
  8
7
  6
CONTINUOUS
 62
     4
  5
4FC
 10
48980.896087
 20
9588.153374
 30
0.0
 11
48987.896087
 21
9588.153374
 31
0.0
  0
ARC
  8
7
  6
DIVIDE
 62
     4
  5
4FD
 10
49022.896087
 20
9580.453374
 30
0.0
 40
42.7
 50
121.61
 51
238.39
  0
ARC
  8
7
  6
CONTINUOUS
 62
     4
  5
4FE
 10
49022.896087
 20
9580.453374
 30
0.0
 40
45.0
 50
119.87
 51
240.13
  0
CIRCLE
  8
7
  6
CONTINUOUS
 62
     4
  5
4FF
 10
48987.896087
 20
9580.453374
 30
0.0
 40
4.0
  0
CIRCLE
  8
7
  6
CONTINUOUS
 62
     4
  5
500
 10
48987.896087
 20
9580.453374
 30
0.0
 40
4.4
  0
ARC
  8
7
  6
CONTINUOUS
 62
     4
  5
501
 10
49434.296087
 20
9699.853374
 30
0.0
 40
45.0
 50
0.0
 51
90.0
  0
ARC
  8
7
  6
CONTINUOUS
 62
     4
  5
502
 10
49432.496087
 20
9698.053374
 30
0.0
 40
18.0
 50
0.0
 51
90.0
  0
ARC
  8
7
  6
CONTINUOUS
 62
     4
  5
503
 10
49282.496087
 20
9698.053374
 30
0.0
 40
18.0
 50
0.0
 51
90.0
  0
ARC
  8
7
  6
CONTINUOUS
 62
     4
  5
504
 10
49347.296087
 20
9698.053374
 30
0.0
 40
18.0
 50
90.0
 51
180.0
  0
ARC
  8
7
  6
CONTINUOUS
 62
     4
  5
505
 10
49197.296087
 20
9698.053374
 30
0.0
 40
18.0
 50
90.0
 51
180.0
  0
ARC
  8
7
  6
CONTINUOUS
 62
     4
  5
506
 10
49132.496087
 20
9698.053374
 30
0.0
 40
18.0
 50
0.0
 51
90.0
  0
ARC
  8
7
  6
CONTINUOUS
 62
     4
  5
507
 10
49045.496087
 20
9699.853374
 30
0.0
 40
45.0
 50
90.0
 51
180.0
  0
ARC
  8
7
  6
CONTINUOUS
 62
     4
  5
508
 10
49047.296087
 20
9698.053374
 30
0.0
 40
18.0
 50
90.0
 51
180.0
  0
LINE
  8
7
  6
CONTINUOUS
 62
     4
  5
509
 10
49150.496087
 20
9248.053374
 30
0.0
 11
49150.496087
 21
9162.853374
 31
0.0
  0
LINE
  8
7
  6
CONTINUOUS
 62
     4
  5
50A
 10
49179.296087
 20
9248.053374
 30
0.0
 11
49179.296087
 21
9162.853374
 31
0.0
  0
LINE
  8
7
  6
CONTINUOUS
 62
     4
  5
50B
 10
49300.496087
 20
9248.053374
 30
0.0
 11
49300.496087
 21
9162.853374
 31
0.0
  0
LINE
  8
7
  6
CONTINUOUS
 62
     4
  5
50C
 10
49329.296087
 20
9248.053374
 30
0.0
 11
49329.296087
 21
9162.853374
 31
0.0
  0
LINE
  8
7
  6
CONTINUOUS
 62
     4
  5
50D
 10
49179.296087
 20
9548.053374
 30
0.0
 11
49179.296087
 21
9462.853374
 31
0.0
  0
LINE
  8
7
  6
CONTINUOUS
 62
     4
  5
50E
 10
49282.496087
 20
9594.853374
 30
0.0
 11
49197.296087
 21
9594.853374
 31
0.0
  0
LINE
  8
7
  6
CONTINUOUS
 62
     4
  5
50F
 10
49282.496087
 20
9566.053374
 30
0.0
 11
49197.296087
 21
9566.053374
 31
0.0
  0
LINE
  8
7
  6
CONTINUOUS
 62
     4
  5
510
 10
49282.496087
 20
9294.853374
 30
0.0
 11
49197.296087
 21
9294.853374
 31
0.0
  0
LINE
  8
7
  6
CONTINUOUS
 62
     4
  5
511
 10
49282.496087
 20
9266.053374
 30
0.0
 11
49197.296087
 21
9266.053374
 31
0.0
  0
LINE
  8
7
  6
CONTINUOUS
 62
     4
  5
512
 10
49179.296087
 20
9398.053374
 30
0.0
 11
49179.296087
 21
9312.853374
 31
0.0
  0
LINE
  8
7
  6
CONTINUOUS
 62
     4
  5
513
 10
49300.496087
 20
9398.053374
 30
0.0
 11
49300.496087
 21
9312.853374
 31
0.0
  0
LINE
  8
7
  6
CONTINUOUS
 62
     4
  5
514
 10
49300.496087
 20
9548.053374
 30
0.0
 11
49300.496087
 21
9462.853374
 31
0.0
  0
ARC
  8
7
  6
CONTINUOUS
 62
     4
  5
515
 10
49197.296087
 20
9612.853374
 30
0.0
 40
18.0
 50
180.0
 51
270.0
  0
ARC
  8
7
  6
CONTINUOUS
 62
     4
  5
516
 10
49197.296087
 20
9548.053374
 30
0.0
 40
18.0
 50
90.0
 51
180.0
  0
ARC
  8
7
  6
CONTINUOUS
 62
     4
  5
517
 10
49282.496087
 20
9612.853374
 30
0.0
 40
18.0
 50
270.0
 51
0.0
  0
ARC
  8
7
  6
CONTINUOUS
 62
     4
  5
518
 10
49282.496087
 20
9548.053374
 30
0.0
 40
18.0
 50
0.0
 51
90.0
  0
ARC
  8
7
  6
CONTINUOUS
 62
     4
  5
519
 10
49197.296087
 20
9312.853374
 30
0.0
 40
18.0
 50
180.0
 51
270.0
  0
ARC
  8
7
  6
CONTINUOUS
 62
     4
  5
51A
 10
49282.496087
 20
9248.053374
 30
0.0
 40
18.0
 50
0.0
 51
90.0
  0
ARC
  8
7
  6
CONTINUOUS
 62
     4
  5
51B
 10
49282.496087
 20
9312.853374
 30
0.0
 40
18.0
 50
270.0
 51
0.0
  0
ARC
  8
7
  6
CONTINUOUS
 62
     4
  5
51C
 10
49197.296087
 20
9248.053374
 30
0.0
 40
18.0
 50
90.0
 51
180.0
  0
LINE
  8
7
  6
CONTINUOUS
 62
     4
  5
51D
 10
49329.296087
 20
9398.053374
 30
0.0
 11
49329.296087
 21
9312.853374
 31
0.0
  0
LINE
  8
7
  6
CONTINUOUS
 62
     4
  5
51E
 10
49329.296087
 20
9548.053374
 30
0.0
 11
49329.296087
 21
9462.853374
 31
0.0
  0
ARC
  8
7
  6
CONTINUOUS
 62
     4
  5
51F
 10
49347.296087
 20
9248.053374
 30
0.0
 40
18.0
 50
90.0
 51
180.0
  0
ARC
  8
7
  6
CONTINUOUS
 62
     4
  5
520
 10
49347.296087
 20
9312.853374
 30
0.0
 40
18.0
 50
180.0
 51
270.0
  0
LINE
  8
7
  6
CONTINUOUS
 62
     4
  5
521
 10
49150.496087
 20
9398.053374
 30
0.0
 11
49150.496087
 21
9312.853374
 31
0.0
  0
LINE
  8
7
  6
CONTINUOUS
 62
     4
  5
522
 10
49150.496087
 20
9548.053374
 30
0.0
 11
49150.496087
 21
9462.853374
 31
0.0
  0
ARC
  8
7
  6
CONTINUOUS
 62
     4
  5
523
 10
49132.496087
 20
9612.853374
 30
0.0
 40
18.0
 50
270.0
 51
0.0
  0
ARC
  8
7
  6
CONTINUOUS
 62
     4
  5
524
 10
49132.496087
 20
9548.053374
 30
0.0
 40
18.0
 50
0.0
 51
90.0
  0
ARC
  8
7
  6
CONTINUOUS
 62
     4
  5
525
 10
49132.496087
 20
9248.053374
 30
0.0
 40
18.0
 50
0.0
 51
90.0
  0
ARC
  8
7
  6
CONTINUOUS
 62
     4
  5
526
 10
49132.496087
 20
9312.853374
 30
0.0
 40
18.0
 50
270.0
 51
0.0
  0
ARC
  8
7
  6
CONTINUOUS
 62
     4
  5
527
 10
49347.296087
 20
9612.853374
 30
0.0
 40
18.0
 50
180.0
 51
270.0
  0
ARC
  8
7
  6
CONTINUOUS
 62
     4
  5
528
 10
49347.296087
 20
9548.053374
 30
0.0
 40
18.0
 50
90.0
 51
180.0
  0
LINE
  8
7
  6
CONTINUOUS
 62
     4
  5
529
 10
49434.296087
 20
9116.053374
 30
0.0
 11
49045.496087
 21
9116.053374
 31
0.0
  0
ARC
  8
7
  6
CONTINUOUS
 62
     4
  5
52A
 10
49045.496087
 20
9161.053374
 30
0.0
 40
45.0
 50
180.0
 51
270.0
  0
ARC
  8
7
  6
CONTINUOUS
 62
     4
  5
52B
 10
49434.296087
 20
9161.053374
 30
0.0
 40
45.0
 50
270.0
 51
0.0
  0
LINE
  8
7
  6
CONTINUOUS
 62
     4
  5
52C
 10
49347.296087
 20
9144.853374
 30
0.0
 11
49432.496087
 21
9144.853374
 31
0.0
  0
ARC
  8
7
  6
CONTINUOUS
 62
     4
  5
52D
 10
49432.496087
 20
9162.853374
 30
0.0
 40
18.0
 50
270.0
 51
0.0
  0
LINE
  8
7
  6
CONTINUOUS
 62
     4
  5
52E
 10
49132.496087
 20
9144.853374
 30
0.0
 11
49047.296087
 21
9144.853374
 31
0.0
  0
ARC
  8
7
  6
CONTINUOUS
 62
     4
  5
52F
 10
49047.296087
 20
9162.853374
 30
0.0
 40
18.0
 50
180.0
 51
270.0
  0
LINE
  8
7
  6
CONTINUOUS
 62
     4
  5
530
 10
49282.496087
 20
9144.853374
 30
0.0
 11
49197.296087
 21
9144.853374
 31
0.0
  0
ARC
  8
7
  6
CONTINUOUS
 62
     4
  5
531
 10
49197.296087
 20
9162.853374
 30
0.0
 40
18.0
 50
180.0
 51
270.0
  0
ARC
  8
7
  6
CONTINUOUS
 62
     4
  5
532
 10
49282.496087
 20
9162.853374
 30
0.0
 40
18.0
 50
270.0
 51
0.0
  0
ARC
  8
7
  6
CONTINUOUS
 62
     4
  5
533
 10
49347.296087
 20
9162.853374
 30
0.0
 40
18.0
 50
180.0
 51
270.0
  0
ARC
  8
7
  6
CONTINUOUS
 62
     4
  5
534
 10
49132.496087
 20
9162.853374
 30
0.0
 40
18.0
 50
270.0
 51
0.0
  0
LINE
  8
7
  6
CONTINUOUS
 62
     4
  5
535
 10
49132.496087
 20
9444.853374
 30
0.0
 11
49047.296087
 21
9444.853374
 31
0.0
  0
LINE
  8
7
  6
CONTINUOUS
 62
     4
  5
536
 10
49132.496087
 20
9416.053374
 30
0.0
 11
49046.896087
 21
9416.053374
 31
0.0
  0
ARC
  8
7
  6
CONTINUOUS
 62
     4
  5
537
 10
49432.496087
 20
9462.853374
 30
0.0
 40
18.0
 50
270.0
 51
0.0
  0
ARC
  8
7
  6
CONTINUOUS
 62
     4
  5
538
 10
49432.496087
 20
9398.053374
 30
0.0
 40
18.0
 50
0.0
 51
90.0
  0
LINE
  8
7
  6
CONTINUOUS
 62
     4
  5
539
 10
49347.296087
 20
9444.853374
 30
0.0
 11
49432.496087
 21
9444.853374
 31
0.0
  0
LINE
  8
7
  6
CONTINUOUS
 62
     4
  5
53A
 10
49347.296087
 20
9416.053374
 30
0.0
 11
49432.896087
 21
9416.053374
 31
0.0
  0
ARC
  8
7
  6
CONTINUOUS
 62
     4
  5
53B
 10
49047.296087
 20
9462.853374
 30
0.0
 40
18.0
 50
180.0
 51
270.0
  0
ARC
  8
7
  6
CONTINUOUS
 62
     4
  5
53C
 10
49047.296087
 20
9398.053374
 30
0.0
 40
18.0
 50
90.0
 51
180.0
  0
LINE
  8
7
  6
CONTINUOUS
 62
     4
  5
53D
 10
49282.496087
 20
9444.853374
 30
0.0
 11
49197.296087
 21
9444.853374
 31
0.0
  0
LINE
  8
7
  6
CONTINUOUS
 62
     4
  5
53E
 10
49282.496087
 20
9416.053374
 30
0.0
 11
49196.996087
 21
9416.053374
 31
0.0
  0
ARC
  8
7
  6
CONTINUOUS
 62
     4
  5
53F
 10
49197.296087
 20
9462.853374
 30
0.0
 40
18.0
 50
180.0
 51
270.0
  0
ARC
  8
7
  6
CONTINUOUS
 62
     4
  5
540
 10
49197.296087
 20
9398.053374
 30
0.0
 40
18.0
 50
90.0
 51
180.0
  0
ARC
  8
7
  6
CONTINUOUS
 62
     4
  5
541
 10
49282.496087
 20
9462.853374
 30
0.0
 40
18.0
 50
270.0
 51
0.0
  0
ARC
  8
7
  6
CONTINUOUS
 62
     4
  5
542
 10
49282.496087
 20
9398.053374
 30
0.0
 40
18.0
 50
0.0
 51
90.0
  0
ARC
  8
7
  6
CONTINUOUS
 62
     4
  5
543
 10
49132.496087
 20
9462.853374
 30
0.0
 40
18.0
 50
270.0
 51
0.0
  0
ARC
  8
7
  6
CONTINUOUS
 62
     4
  5
544
 10
49132.496087
 20
9398.053374
 30
0.0
 40
18.0
 50
0.0
 51
90.0
  0
ARC
  8
7
  6
CONTINUOUS
 62
     4
  5
545
 10
49347.296087
 20
9462.853374
 30
0.0
 40
18.0
 50
180.0
 51
270.0
  0
ARC
  8
7
  6
CONTINUOUS
 62
     4
  5
546
 10
49347.296087
 20
9398.053374
 30
0.0
 40
18.0
 50
90.0
 51
180.0
  0
LINE
  8
7
  6
CONTINUOUS
 62
     4
  5
547
 10
49479.296087
 20
9699.853374
 30
0.0
 11
49479.296087
 21
9161.053374
 31
0.0
  0
LINE
  8
7
  6
CONTINUOUS
 62
     4
  5
548
 10
49450.496087
 20
9698.053374
 30
0.0
 11
49450.496087
 21
9612.853374
 31
0.0
  0
LINE
  8
7
  6
CONTINUOUS
 62
     4
  5
549
 10
49347.296087
 20
9594.853374
 30
0.0
 11
49432.496087
 21
9594.853374
 31
0.0
  0
ARC
  8
7
  6
CONTINUOUS
 62
     4
  5
54A
 10
49432.496087
 20
9612.853374
 30
0.0
 40
18.0
 50
270.0
 51
0.0
  0
ARC
  8
7
  6
CONTINUOUS
 62
     4
  5
54B
 10
49432.496087
 20
9548.053374
 30
0.0
 40
18.0
 50
0.0
 51
90.0
  0
LINE
  8
7
  6
CONTINUOUS
 62
     4
  5
54C
 10
49347.296087
 20
9566.053374
 30
0.0
 11
49432.496087
 21
9566.053374
 31
0.0
  0
LINE
  8
7
  6
CONTINUOUS
 62
     4
  5
54D
 10
49450.496087
 20
9548.053374
 30
0.0
 11
49450.496087
 21
9462.853374
 31
0.0
  0
LINE
  8
7
  6
CONTINUOUS
 62
     4
  5
54E
 10
49432.496087
 20
9716.053374
 30
0.0
 11
49347.296087
 21
9716.053374
 31
0.0
  0
LINE
  8
7
  6
CONTINUOUS
 62
     4
  5
54F
 10
49329.296087
 20
9698.053374
 30
0.0
 11
49329.296087
 21
9612.853374
 31
0.0
  0
LINE
  8
7
  6
CONTINUOUS
 62
     4
  5
550
 10
49434.296087
 20
9744.853374
 30
0.0
 11
49045.496087
 21
9744.853374
 31
0.0
  0
LINE
  8
7
  6
CONTINUOUS
 62
     4
  5
551
 10
49450.496087
 20
9398.053374
 30
0.0
 11
49450.496087
 21
9312.853374
 31
0.0
  0
ARC
  8
7
  6
CONTINUOUS
 62
     4
  5
552
 10
49432.496087
 20
9312.853374
 30
0.0
 40
18.0
 50
270.0
 51
0.0
  0
LINE
  8
7
  6
CONTINUOUS
 62
     4
  5
553
 10
49347.296087
 20
9294.853374
 30
0.0
 11
49432.496087
 21
9294.853374
 31
0.0
  0
ARC
  8
7
  6
CONTINUOUS
 62
     4
  5
554
 10
49432.496087
 20
9248.053374
 30
0.0
 40
18.0
 50
0.0
 51
90.0
  0
LINE
  8
7
  6
CONTINUOUS
 62
     4
  5
555
 10
49347.296087
 20
9266.053374
 30
0.0
 11
49432.496087
 21
9266.053374
 31
0.0
  0
LINE
  8
7
  6
CONTINUOUS
 62
     4
  5
556
 10
49450.496087
 20
9248.053374
 30
0.0
 11
49450.496087
 21
9162.853374
 31
0.0
  0
LINE
  8
7
  6
CONTINUOUS
 62
     4
  5
557
 10
49300.496087
 20
9698.053374
 30
0.0
 11
49300.496087
 21
9612.853374
 31
0.0
  0
LINE
  8
7
  6
CONTINUOUS
 62
     4
  5
558
 10
49197.296087
 20
9716.053374
 30
0.0
 11
49282.496087
 21
9716.053374
 31
0.0
  0
LINE
  8
7
  6
CONTINUOUS
 62
     4
  5
559
 10
49179.296087
 20
9698.053374
 30
0.0
 11
49179.296087
 21
9612.853374
 31
0.0
  0
LINE
  8
7
  6
CONTINUOUS
 62
     4
  5
55A
 10
49150.496087
 20
9698.053374
 30
0.0
 11
49150.496087
 21
9612.853374
 31
0.0
  0
LINE
  8
7
  6
CONTINUOUS
 62
     4
  5
55B
 10
49047.296087
 20
9716.053374
 30
0.0
 11
49132.496087
 21
9716.053374
 31
0.0
  0
LINE
  8
7
  6
CONTINUOUS
 62
     4
  5
55C
 10
49029.296087
 20
9698.053374
 30
0.0
 11
49029.296087
 21
9612.853374
 31
0.0
  0
LINE
  8
7
  6
CONTINUOUS
 62
     4
  5
55D
 10
49132.496087
 20
9594.853374
 30
0.0
 11
49047.296087
 21
9594.853374
 31
0.0
  0
ARC
  8
7
  6
CONTINUOUS
 62
     4
  5
55E
 10
49047.296087
 20
9612.853374
 30
0.0
 40
18.0
 50
180.0
 51
270.0
  0
ARC
  8
7
  6
CONTINUOUS
 62
     4
  5
55F
 10
49047.296087
 20
9548.053374
 30
0.0
 40
18.0
 50
90.0
 51
180.0
  0
LINE
  8
7
  6
CONTINUOUS
 62
     4
  5
560
 10
49132.496087
 20
9566.053374
 30
0.0
 11
49047.296087
 21
9566.053374
 31
0.0
  0
LINE
  8
7
  6
CONTINUOUS
 62
     4
  5
561
 10
49029.296087
 20
9548.053374
 30
0.0
 11
49029.296087
 21
9462.853374
 31
0.0
  0
LINE
  8
7
  6
CONTINUOUS
 62
     4
  5
562
 10
49000.496087
 20
9699.853374
 30
0.0
 11
49000.496087
 21
9161.053374
 31
0.0
  0
LINE
  8
7
  6
CONTINUOUS
 62
     4
  5
563
 10
49029.296087
 20
9398.053374
 30
0.0
 11
49029.296087
 21
9312.853374
 31
0.0
  0
ARC
  8
7
  6
CONTINUOUS
 62
     4
  5
564
 10
49047.296087
 20
9312.853374
 30
0.0
 40
18.0
 50
180.0
 51
270.0
  0
LINE
  8
7
  6
CONTINUOUS
 62
     4
  5
565
 10
49132.496087
 20
9294.853374
 30
0.0
 11
49047.296087
 21
9294.853374
 31
0.0
  0
LINE
  8
7
  6
CONTINUOUS
 62
     4
  5
566
 10
49132.496087
 20
9266.053374
 30
0.0
 11
49047.296087
 21
9266.053374
 31
0.0
  0
ARC
  8
7
  6
CONTINUOUS
 62
     4
  5
567
 10
49047.296087
 20
9248.053374
 30
0.0
 40
18.0
 50
90.0
 51
180.0
  0
LINE
  8
7
  6
CONTINUOUS
 62
     4
  5
568
 10
49029.296087
 20
9248.053374
 30
0.0
 11
49029.296087
 21
9162.853374
 31
0.0
  0
LINE
  8
2
  6
CENTER
 62
     2
  5
569
 10
49464.896087
 20
9280.453374
 30
0.0
 11
49014.896087
 21
9280.453374
 31
0.0
  0
LINE
  8
2
  6
CENTER
 62
     2
  5
56A
 10
49464.896087
 20
9580.453374
 30
0.0
 11
49014.896087
 21
9580.453374
 31
0.0
  0
LINE
  8
2
  6
CENTER
 62
     2
  5
56B
 10
49464.896087
 20
9430.453374
 30
0.0
 11
49014.896087
 21
9430.453374
 31
0.0
  0
LINE
  8
2
  6
CENTER
 62
     2
  5
56C
 10
49464.896087
 20
9730.453374
 30
0.0
 11
49014.896087
 21
9730.453374
 31
0.0
  0
LINE
  8
2
  6
CENTER
 62
     2
  5
56D
 10
49014.896087
 20
9730.453374
 30
0.0
 11
49014.896087
 21
9130.453374
 31
0.0
  0
LINE
  8
2
  6
CENTER
 62
     2
  5
56E
 10
49164.896087
 20
9730.453374
 30
0.0
 11
49164.896087
 21
9130.453374
 31
0.0
  0
LINE
  8
2
  6
CENTER
 62
     2
  5
56F
 10
49314.896087
 20
9730.453374
 30
0.0
 11
49314.896087
 21
9130.453374
 31
0.0
  0
LINE
  8
2
  6
CENTER
 62
     2
  5
570
 10
49464.896087
 20
9730.453374
 30
0.0
 11
49464.896087
 21
9130.453374
 31
0.0
  0
LINE
  8
2
  6
CENTER
 62
     2
  5
571
 10
49014.896087
 20
9130.453374
 30
0.0
 11
49464.896087
 21
9130.453374
 31
0.0
  0
TEXT
  8
5
  6
CONTINUOUS
 62
     3
  5
572
 10
49084.896087
 20
8966.053374
 30
0.0
 40
60.0
  1
テスリックス
 41
0.837
  7

 72
     5
 11
49444.896087
 21
8966.053374
 31
0.0
  0
LINE
  8
5
  6
CONTINUOUS
 62
     3
  5
573
 10
49121.498627
 20
9116.053374
 30
0.0
 11
49034.896087
 21
8966.053374
 31
0.0
  0
LINE
  8
5
  6
CONTINUOUS
 62
     3
  5
574
 10
49034.896087
 20
8966.053374
 30
0.0
 11
49444.896087
 21
8966.053374
 31
0.0
  0
LINE
  8
5
  6
CONTINUOUS
 62
     3
  5
575
 10
48584.896087
 20
9730.453374
 30
0.0
 11
48784.896087
 21
9730.453374
 31
0.0
  0
LINE
  8
5
  6
CONTINUOUS
 62
     3
  5
576
 10
48584.896087
 20
8480.453374
 30
0.0
 11
48784.896087
 21
8480.453374
 31
0.0
  0
LINE
  8
5
  6
CONTINUOUS
 62
     3
  5
577
 10
48684.896087
 20
9130.453374
 30
0.0
 11
48784.896087
 21
9130.453374
 31
0.0
  0
CIRCLE
  8
5
  6
CONTINUOUS
 62
     3
  5
578
 10
48584.896087
 20
9730.453374
 30
0.0
 40
7.5
  0
CIRCLE
  8
5
  6
CONTINUOUS
 62
     3
  5
579
 10
48584.896087
 20
8480.453374
 30
0.0
 40
7.5
  0
CIRCLE
  8
5
  6
CONTINUOUS
 62
     3
  5
57A
 10
48684.896087
 20
8480.453374
 30
0.0
 40
7.5
  0
CIRCLE
  8
5
  6
CONTINUOUS
 62
     3
  5
57B
 10
48684.896087
 20
9130.453374
 30
0.0
 40
7.5
  0
CIRCLE
  8
5
  6
CONTINUOUS
 62
     3
  5
57C
 10
48684.896087
 20
9730.453374
 30
0.0
 40
7.5
  0
TEXT
  8
5
  6
CONTINUOUS
 62
     3
  5
57D
 10
48584.896087
 20
9015.453374
 30
0.0
 40
60.0
  1
1,250
 50
90.0
 41
0.6
  7

 72
     5
 11
48584.896087
 21
9195.453374
 31
0.0
  0
LINE
  8
5
  6
CONTINUOUS
 62
     3
  5
57E
 10
48584.896087
 20
9730.453374
 30
0.0
 11
48584.896087
 21
8480.453374
 31
0.0
  0
TEXT
  8
5
  6
CONTINUOUS
 62
     3
  5
57F
 10
48684.896087
 20
8745.453374
 30
0.0
 40
60.0
  1
650
 50
90.0
 41
0.666667
  7

 72
     5
 11
48684.896087
 21
8865.453374
 31
0.0
  0
LINE
  8
5
  6
CONTINUOUS
 62
     3
  5
580
 10
48684.896087
 20
8480.453374
 30
0.0
 11
48684.896087
 21
9130.453374
 31
0.0
  0
TEXT
  8
5
  6
CONTINUOUS
 62
     3
  5
581
 10
48684.896087
 20
9370.453374
 30
0.0
 40
60.0
  1
600
 50
90.0
 41
0.666667
  7

 72
     5
 11
48684.896087
 21
9490.453374
 31
0.0
  0
LINE
  8
5
  6
CONTINUOUS
 62
     3
  5
582
 10
48684.896087
 20
9130.453374
 30
0.0
 11
48684.896087
 21
9730.453374
 31
0.0
  0
LINE
  8
2
  6
CONTINUOUS
 62
     2
  5
583
 10
48814.896087
 20
8530.452374
 30
0.0
 11
49672.395087
 21
8530.452374
 31
0.0
  0
LINE
  8
5
  6
CONTINUOUS
 62
     6
  5
584
 10
49702.395087
 20
10480.453374
 30
0.0
 11
49702.395087
 21
8480.453374
 31
0.0
  0
LINE
  8
5
  6
CONTINUOUS
 62
     6
  5
585
 10
50632.395087
 20
10510.453374
 30
0.0
 11
49672.395087
 21
10510.453374
 31
0.0
  0
LINE
  8
5
  6
CONTINUOUS
 62
     6
  5
586
 10
49672.395087
 20
10510.453374
 30
0.0
 11
49672.395087
 21
8480.453374
 31
0.0
  0
LINE
  8
5
  6
CONTINUOUS
 62
     6
  5
587
 10
50602.395087
 20
10480.453374
 30
0.0
 11
49702.395087
 21
10480.453374
 31
0.0
  0
LINE
  8
5
  6
CONTINUOUS
 62
     6
  5
588
 10
50602.395087
 20
10480.453374
 30
0.0
 11
50602.395087
 21
8480.453374
 31
0.0
  0
ARC
  8
5
  6
CONTINUOUS
 62
     6
  5
589
 10
50532.395087
 20
9570.453374
 30
0.0
 40
10.0
 50
90.0
 51
180.0
  0
ARC
  8
5
  6
CONTINUOUS
 62
     6
  5
58A
 10
50542.395087
 20
9570.453374
 30
0.0
 40
10.0
 50
0.0
 51
90.0
  0
LINE
  8
5
  6
CONTINUOUS
 62
     6
  5
58B
 10
50542.395087
 20
9580.453374
 30
0.0
 11
50532.395087
 21
9580.453374
 31
0.0
  0
ARC
  8
5
  6
CONTINUOUS
 62
     6
  5
58C
 10
50532.395087
 20
9390.453374
 30
0.0
 40
10.0
 50
180.0
 51
270.0
  0
LINE
  8
5
  6
CONTINUOUS
 62
     6
  5
58D
 10
50542.395087
 20
9380.453374
 30
0.0
 11
50532.395087
 21
9380.453374
 31
0.0
  0
ARC
  8
5
  6
CONTINUOUS
 62
     6
  5
58E
 10
50542.395087
 20
9390.453374
 30
0.0
 40
10.0
 50
270.0
 51
0.0
  0
LINE
  8
5
  6
CONTINUOUS
 62
     6
  5
58F
 10
50522.395087
 20
9570.453374
 30
0.0
 11
50522.395087
 21
9390.453374
 31
0.0
  0
LINE
  8
5
  6
CONTINUOUS
 62
     6
  5
590
 10
50552.395087
 20
9570.453374
 30
0.0
 11
50552.395087
 21
9390.453374
 31
0.0
  0
LINE
  8
5
  6
CONTINUOUS
 62
     3
  5
591
 10
50762.395087
 20
10780.453374
 30
0.0
 11
50662.395087
 21
10780.453374
 31
0.0
  0
LINE
  8
5
  6
CONTINUOUS
 62
     3
  5
592
 10
50762.395087
 20
8480.453374
 30
0.0
 11
50662.395087
 21
8480.453374
 31
0.0
  0
CIRCLE
  8
5
  6
CONTINUOUS
 62
     3
  5
593
 10
50762.395087
 20
8480.453374
 30
0.0
 40
7.5
  0
CIRCLE
  8
5
  6
CONTINUOUS
 62
     3
  5
594
 10
50762.395087
 20
10780.453374
 30
0.0
 40
7.5
  0
TEXT
  8
5
  6
CONTINUOUS
 62
     3
  5
595
 10
50762.395087
 20
9540.453374
 30
0.0
 40
60.0
  1
2,300
 50
90.0
 41
0.6
  7

 72
     5
 11
50762.395087
 21
9720.453374
 31
0.0
  0
LINE
  8
5
  6
CONTINUOUS
 62
     3
  5
596
 10
50762.395087
 20
8480.453374
 30
0.0
 11
50762.395087
 21
10780.453374
 31
0.0
  0
LINE
  8
2
  6
CONTINUOUS
 62
     2
  5
597
 10
47137.703087
 20
8864.805374
 30
0.0
 11
47138.070087
 21
8860.526374
 31
0.0
  0
LINE
  8
2
  6
CONTINUOUS
 62
     2
  5
598
 10
47207.028087
 20
9006.642374
 30
0.0
 11
47157.419087
 21
9010.290374
 31
0.0
  0
LINE
  8
2
  6
CONTINUOUS
 62
     2
  5
599
 10
47321.966087
 20
8996.021374
 30
0.0
 11
47238.023087
 21
9003.944374
 31
0.0
  0
LINE
  8
2
  6
CONTINUOUS
 62
     2
  5
59A
 10
47233.719087
 20
9000.502374
 30
0.0
 11
47210.318087
 21
9002.411374
 31
0.0
  0
LINE
  8
2
  6
CONTINUOUS
 62
     2
  5
59B
 10
47528.993087
 20
8888.453374
 30
0.0
 11
47554.720087
 21
8888.674374
 31
0.0
  0
LINE
  8
2
  6
CONTINUOUS
 62
     2
  5
59C
 10
47554.720087
 20
8888.674374
 30
0.0
 11
47569.609087
 21
8889.003374
 31
0.0
  0
LINE
  8
2
  6
CONTINUOUS
 62
     2
  5
59D
 10
47520.903087
 20
8502.132374
 30
0.0
 11
47520.739087
 21
8513.095374
 31
0.0
  0
LINE
  8
2
  6
CONTINUOUS
 62
     2
  5
59E
 10
47148.026087
 20
8851.453374
 30
0.0
 11
47336.261087
 21
8851.453374
 31
0.0
  0
LINE
  8
2
  6
CONTINUOUS
 62
     2
  5
59F
 10
47152.054087
 20
8850.452374
 30
0.0
 11
47151.018087
 21
8851.453374
 31
0.0
  0
LINE
  8
2
  6
CONTINUOUS
 62
     2
  5
5A0
 10
47649.055087
 20
8850.452374
 30
0.0
 11
47099.054087
 21
8850.452374
 31
0.0
  0
LINE
  8
2
  6
CONTINUOUS
 62
     2
  5
5A1
 10
47278.554087
 20
8850.452374
 30
0.0
 11
47278.554087
 21
8851.453374
 31
0.0
  0
LINE
  8
2
  6
CONTINUOUS
 62
     2
  5
5A2
 10
47158.052087
 20
8850.452374
 30
0.0
 11
47158.052087
 21
8851.453374
 31
0.0
  0
LINE
  8
2
  6
CONTINUOUS
 62
     2
  5
5A3
 10
47176.057087
 20
8850.452374
 30
0.0
 11
47176.057087
 21
8851.453374
 31
0.0
  0
LINE
  8
2
  6
CONTINUOUS
 62
     2
  5
5A4
 10
47136.065087
 20
8866.440374
 30
0.0
 11
47137.703087
 21
8864.805374
 31
0.0
  0
LINE
  8
2
  6
CONTINUOUS
 62
     2
  5
5A5
 10
47305.956087
 20
8973.166374
 30
0.0
 11
47304.818087
 21
8990.256374
 31
0.0
  0
LINE
  8
2
  6
CONTINUOUS
 62
     2
  5
5A6
 10
47210.318087
 20
9002.411374
 30
0.0
 11
47209.656087
 21
9004.539374
 31
0.0
  0
LINE
  8
2
  6
CONTINUOUS
 62
     2
  5
5A7
 10
47153.776087
 20
9008.457374
 30
0.0
 11
47139.659087
 21
8986.392374
 31
0.0
  0
LINE
  8
2
  6
CONTINUOUS
 62
     2
  5
5A8
 10
47139.026087
 20
8984.336374
 30
0.0
 11
47136.069087
 21
8866.440374
 31
0.0
  0
LINE
  8
2
  6
CONTINUOUS
 62
     2
  5
5A9
 10
47139.484087
 20
8979.654374
 30
0.0
 11
47153.776087
 21
9001.981374
 31
0.0
  0
LINE
  8
2
  6
CONTINUOUS
 62
     2
  5
5AA
 10
47303.467087
 20
8991.990374
 30
0.0
 11
47317.581087
 21
8988.952374
 31
0.0
  0
LINE
  8
2
  6
CONTINUOUS
 62
     2
  5
5AB
 10
47363.750087
 20
8855.453374
 30
0.0
 11
47525.446087
 21
8855.453374
 31
0.0
  0
LINE
  8
2
  6
CONTINUOUS
 62
     2
  5
5AC
 10
47347.425087
 20
8865.453374
 30
0.0
 11
47663.053087
 21
8865.453374
 31
0.0
  0
LINE
  8
2
  6
CONTINUOUS
 62
     2
  5
5AD
 10
47363.750087
 20
8865.453374
 30
0.0
 11
47363.750087
 21
8854.452374
 31
0.0
  0
LINE
  8
2
  6
CONTINUOUS
 62
     2
  5
5AE
 10
47552.161087
 20
8855.453374
 30
0.0
 11
47602.169087
 21
8855.453374
 31
0.0
  0
LINE
  8
2
  6
CONTINUOUS
 62
     2
  5
5AF
 10
47525.446087
 20
8865.453374
 30
0.0
 11
47525.446087
 21
8855.453374
 31
0.0
  0
LINE
  8
2
  6
CONTINUOUS
 62
     2
  5
5B0
 10
47552.161087
 20
8860.452374
 30
0.0
 11
47552.161087
 21
8855.453374
 31
0.0
  0
LINE
  8
2
  6
CONTINUOUS
 62
     2
  5
5B1
 10
47525.446087
 20
8855.453374
 30
0.0
 11
47525.439087
 21
8854.484374
 31
0.0
  0
LINE
  8
2
  6
CONTINUOUS
 62
     2
  5
5B2
 10
47552.152087
 20
8854.422374
 30
0.0
 11
47552.161087
 21
8855.453374
 31
0.0
  0
LINE
  8
2
  6
CONTINUOUS
 62
     2
  5
5B3
 10
47550.702087
 20
8901.440374
 30
0.0
 11
47552.880087
 21
8891.326374
 31
0.0
  0
LINE
  8
2
  6
CONTINUOUS
 62
     2
  5
5B4
 10
47571.023087
 20
8891.351374
 30
0.0
 11
47573.205087
 21
8900.808374
 31
0.0
  0
LINE
  8
2
  6
CONTINUOUS
 62
     2
  5
5B5
 10
46895.054087
 20
9295.453374
 30
0.0
 11
47109.052087
 21
9295.453374
 31
0.0
  0
LINE
  8
2
  6
CONTINUOUS
 62
     2
  5
5B6
 10
46892.233087
 20
9291.453374
 30
0.0
 11
47111.831087
 21
9291.453374
 31
0.0
  0
LINE
  8
2
  6
CONTINUOUS
 62
     2
  5
5B7
 10
46913.014087
 20
8860.452374
 30
0.0
 11
47096.241087
 21
8860.452374
 31
0.0
  0
LINE
  8
2
  6
CONTINUOUS
 62
     2
  5
5B8
 10
46896.363087
 20
8979.969374
 30
0.0
 11
46892.051087
 21
9284.452374
 31
0.0
  0
LINE
  8
2
  6
CONTINUOUS
 62
     2
  5
5B9
 10
46892.051087
 20
9290.624374
 30
0.0
 11
46892.051087
 21
9284.452374
 31
0.0
  0
LINE
  8
2
  6
CONTINUOUS
 62
     2
  5
5BA
 10
47111.999087
 20
9290.627374
 30
0.0
 11
47107.681087
 21
8914.932374
 31
0.0
  0
LINE
  8
2
  6
CONTINUOUS
 62
     2
  5
5BB
 10
46892.639087
 20
9292.039374
 30
0.0
 11
46895.471087
 21
9294.867374
 31
0.0
  0
LINE
  8
2
  6
CONTINUOUS
 62
     2
  5
5BC
 10
47111.418087
 20
9292.058374
 30
0.0
 11
47108.639087
 21
9294.860374
 31
0.0
  0
LINE
  8
2
  6
CONTINUOUS
 62
     2
  5
5BD
 10
46892.051087
 20
9298.452374
 30
0.0
 11
46892.051087
 21
9329.031374
 31
0.0
  0
LINE
  8
2
  6
CONTINUOUS
 62
     2
  5
5BE
 10
46905.000087
 20
9336.756374
 30
0.0
 11
47098.473087
 21
9336.756374
 31
0.0
  0
LINE
  8
2
  6
CONTINUOUS
 62
     2
  5
5BF
 10
47112.051087
 20
9298.452374
 30
0.0
 11
47112.051087
 21
9329.031374
 31
0.0
  0
LINE
  8
2
  6
CONTINUOUS
 62
     2
  5
5C0
 10
47520.784087
 20
8510.452374
 30
0.0
 11
47520.784087
 21
8518.953374
 31
0.0
  0
LINE
  8
2
  6
CONTINUOUS
 62
     2
  5
5C1
 10
46959.057087
 20
8859.453374
 30
0.0
 11
46959.057087
 21
8790.453374
 31
0.0
  0
LINE
  8
2
  6
CONTINUOUS
 62
     2
  5
5C2
 10
47520.784087
 20
8518.953374
 30
0.0
 11
47521.698087
 21
8517.581374
 31
0.0
  0
LINE
  8
2
  6
CONTINUOUS
 62
     2
  5
5C3
 10
47094.053087
 20
8856.452374
 30
0.0
 11
46959.057087
 21
8856.452374
 31
0.0
  0
LINE
  8
2
  6
CONTINUOUS
 62
     2
  5
5C4
 10
46969.055087
 20
8859.453374
 30
0.0
 11
46969.055087
 21
8856.452374
 31
0.0
  0
LINE
  8
2
  6
CONTINUOUS
 62
     2
  5
5C5
 10
47094.053087
 20
8856.452374
 30
0.0
 11
47094.053087
 21
8855.453374
 31
0.0
  0
LINE
  8
2
  6
CONTINUOUS
 62
     2
  5
5C6
 10
47067.055087
 20
8859.453374
 30
0.0
 11
47067.055087
 21
8856.452374
 31
0.0
  0
LINE
  8
2
  6
CONTINUOUS
 62
     2
  5
5C7
 10
47057.053087
 20
8859.453374
 30
0.0
 11
47057.053087
 21
8856.452374
 31
0.0
  0
LINE
  8
2
  6
CONTINUOUS
 62
     2
  5
5C8
 10
47000.053087
 20
8551.453374
 30
0.0
 11
46997.054087
 21
8553.953374
 31
0.0
  0
LINE
  8
2
  6
CONTINUOUS
 62
     2
  5
5C9
 10
46997.054087
 20
8553.953374
 30
0.0
 11
46972.054087
 21
8553.953374
 31
0.0
  0
LINE
  8
2
  6
CONTINUOUS
 62
     2
  5
5CA
 10
46972.054087
 20
8553.953374
 30
0.0
 11
46969.055087
 21
8551.953374
 31
0.0
  0
LINE
  8
2
  6
CONTINUOUS
 62
     2
  5
5CB
 10
46997.054087
 20
8646.952374
 30
0.0
 11
46972.054087
 21
8646.952374
 31
0.0
  0
LINE
  8
2
  6
CONTINUOUS
 62
     2
  5
5CC
 10
47000.053087
 20
8649.453374
 30
0.0
 11
46997.054087
 21
8646.952374
 31
0.0
  0
LINE
  8
2
  6
CONTINUOUS
 62
     2
  5
5CD
 10
46972.054087
 20
8646.952374
 30
0.0
 11
46969.055087
 21
8648.952374
 31
0.0
  0
LINE
  8
2
  6
CONTINUOUS
 62
     2
  5
5CE
 10
46969.055087
 20
8648.952374
 30
0.0
 11
46962.056087
 21
8648.952374
 31
0.0
  0
LINE
  8
2
  6
CONTINUOUS
 62
     2
  5
5CF
 10
46969.055087
 20
8551.953374
 30
0.0
 11
46962.056087
 21
8551.953374
 31
0.0
  0
LINE
  8
2
  6
CONTINUOUS
 62
     2
  5
5D0
 10
46962.056087
 20
8648.952374
 30
0.0
 11
46962.056087
 21
8551.953374
 31
0.0
  0
LINE
  8
2
  6
CONTINUOUS
 62
     2
  5
5D1
 10
47003.014087
 20
8551.453374
 30
0.0
 11
47000.053087
 21
8551.453374
 31
0.0
  0
LINE
  8
2
  6
CONTINUOUS
 62
     2
  5
5D2
 10
47003.493087
 20
8562.968374
 30
0.0
 11
47000.053087
 21
8480.453374
 31
0.0
  0
LINE
  8
2
  6
CONTINUOUS
 62
     2
  5
5D3
 10
47000.053087
 20
8649.453374
 30
0.0
 11
47002.555087
 21
8649.453374
 31
0.0
  0
LINE
  8
2
  6
CONTINUOUS
 62
     2
  5
5D4
 10
46960.001087
 20
8786.201374
 30
0.0
 11
46965.055087
 21
8775.453374
 31
0.0
  0
LINE
  8
2
  6
CONTINUOUS
 62
     2
  5
5D5
 10
47000.053087
 20
8698.453374
 30
0.0
 11
47002.555087
 21
8649.453374
 31
0.0
  0
LINE
  8
2
  6
CONTINUOUS
 62
     2
  5
5D6
 10
46965.055087
 20
8775.453374
 30
0.0
 11
47000.053087
 21
8698.453374
 31
0.0
  0
LINE
  8
2
  6
CONTINUOUS
 62
     2
  5
5D7
 10
47521.054087
 20
8480.453374
 30
0.0
 11
47000.053087
 21
8480.453374
 31
0.0
  0
LINE
  8
2
  6
CONTINUOUS
 62
     2
  5
5D8
 10
47007.808087
 20
8505.452374
 30
0.0
 11
47113.052087
 21
8505.452374
 31
0.0
  0
LINE
  8
2
  6
CONTINUOUS
 62
     2
  5
5D9
 10
47238.972087
 20
8683.452374
 30
0.0
 11
47162.052087
 21
8683.452374
 31
0.0
  0
LINE
  8
2
  6
CONTINUOUS
 62
     2
  5
5DA
 10
47235.636087
 20
8785.452374
 30
0.0
 11
47178.175087
 21
8785.452374
 31
0.0
  0
LINE
  8
2
  6
CONTINUOUS
 62
     2
  5
5DB
 10
47052.402087
 20
8825.453374
 30
0.0
 11
46962.059087
 21
8825.453374
 31
0.0
  0
LINE
  8
2
  6
CONTINUOUS
 62
     2
  5
5DC
 10
47078.946087
 20
8811.804374
 30
0.0
 11
47057.368087
 21
8824.136374
 31
0.0
  0
LINE
  8
2
  6
CONTINUOUS
 62
     2
  5
5DD
 10
47117.052087
 20
8509.453374
 30
0.0
 11
47117.052087
 21
8638.452374
 31
0.0
  0
LINE
  8
2
  6
CONTINUOUS
 62
     2
  5
5DE
 10
47015.479087
 20
8574.453374
 30
0.0
 11
47105.052087
 21
8574.453374
 31
0.0
  0
LINE
  8
2
  6
CONTINUOUS
 62
     2
  5
5DF
 10
47014.233087
 20
8544.452374
 30
0.0
 11
47117.052087
 21
8544.452374
 31
0.0
  0
ARC
  8
2
  6
CONTINUOUS
 62
     2
  5
5E0
 10
47148.026087
 20
8861.453374
 30
0.0
 40
10.0
 50
185.32105
 51
270.0
  0
ARC
  8
2
  6
CONTINUOUS
 62
     2
  5
5E1
 10
47206.790087
 20
9003.652374
 30
0.0
 40
2.999999
 50
17.23331
 51
85.507447
  0
ARC
  8
2
  6
CONTINUOUS
 62
     2
  5
5E2
 10
47333.899087
 20
8963.014374
 30
0.0
 40
7.999999
 50
6.7858
 51
85.367264
  0
ARC
  8
2
  6
CONTINUOUS
 62
     2
  5
5E3
 10
47143.026087
 20
8984.237374
 30
0.0
 40
3.999999
 50
147.380753
 51
178.5625
  0
ARC
  8
2
  6
CONTINUOUS
 62
     2
  5
5E4
 10
47157.146087
 20
9006.301374
 30
0.0
 40
3.999999
 50
86.077439
 51
147.380753
  0
ARC
  8
2
  6
CONTINUOUS
 62
     2
  5
5E5
 10
47157.146087
 20
8999.825374
 30
0.0
 40
3.999999
 50
86.077439
 51
147.380753
  0
ARC
  8
2
  6
CONTINUOUS
 62
     2
  5
5E6
 10
47557.160087
 20
8860.452374
 30
0.0
 40
5.0
 50
90.0
 51
180.0
  0
ARC
  8
2
  6
CONTINUOUS
 62
     2
  5
5E7
 10
47602.169087
 20
8857.453374
 30
0.0
 40
2.0
 50
270.0
 51
354.54863
  0
ARC
  8
2
  6
CONTINUOUS
 62
     2
  5
5E8
 10
47529.438087
 20
8854.452374
 30
0.0
 40
3.999999
 50
179.557617
 51
270.0
  0
ARC
  8
2
  6
CONTINUOUS
 62
     2
  5
5E9
 10
47548.152087
 20
8854.452374
 30
0.0
 40
3.999999
 50
270.0
 51
359.55762
  0
ARC
  8
2
  6
CONTINUOUS
 62
     2
  5
5EA
 10
47359.750087
 20
8854.452374
 30
0.0
 40
3.999999
 50
270.0
 51
0.0
  0
ARC
  8
2
  6
CONTINUOUS
 62
     2
  5
5EB
 10
46969.055087
 20
8790.453374
 30
0.0
 40
10.0
 50
180.0
 51
205.16877
  0
ARC
  8
2
  6
CONTINUOUS
 62
     2
  5
5EC
 10
47520.867087
 20
8517.026374
 30
0.0
 40
1.0
 50
15.89789
 51
33.69007
  0
ARC
  8
2
  6
CONTINUOUS
 62
     2
  5
5ED
 10
47336.261087
 20
8861.453374
 30
0.0
 40
10.0
 50
270.0
 51
346.60906
  0
ARC
  8
2
  6
CONTINUOUS
 62
     2
  5
5EE
 10
47343.344087
 20
8854.452374
 30
0.0
 40
3.999999
 50
214.37337
 51
270.0
  0
ARC
  8
2
  6
CONTINUOUS
 62
     2
  5
5EF
 10
46815.381087
 20
4015.529374
 30
0.0
 40
4999.9993
 50
84.39798
 51
86.077439
  0
ARC
  8
2
  6
CONTINUOUS
 62
     2
  5
5F0
 10
47092.241087
 20
5980.789374
 30
0.0
 40
2999.9996
 50
85.367264
 51
88.956574
  0
ARC
  8
2
  6
CONTINUOUS
 62
     2
  5
5F1
 10
47329.052087
 20
8875.453374
 30
0.0
 40
19.999999
 50
348.97945
 51
0.0
  0
ARC
  8
2
  6
CONTINUOUS
 62
     2
  5
5F2
 10
47054.159087
 20
8928.612374
 30
0.0
 40
299.98851
 50
346.60906
 51
349.05013
  0
ARC
  8
2
  6
CONTINUOUS
 62
     2
  5
5F3
 10
47146.725087
 20
8972.293374
 30
0.0
 40
7.999999
 50
88.956574
 51
178.5625
  0
ARC
  8
2
  6
CONTINUOUS
 62
     2
  5
5F4
 10
47303.324087
 20
8990.156374
 30
0.0
 40
1.499999
 50
3.80657
 51
84.39798
  0
ARC
  8
2
  6
CONTINUOUS
 62
     2
  5
5F5
 10
46150.247087
 20
8822.169374
 30
0.0
 40
1199.9999
 50
2.55929
 51
6.7858
  0
ARC
  8
2
  6
CONTINUOUS
 62
     2
  5
5F6
 10
47142.854087
 20
8977.497374
 30
0.0
 40
3.999999
 50
147.380753
 51
178.5625
  0
ARC
  8
2
  6
CONTINUOUS
 62
     2
  5
5F7
 10
47612.979087
 20
12286.596374
 30
0.0
 40
3399.9999
 50
265.52875
 51
267.46654
  0
ARC
  8
2
  6
CONTINUOUS
 62
     2
  5
5F8
 10
47663.053087
 20
8866.454374
 30
0.0
 40
1.0
 50
270.0
 51
9.54886
  0
ARC
  8
2
  6
CONTINUOUS
 62
     2
  5
5F9
 10
47651.666087
 20
8884.453374
 30
0.0
 40
9.0
 50
10.97161
 51
96.652543
  0
ARC
  8
2
  6
CONTINUOUS
 62
     2
  5
5FA
 10
46875.128087
 20
8733.908374
 30
0.0
 40
799.99998
 50
9.54886
 51
10.97161
  0
ARC
  8
2
  6
CONTINUOUS
 62
     2
  5
5FB
 10
47629.047087
 20
8854.888374
 30
0.0
 40
24.999999
 50
155.001099
 51
174.54863
  0
ARC
  8
2
  6
CONTINUOUS
 62
     2
  5
5FC
 10
47528.993087
 20
10388.452374
 30
0.0
 40
1499.9998
 50
267.46654
 51
270.0
  0
ARC
  8
2
  6
CONTINUOUS
 62
     2
  5
5FD
 10
47587.205087
 20
9800.699374
 30
0.0
 40
899.99979
 50
254.39087
 51
274.42421
  0
ARC
  8
2
  6
CONTINUOUS
 62
     2
  5
5FE
 10
47753.445087
 20
9918.402374
 30
0.0
 40
999.99992
 50
254.94193
 51
264.11771
  0
ARC
  8
2
  6
CONTINUOUS
 62
     2
  5
5FF
 10
46876.976087
 20
8729.280374
 30
0.0
 40
799.99998
 50
12.65891
 51
13.6922
  0
ARC
  8
2
  6
CONTINUOUS
 62
     2
  5
600
 10
47645.496087
 20
8916.514374
 30
0.0
 40
9.0
 50
13.6922
 51
71.33884
  0
ARC
  8
2
  6
CONTINUOUS
 62
     2
  5
601
 10
47168.421087
 20
7503.900374
 30
0.0
 40
1499.9998
 50
71.33884
 51
84.124817
  0
ARC
  8
2
  6
CONTINUOUS
 62
     2
  5
602
 10
47656.554087
 20
8904.378374
 30
0.0
 40
1.0
 50
274.42421
 51
12.65891
  0
ARC
  8
2
  6
CONTINUOUS
 62
     2
  5
603
 10
47103.950087
 20
7504.243374
 30
0.0
 40
1499.9998
 50
74.94193
 51
81.812104
  0
ARC
  8
2
  6
CONTINUOUS
 62
     2
  5
604
 10
47557.191087
 20
8892.348374
 30
0.0
 40
4.430167
 50
193.33194
 51
236.05881
  0
ARC
  8
2
  6
CONTINUOUS
 62
     2
  5
605
 10
47237.680087
 20
8999.958374
 30
0.0
 40
3.999999
 50
85.090973
 51
172.192932
  0
ARC
  8
2
  6
CONTINUOUS
 62
     2
  5
606
 10
47528.993087
 20
10388.452374
 30
0.0
 40
1499.9998
 50
271.55163
 51
274.65102
  0
ARC
  8
2
  6
CONTINUOUS
 62
     2
  5
607
 10
47566.705087
 20
8892.348374
 30
0.0
 40
4.430192
 50
310.97378
 51
346.9965
  0
ARC
  8
2
  6
CONTINUOUS
 62
     2
  5
608
 10
47002.051087
 20
8645.453374
 30
0.0
 40
699.99985
 50
81.595246
 51
98.40474
  0
ARC
  8
2
  6
CONTINUOUS
 62
     2
  5
609
 10
47103.054087
 20
9329.031374
 30
0.0
 40
9.000289
 50
359.99785
 51
81.593674
  0
ARC
  8
2
  6
CONTINUOUS
 62
     2
  5
60A
 10
47096.241087
 20
8867.453374
 30
0.0
 40
7.000002
 50
269.99997
 51
349.98783
  0
ARC
  8
2
  6
CONTINUOUS
 62
     2
  5
60B
 10
46913.014087
 20
8867.453374
 30
0.0
 40
7.000007
 50
188.99143
 51
270.00008
  0
ARC
  8
2
  6
CONTINUOUS
 62
     2
  5
60C
 10
47696.283087
 20
8991.290374
 30
0.0
 40
799.99998
 50
180.81086
 51
188.98432
  0
ARC
  8
2
  6
CONTINUOUS
 62
     2
  5
60D
 10
46807.703087
 20
8918.381374
 30
0.0
 40
300.00015
 50
349.99006
 51
359.34131
  0
ARC
  8
2
  6
CONTINUOUS
 62
     2
  5
60E
 10
46896.881087
 20
9293.453374
 30
0.0
 40
2.000273
 50
89.981095
 51
134.9973
  0
ARC
  8
2
  6
CONTINUOUS
 62
     2
  5
60F
 10
46894.053087
 20
9290.624374
 30
0.0
 40
1.99992
 50
134.990387
 51
179.994446
  0
ARC
  8
2
  6
CONTINUOUS
 62
     2
  5
610
 10
47107.219087
 20
9293.453374
 30
0.0
 40
2.000035
 50
44.75327
 51
90.002411
  0
ARC
  8
2
  6
CONTINUOUS
 62
     2
  5
611
 10
47110.001087
 20
9290.650374
 30
0.0
 40
2.000016
 50
359.34221
 51
44.75399
  0
ARC
  8
2
  6
CONTINUOUS
 62
     2
  5
612
 10
47109.052087
 20
9298.452374
 30
0.0
 40
2.999999
 50
270.0
 51
0.0
  0
ARC
  8
2
  6
CONTINUOUS
 62
     2
  5
613
 10
46895.054087
 20
9298.452374
 30
0.0
 40
2.999999
 50
180.0
 51
270.0
  0
ARC
  8
2
  6
CONTINUOUS
 62
     2
  5
614
 10
46901.052087
 20
9329.031374
 30
0.0
 40
9.000363
 50
98.41005
 51
180.00268
  0
ARC
  8
2
  6
CONTINUOUS
 62
     2
  5
615
 10
47520.266087
 20
8513.306374
 30
0.0
 40
0.518105
 50
335.86434
 51
0.44928
  0
ARC
  8
2
  6
CONTINUOUS
 62
     2
  5
616
 10
47497.786087
 20
8510.452374
 30
0.0
 40
24.999999
 50
344.1021
 51
15.89789
  0
ARC
  8
2
  6
CONTINUOUS
 62
     2
  5
617
 10
47649.055087
 20
8842.452374
 30
0.0
 40
7.999971
 50
349.99964
 51
89.999817
  0
ARC
  8
2
  6
CONTINUOUS
 62
     2
  5
618
 10
47563.055087
 20
8658.454374
 30
0.0
 40
49.999742
 50
116.539399
 51
185.06452
  0
ARC
  8
2
  6
CONTINUOUS
 62
     2
  5
619
 10
47429.009087
 20
8926.841374
 30
0.0
 40
249.99946
 50
296.53948
 51
323.32251
  0
ARC
  8
2
  6
CONTINUOUS
 62
     2
  5
61A
 10
47509.211087
 20
8867.110374
 30
0.0
 40
150.00029
 50
323.32235
 51
350.00016
  0
ARC
  8
2
  6
CONTINUOUS
 62
     2
  5
61B
 10
46968.054087
 20
8859.453374
 30
0.0
 40
1.0
 50
0.0
 51
90.0
  0
ARC
  8
2
  6
CONTINUOUS
 62
     2
  5
61C
 10
46960.054087
 20
8859.453374
 30
0.0
 40
1.0
 50
90.0
 51
180.0
  0
ARC
  8
2
  6
CONTINUOUS
 62
     2
  5
61D
 10
45521.043087
 20
8477.506374
 30
0.0
 40
2000.0092
 50
1.01957
 51
5.06386
  0
ARC
  8
2
  6
CONTINUOUS
 62
     2
  5
61E
 10
47099.054087
 20
8855.453374
 30
0.0
 40
5.000128
 50
180.00145
 51
269.99854
  0
ARC
  8
2
  6
CONTINUOUS
 62
     2
  5
61F
 10
47066.054087
 20
8859.453374
 30
0.0
 40
1.0
 50
0.0
 51
90.0
  0
ARC
  8
2
  6
CONTINUOUS
 62
     2
  5
620
 10
47058.054087
 20
8859.453374
 30
0.0
 40
1.0
 50
90.0
 51
180.0
  0
ARC
  8
2
  6
CONTINUOUS
 62
     2
  5
621
 10
47238.972087
 20
8695.452374
 30
0.0
 40
12.000091
 50
269.99972
 51
23.54625
  0
ARC
  8
2
  6
CONTINUOUS
 62
     2
  5
622
 10
46962.056087
 20
8828.454374
 30
0.0
 40
3.002011
 50
180.05707
 51
270.05707
  0
ARC
  8
2
  6
CONTINUOUS
 62
     2
  5
623
 10
47792.020087
 20
8936.453374
 30
0.0
 40
591.27457
 50
194.7961
 51
203.54604
  0
ARC
  8
2
  6
CONTINUOUS
 62
     2
  5
624
 10
47178.175087
 20
8985.453374
 30
0.0
 40
200.00028
 50
240.25495
 51
269.99987
  0
ARC
  8
2
  6
CONTINUOUS
 62
     2
  5
625
 10
47052.402087
 20
8815.452374
 30
0.0
 40
10.000138
 50
60.25496
 51
90.002961
  0
ARC
  8
2
  6
CONTINUOUS
 62
     2
  5
626
 10
47007.808087
 20
8498.453374
 30
0.0
 40
6.999546
 50
90.003861
 51
177.612808
  0
ARC
  8
2
  6
CONTINUOUS
 62
     2
  5
627
 10
47113.052087
 20
8509.453374
 30
0.0
 40
3.999999
 50
270.0
 51
0.0
  0
ARC
  8
2
  6
CONTINUOUS
 62
     2
  5
628
 10
47162.052087
 20
8638.452374
 30
0.0
 40
44.999994
 50
90.0
 51
180.0
  0
ARC
  8
2
  6
CONTINUOUS
 62
     2
  5
629
 10
47014.233087
 20
8532.452374
 30
0.0
 40
11.999709
 50
90.001435
 51
177.613297
  0
ARC
  8
2
  6
CONTINUOUS
 62
     2
  5
62A
 10
47015.479087
 20
8562.453374
 30
0.0
 40
11.999709
 50
90.001435
 51
177.613297
  0
ARC
  8
2
  6
CONTINUOUS
 62
     2
  5
62B
 10
47105.052087
 20
8586.453374
 30
0.0
 40
11.999996
 50
270.0
 51
0.0
  0
LINE
  8
5
  6
CONTINUOUS
 62
     3
  5
62C
 10
48212.395087
 20
8480.453374
 30
0.0
 11
48012.395087
 21
8480.453374
 31
0.0
  0
CIRCLE
  8
5
  6
CONTINUOUS
 62
     3
  5
62D
 10
48212.395087
 20
8480.453374
 30
0.0
 40
7.5
  0
CIRCLE
  8
5
  6
CONTINUOUS
 62
     3
  5
62E
 10
48112.395087
 20
8480.453374
 30
0.0
 40
7.5
  0
ARC
  8
7
  6
CONTINUOUS
 62
     4
  5
62F
 10
48009.395087
 20
9580.453374
 30
0.0
 40
7.7
 50
90.0
 51
270.0
  0
ARC
  8
7
  6
CONTINUOUS
 62
     4
  5
630
 10
48009.395087
 20
9580.453374
 30
0.0
 40
6.8
 50
90.0
 51
270.0
  0
LINE
  8
7
  6
CONTINUOUS
 62
     4
  5
631
 10
48016.395087
 20
9588.053374
 30
0.0
 11
48009.395087
 21
9588.053374
 31
0.0
  0
LINE
  8
7
  6
CONTINUOUS
 62
     4
  5
632
 10
48009.395087
 20
9587.153374
 30
0.0
 11
48015.695087
 21
9587.153374
 31
0.0
  0
ARC
  8
7
  6
CONTINUOUS
 62
     4
  5
633
 10
47974.395087
 20
9580.453374
 30
0.0
 40
41.8
 50
350.63
 51
9.02
  0
LINE
  8
7
  6
CONTINUOUS
 62
     4
  5
634
 10
48009.395087
 20
9573.653374
 30
0.0
 11
48015.595087
 21
9573.653374
 31
0.0
  0
LINE
  8
7
  6
CONTINUOUS
 62
     4
  5
635
 10
48016.395087
 20
9572.753374
 30
0.0
 11
48009.395087
 21
9572.753374
 31
0.0
  0
ARC
  8
7
  6
CONTINUOUS
 62
     4
  5
636
 10
47974.395087
 20
9580.453374
 30
0.0
 40
45.0
 50
299.87
 51
60.13
  0
ARC
  8
7
  6
DIVIDE
 62
     4
  5
637
 10
47974.395087
 20
9580.453374
 30
0.0
 40
42.7
 50
301.61
 51
58.39
  0
CIRCLE
  8
7
  6
CONTINUOUS
 62
     4
  5
638
 10
48009.395087
 20
9580.453374
 30
0.0
 40
4.0
  0
CIRCLE
  8
7
  6
CONTINUOUS
 62
     4
  5
639
 10
48009.395087
 20
9580.453374
 30
0.0
 40
4.4
  0
ARC
  8
7
  6
CONTINUOUS
 62
     4
  5
63A
 10
47956.895087
 20
9610.753374
 30
0.0
 40
7.7
 50
210.0
 51
30.0
  0
ARC
  8
7
  6
CONTINUOUS
 62
     4
  5
63B
 10
47956.895087
 20
9610.753374
 30
0.0
 40
6.8
 50
210.0
 51
30.0
  0
LINE
  8
7
  6
CONTINUOUS
 62
     4
  5
63C
 10
47946.795087
 20
9613.053374
 30
0.0
 11
47950.295087
 21
9606.953374
 31
0.0
  0
LINE
  8
7
  6
CONTINUOUS
 62
     4
  5
63D
 10
47951.095087
 20
9607.453374
 30
0.0
 11
47947.895087
 21
9612.853374
 31
0.0
  0
ARC
  8
7
  6
CONTINUOUS
 62
     4
  5
63E
 10
47974.395087
 20
9580.453374
 30
0.0
 40
41.8
 50
110.63
 51
129.02
  0
LINE
  8
7
  6
CONTINUOUS
 62
     4
  5
63F
 10
47962.795087
 20
9614.153374
 30
0.0
 11
47959.695087
 21
9619.553374
 31
0.0
  0
LINE
  8
7
  6
CONTINUOUS
 62
     4
  5
640
 10
47960.095087
 20
9620.653374
 30
0.0
 11
47963.595087
 21
9614.653374
 31
0.0
  0
ARC
  8
7
  6
DIVIDE
 62
     4
  5
641
 10
47974.395087
 20
9580.453374
 30
0.0
 40
42.7
 50
98.62
 51
160.29
  0
ARC
  8
7
  6
CONTINUOUS
 62
     4
  5
642
 10
47974.395087
 20
9580.453374
 30
0.0
 40
45.0
 50
98.18
 51
161.32
  0
CIRCLE
  8
7
  6
CONTINUOUS
 62
     4
  5
643
 10
47956.895087
 20
9610.753374
 30
0.0
 40
4.0
  0
CIRCLE
  8
7
  6
CONTINUOUS
 62
     4
  5
644
 10
47956.895087
 20
9610.753374
 30
0.0
 40
4.4
  0
ARC
  8
7
  6
CONTINUOUS
 62
     4
  5
645
 10
47956.895087
 20
9550.153374
 30
0.0
 40
7.7
 50
330.0
 51
150.0
  0
ARC
  8
7
  6
CONTINUOUS
 62
     4
  5
646
 10
47956.895087
 20
9550.153374
 30
0.0
 40
6.8
 50
330.0
 51
150.0
  0
LINE
  8
7
  6
CONTINUOUS
 62
     4
  5
647
 10
47959.995087
 20
9540.253374
 30
0.0
 11
47963.495087
 21
9546.353374
 31
0.0
  0
LINE
  8
7
  6
CONTINUOUS
 62
     4
  5
648
 10
47962.695087
 20
9546.753374
 30
0.0
 11
47959.595087
 21
9541.353374
 31
0.0
  0
ARC
  8
7
  6
CONTINUOUS
 62
     4
  5
649
 10
47974.395087
 20
9580.453374
 30
0.0
 40
41.8
 50
230.63
 51
249.02
  0
LINE
  8
7
  6
CONTINUOUS
 62
     4
  5
64A
 10
47950.995087
 20
9553.553374
 30
0.0
 11
47947.895087
 21
9548.153374
 31
0.0
  0
LINE
  8
7
  6
CONTINUOUS
 62
     4
  5
64B
 10
47946.695087
 20
9547.953374
 30
0.0
 11
47950.195087
 21
9553.953374
 31
0.0
  0
ARC
  8
7
  6
DIVIDE
 62
     4
  5
64C
 10
47974.395087
 20
9580.453374
 30
0.0
 40
42.7
 50
199.71
 51
261.38
  0
ARC
  8
7
  6
CONTINUOUS
 62
     4
  5
64D
 10
47974.395087
 20
9580.453374
 30
0.0
 40
45.0
 50
198.68
 51
261.82
  0
CIRCLE
  8
7
  6
CONTINUOUS
 62
     4
  5
64E
 10
47956.895087
 20
9550.153374
 30
0.0
 40
4.0
  0
CIRCLE
  8
7
  6
CONTINUOUS
 62
     4
  5
64F
 10
47956.895087
 20
9550.153374
 30
0.0
 40
4.4
  0
ARC
  8
7
  6
CONTINUOUS
 62
     4
  5
650
 10
48009.395087
 20
9280.453374
 30
0.0
 40
7.7
 50
90.0
 51
270.0
  0
ARC
  8
7
  6
CONTINUOUS
 62
     4
  5
651
 10
48009.395087
 20
9280.453374
 30
0.0
 40
6.8
 50
90.0
 51
270.0
  0
LINE
  8
7
  6
CONTINUOUS
 62
     4
  5
652
 10
48016.395087
 20
9288.053374
 30
0.0
 11
48009.395087
 21
9288.053374
 31
0.0
  0
LINE
  8
7
  6
CONTINUOUS
 62
     4
  5
653
 10
48009.395087
 20
9287.153374
 30
0.0
 11
48015.695087
 21
9287.153374
 31
0.0
  0
ARC
  8
7
  6
CONTINUOUS
 62
     4
  5
654
 10
47974.395087
 20
9280.453374
 30
0.0
 40
41.8
 50
350.63
 51
9.02
  0
LINE
  8
7
  6
CONTINUOUS
 62
     4
  5
655
 10
48009.395087
 20
9273.653374
 30
0.0
 11
48015.595087
 21
9273.653374
 31
0.0
  0
LINE
  8
7
  6
CONTINUOUS
 62
     4
  5
656
 10
48016.395087
 20
9272.753374
 30
0.0
 11
48009.395087
 21
9272.753374
 31
0.0
  0
ARC
  8
7
  6
DIVIDE
 62
     4
  5
657
 10
47974.395087
 20
9280.453374
 30
0.0
 40
42.7
 50
301.61
 51
58.39
  0
ARC
  8
7
  6
CONTINUOUS
 62
     4
  5
658
 10
47974.395087
 20
9280.453374
 30
0.0
 40
45.0
 50
299.87
 51
60.13
  0
CIRCLE
  8
7
  6
CONTINUOUS
 62
     4
  5
659
 10
48009.395087
 20
9280.453374
 30
0.0
 40
4.0
  0
CIRCLE
  8
7
  6
CONTINUOUS
 62
     4
  5
65A
 10
48009.395087
 20
9280.453374
 30
0.0
 40
4.4
  0
ARC
  8
7
  6
CONTINUOUS
 62
     4
  5
65B
 10
47956.895087
 20
9250.153374
 30
0.0
 40
7.7
 50
330.0
 51
150.0
  0
ARC
  8
7
  6
CONTINUOUS
 62
     4
  5
65C
 10
47956.895087
 20
9250.153374
 30
0.0
 40
6.8
 50
330.0
 51
150.0
  0
LINE
  8
7
  6
CONTINUOUS
 62
     4
  5
65D
 10
47959.995087
 20
9240.253374
 30
0.0
 11
47963.495087
 21
9246.353374
 31
0.0
  0
LINE
  8
7
  6
CONTINUOUS
 62
     4
  5
65E
 10
47962.695087
 20
9246.753374
 30
0.0
 11
47959.595087
 21
9241.353374
 31
0.0
  0
ARC
  8
7
  6
CONTINUOUS
 62
     4
  5
65F
 10
47974.395087
 20
9280.453374
 30
0.0
 40
41.8
 50
230.63
 51
249.02
  0
LINE
  8
7
  6
CONTINUOUS
 62
     4
  5
660
 10
47950.995087
 20
9253.553374
 30
0.0
 11
47947.895087
 21
9248.153374
 31
0.0
  0
LINE
  8
7
  6
CONTINUOUS
 62
     4
  5
661
 10
47946.695087
 20
9247.953374
 30
0.0
 11
47950.195087
 21
9253.953374
 31
0.0
  0
ARC
  8
7
  6
DIVIDE
 62
     4
  5
662
 10
47974.395087
 20
9280.453374
 30
0.0
 40
42.7
 50
199.71
 51
261.38
  0
ARC
  8
7
  6
CONTINUOUS
 62
     4
  5
663
 10
47974.395087
 20
9280.453374
 30
0.0
 40
45.0
 50
198.68
 51
261.82
  0
CIRCLE
  8
7
  6
CONTINUOUS
 62
     4
  5
664
 10
47956.895087
 20
9250.153374
 30
0.0
 40
4.0
  0
CIRCLE
  8
7
  6
CONTINUOUS
 62
     4
  5
665
 10
47956.895087
 20
9250.153374
 30
0.0
 40
4.4
  0
ARC
  8
7
  6
CONTINUOUS
 62
     4
  5
666
 10
47956.895087
 20
9310.753374
 30
0.0
 40
7.7
 50
210.0
 51
30.0
  0
ARC
  8
7
  6
CONTINUOUS
 62
     4
  5
667
 10
47956.895087
 20
9310.753374
 30
0.0
 40
6.8
 50
210.0
 51
30.0
  0
LINE
  8
7
  6
CONTINUOUS
 62
     4
  5
668
 10
47946.795087
 20
9313.053374
 30
0.0
 11
47950.295087
 21
9306.953374
 31
0.0
  0
LINE
  8
7
  6
CONTINUOUS
 62
     4
  5
669
 10
47951.095087
 20
9307.453374
 30
0.0
 11
47947.895087
 21
9312.853374
 31
0.0
  0
ARC
  8
7
  6
CONTINUOUS
 62
     4
  5
66A
 10
47974.395087
 20
9280.453374
 30
0.0
 40
41.8
 50
110.63
 51
129.02
  0
LINE
  8
7
  6
CONTINUOUS
 62
     4
  5
66B
 10
47962.795087
 20
9314.153374
 30
0.0
 11
47959.695087
 21
9319.553374
 31
0.0
  0
LINE
  8
7
  6
CONTINUOUS
 62
     4
  5
66C
 10
47960.095087
 20
9320.653374
 30
0.0
 11
47963.595087
 21
9314.653374
 31
0.0
  0
ARC
  8
7
  6
DIVIDE
 62
     4
  5
66D
 10
47974.395087
 20
9280.453374
 30
0.0
 40
42.7
 50
98.62
 51
160.29
  0
ARC
  8
7
  6
CONTINUOUS
 62
     4
  5
66E
 10
47974.395087
 20
9280.453374
 30
0.0
 40
45.0
 50
98.18
 51
161.32
  0
CIRCLE
  8
7
  6
CONTINUOUS
 62
     4
  5
66F
 10
47956.895087
 20
9310.753374
 30
0.0
 40
4.0
  0
CIRCLE
  8
7
  6
CONTINUOUS
 62
     4
  5
670
 10
47956.895087
 20
9310.753374
 30
0.0
 40
4.4
  0
ARC
  8
7
  6
CONTINUOUS
 62
     4
  5
671
 10
47557.895087
 20
9310.753374
 30
0.0
 40
7.7
 50
150.0
 51
330.0
  0
ARC
  8
7
  6
CONTINUOUS
 62
     4
  5
672
 10
47557.895087
 20
9310.753374
 30
0.0
 40
6.8
 50
150.0
 51
330.0
  0
LINE
  8
7
  6
CONTINUOUS
 62
     4
  5
673
 10
47554.795087
 20
9320.653374
 30
0.0
 11
47551.295087
 21
9314.553374
 31
0.0
  0
LINE
  8
7
  6
CONTINUOUS
 62
     4
  5
674
 10
47552.095087
 20
9314.153374
 30
0.0
 11
47555.195087
 21
9319.553374
 31
0.0
  0
ARC
  8
7
  6
CONTINUOUS
 62
     4
  5
675
 10
47540.395087
 20
9280.453374
 30
0.0
 40
41.8
 50
50.63
 51
69.02
  0
LINE
  8
7
  6
CONTINUOUS
 62
     4
  5
676
 10
47563.795087
 20
9307.353374
 30
0.0
 11
47566.895087
 21
9312.753374
 31
0.0
  0
LINE
  8
7
  6
CONTINUOUS
 62
     4
  5
677
 10
47568.095087
 20
9312.953374
 30
0.0
 11
47564.595087
 21
9306.953374
 31
0.0
  0
ARC
  8
7
  6
DIVIDE
 62
     4
  5
678
 10
47540.395087
 20
9280.453374
 30
0.0
 40
42.7
 50
19.71
 51
81.38
  0
ARC
  8
7
  6
CONTINUOUS
 62
     4
  5
679
 10
47540.395087
 20
9280.453374
 30
0.0
 40
45.0
 50
18.68
 51
81.82
  0
CIRCLE
  8
7
  6
CONTINUOUS
 62
     4
  5
67A
 10
47557.895087
 20
9310.753374
 30
0.0
 40
4.4
  0
CIRCLE
  8
7
  6
CONTINUOUS
 62
     4
  5
67B
 10
47557.895087
 20
9310.753374
 30
0.0
 40
4.0
  0
ARC
  8
7
  6
CONTINUOUS
 62
     4
  5
67C
 10
47557.895087
 20
9250.153374
 30
0.0
 40
7.7
 50
30.0
 51
210.0
  0
ARC
  8
7
  6
CONTINUOUS
 62
     4
  5
67D
 10
47557.895087
 20
9250.153374
 30
0.0
 40
6.8
 50
30.0
 51
210.0
  0
LINE
  8
7
  6
CONTINUOUS
 62
     4
  5
67E
 10
47567.995087
 20
9247.853374
 30
0.0
 11
47564.495087
 21
9253.953374
 31
0.0
  0
LINE
  8
7
  6
CONTINUOUS
 62
     4
  5
67F
 10
47563.695087
 20
9253.453374
 30
0.0
 11
47566.895087
 21
9248.053374
 31
0.0
  0
ARC
  8
7
  6
CONTINUOUS
 62
     4
  5
680
 10
47540.395087
 20
9280.453374
 30
0.0
 40
41.8
 50
290.63
 51
309.02
  0
LINE
  8
7
  6
CONTINUOUS
 62
     4
  5
681
 10
47551.995087
 20
9246.753374
 30
0.0
 11
47555.095087
 21
9241.353374
 31
0.0
  0
LINE
  8
7
  6
CONTINUOUS
 62
     4
  5
682
 10
47554.695087
 20
9240.253374
 30
0.0
 11
47551.195087
 21
9246.253374
 31
0.0
  0
ARC
  8
7
  6
CONTINUOUS
 62
     4
  5
683
 10
47540.395087
 20
9280.453374
 30
0.0
 40
45.0
 50
278.18
 51
341.32
  0
ARC
  8
7
  6
DIVIDE
 62
     4
  5
684
 10
47540.395087
 20
9280.453374
 30
0.0
 40
42.7
 50
278.62
 51
340.29
  0
CIRCLE
  8
7
  6
CONTINUOUS
 62
     4
  5
685
 10
47557.895087
 20
9250.153374
 30
0.0
 40
4.0
  0
CIRCLE
  8
7
  6
CONTINUOUS
 62
     4
  5
686
 10
47557.895087
 20
9250.153374
 30
0.0
 40
4.4
  0
ARC
  8
7
  6
CONTINUOUS
 62
     4
  5
687
 10
47505.395087
 20
9280.453374
 30
0.0
 40
7.7
 50
270.0
 51
90.0
  0
ARC
  8
7
  6
CONTINUOUS
 62
     4
  5
688
 10
47505.395087
 20
9280.453374
 30
0.0
 40
6.8
 50
270.0
 51
90.0
  0
LINE
  8
7
  6
CONTINUOUS
 62
     4
  5
689
 10
47498.395087
 20
9272.853374
 30
0.0
 11
47505.395087
 21
9272.853374
 31
0.0
  0
LINE
  8
7
  6
CONTINUOUS
 62
     4
  5
68A
 10
47505.395087
 20
9273.753374
 30
0.0
 11
47499.095087
 21
9273.753374
 31
0.0
  0
ARC
  8
7
  6
CONTINUOUS
 62
     4
  5
68B
 10
47540.395087
 20
9280.453374
 30
0.0
 40
41.8
 50
170.63
 51
189.02
  0
LINE
  8
7
  6
CONTINUOUS
 62
     4
  5
68C
 10
47505.395087
 20
9287.253374
 30
0.0
 11
47499.195087
 21
9287.253374
 31
0.0
  0
LINE
  8
7
  6
CONTINUOUS
 62
     4
  5
68D
 10
47498.395087
 20
9288.153374
 30
0.0
 11
47505.395087
 21
9288.153374
 31
0.0
  0
ARC
  8
7
  6
CONTINUOUS
 62
     4
  5
68E
 10
47540.395087
 20
9280.453374
 30
0.0
 40
45.0
 50
119.87
 51
240.13
  0
ARC
  8
7
  6
DIVIDE
 62
     4
  5
68F
 10
47540.395087
 20
9280.453374
 30
0.0
 40
42.7
 50
121.61
 51
238.39
  0
CIRCLE
  8
7
  6
CONTINUOUS
 62
     4
  5
690
 10
47505.395087
 20
9280.453374
 30
0.0
 40
4.0
  0
CIRCLE
  8
7
  6
CONTINUOUS
 62
     4
  5
691
 10
47505.395087
 20
9280.453374
 30
0.0
 40
4.4
  0
ARC
  8
7
  6
CONTINUOUS
 62
     4
  5
692
 10
47557.895087
 20
9610.753374
 30
0.0
 40
7.7
 50
150.0
 51
330.0
  0
ARC
  8
7
  6
CONTINUOUS
 62
     4
  5
693
 10
47557.895087
 20
9610.753374
 30
0.0
 40
6.8
 50
150.0
 51
330.0
  0
LINE
  8
7
  6
CONTINUOUS
 62
     4
  5
694
 10
47554.795087
 20
9620.653374
 30
0.0
 11
47551.295087
 21
9614.553374
 31
0.0
  0
LINE
  8
7
  6
CONTINUOUS
 62
     4
  5
695
 10
47552.095087
 20
9614.153374
 30
0.0
 11
47555.195087
 21
9619.553374
 31
0.0
  0
ARC
  8
7
  6
CONTINUOUS
 62
     4
  5
696
 10
47540.395087
 20
9580.453374
 30
0.0
 40
41.8
 50
50.63
 51
69.02
  0
LINE
  8
7
  6
CONTINUOUS
 62
     4
  5
697
 10
47563.795087
 20
9607.353374
 30
0.0
 11
47566.895087
 21
9612.753374
 31
0.0
  0
LINE
  8
7
  6
CONTINUOUS
 62
     4
  5
698
 10
47568.095087
 20
9612.953374
 30
0.0
 11
47564.595087
 21
9606.953374
 31
0.0
  0
ARC
  8
7
  6
CONTINUOUS
 62
     4
  5
699
 10
47540.395087
 20
9580.453374
 30
0.0
 40
45.0
 50
18.68
 51
81.82
  0
ARC
  8
7
  6
DIVIDE
 62
     4
  5
69A
 10
47540.395087
 20
9580.453374
 30
0.0
 40
42.7
 50
19.71
 51
81.38
  0
CIRCLE
  8
7
  6
CONTINUOUS
 62
     4
  5
69B
 10
47557.895087
 20
9610.753374
 30
0.0
 40
4.4
  0
CIRCLE
  8
7
  6
CONTINUOUS
 62
     4
  5
69C
 10
47557.895087
 20
9610.753374
 30
0.0
 40
4.0
  0
ARC
  8
7
  6
CONTINUOUS
 62
     4
  5
69D
 10
47557.895087
 20
9550.153374
 30
0.0
 40
7.7
 50
30.0
 51
210.0
  0
ARC
  8
7
  6
CONTINUOUS
 62
     4
  5
69E
 10
47557.895087
 20
9550.153374
 30
0.0
 40
6.8
 50
30.0
 51
210.0
  0
LINE
  8
7
  6
CONTINUOUS
 62
     4
  5
69F
 10
47567.995087
 20
9547.853374
 30
0.0
 11
47564.495087
 21
9553.953374
 31
0.0
  0
LINE
  8
7
  6
CONTINUOUS
 62
     4
  5
6A0
 10
47563.695087
 20
9553.453374
 30
0.0
 11
47566.895087
 21
9548.053374
 31
0.0
  0
ARC
  8
7
  6
CONTINUOUS
 62
     4
  5
6A1
 10
47540.395087
 20
9580.453374
 30
0.0
 40
41.8
 50
290.63
 51
309.02
  0
LINE
  8
7
  6
CONTINUOUS
 62
     4
  5
6A2
 10
47551.995087
 20
9546.753374
 30
0.0
 11
47555.095087
 21
9541.353374
 31
0.0
  0
LINE
  8
7
  6
CONTINUOUS
 62
     4
  5
6A3
 10
47554.695087
 20
9540.253374
 30
0.0
 11
47551.195087
 21
9546.253374
 31
0.0
  0
ARC
  8
7
  6
DIVIDE
 62
     4
  5
6A4
 10
47540.395087
 20
9580.453374
 30
0.0
 40
42.7
 50
278.62
 51
340.29
  0
ARC
  8
7
  6
CONTINUOUS
 62
     4
  5
6A5
 10
47540.395087
 20
9580.453374
 30
0.0
 40
45.0
 50
278.18
 51
341.32
  0
CIRCLE
  8
7
  6
CONTINUOUS
 62
     4
  5
6A6
 10
47557.895087
 20
9550.153374
 30
0.0
 40
4.0
  0
CIRCLE
  8
7
  6
CONTINUOUS
 62
     4
  5
6A7
 10
47557.895087
 20
9550.153374
 30
0.0
 40
4.4
  0
ARC
  8
7
  6
CONTINUOUS
 62
     4
  5
6A8
 10
47505.395087
 20
9580.453374
 30
0.0
 40
7.7
 50
270.0
 51
90.0
  0
ARC
  8
7
  6
CONTINUOUS
 62
     4
  5
6A9
 10
47505.395087
 20
9580.453374
 30
0.0
 40
6.8
 50
270.0
 51
90.0
  0
LINE
  8
7
  6
CONTINUOUS
 62
     4
  5
6AA
 10
47498.395087
 20
9572.853374
 30
0.0
 11
47505.395087
 21
9572.853374
 31
0.0
  0
LINE
  8
7
  6
CONTINUOUS
 62
     4
  5
6AB
 10
47505.395087
 20
9573.753374
 30
0.0
 11
47499.095087
 21
9573.753374
 31
0.0
  0
ARC
  8
7
  6
CONTINUOUS
 62
     4
  5
6AC
 10
47540.395087
 20
9580.453374
 30
0.0
 40
41.8
 50
170.63
 51
189.02
  0
LINE
  8
7
  6
CONTINUOUS
 62
     4
  5
6AD
 10
47505.395087
 20
9587.253374
 30
0.0
 11
47499.195087
 21
9587.253374
 31
0.0
  0
LINE
  8
7
  6
CONTINUOUS
 62
     4
  5
6AE
 10
47498.395087
 20
9588.153374
 30
0.0
 11
47505.395087
 21
9588.153374
 31
0.0
  0
ARC
  8
7
  6
DIVIDE
 62
     4
  5
6AF
 10
47540.395087
 20
9580.453374
 30
0.0
 40
42.7
 50
121.61
 51
238.39
  0
ARC
  8
7
  6
CONTINUOUS
 62
     4
  5
6B0
 10
47540.395087
 20
9580.453374
 30
0.0
 40
45.0
 50
119.87
 51
240.13
  0
CIRCLE
  8
7
  6
CONTINUOUS
 62
     4
  5
6B1
 10
47505.395087
 20
9580.453374
 30
0.0
 40
4.0
  0
CIRCLE
  8
7
  6
CONTINUOUS
 62
     4
  5
6B2
 10
47505.395087
 20
9580.453374
 30
0.0
 40
4.4
  0
ARC
  8
7
  6
CONTINUOUS
 62
     4
  5
6B3
 10
47951.795087
 20
9699.853374
 30
0.0
 40
45.0
 50
0.0
 51
90.0
  0
ARC
  8
7
  6
CONTINUOUS
 62
     4
  5
6B4
 10
47949.995087
 20
9698.053374
 30
0.0
 40
18.0
 50
0.0
 51
90.0
  0
ARC
  8
7
  6
CONTINUOUS
 62
     4
  5
6B5
 10
47799.995087
 20
9698.053374
 30
0.0
 40
18.0
 50
0.0
 51
90.0
  0
ARC
  8
7
  6
CONTINUOUS
 62
     4
  5
6B6
 10
47864.795087
 20
9698.053374
 30
0.0
 40
18.0
 50
90.0
 51
180.0
  0
ARC
  8
7
  6
CONTINUOUS
 62
     4
  5
6B7
 10
47714.795087
 20
9698.053374
 30
0.0
 40
18.0
 50
90.0
 51
180.0
  0
ARC
  8
7
  6
CONTINUOUS
 62
     4
  5
6B8
 10
47649.995087
 20
9698.053374
 30
0.0
 40
18.0
 50
0.0
 51
90.0
  0
ARC
  8
7
  6
CONTINUOUS
 62
     4
  5
6B9
 10
47562.995087
 20
9699.853374
 30
0.0
 40
45.0
 50
90.0
 51
180.0
  0
ARC
  8
7
  6
CONTINUOUS
 62
     4
  5
6BA
 10
47564.795087
 20
9698.053374
 30
0.0
 40
18.0
 50
90.0
 51
180.0
  0
LINE
  8
7
  6
CONTINUOUS
 62
     4
  5
6BB
 10
47667.995087
 20
9248.053374
 30
0.0
 11
47667.995087
 21
9162.853374
 31
0.0
  0
LINE
  8
7
  6
CONTINUOUS
 62
     4
  5
6BC
 10
47696.795087
 20
9248.053374
 30
0.0
 11
47696.795087
 21
9162.853374
 31
0.0
  0
LINE
  8
7
  6
CONTINUOUS
 62
     4
  5
6BD
 10
47817.995087
 20
9248.053374
 30
0.0
 11
47817.995087
 21
9162.853374
 31
0.0
  0
LINE
  8
7
  6
CONTINUOUS
 62
     4
  5
6BE
 10
47846.795087
 20
9248.053374
 30
0.0
 11
47846.795087
 21
9162.853374
 31
0.0
  0
LINE
  8
7
  6
CONTINUOUS
 62
     4
  5
6BF
 10
47696.795087
 20
9548.053374
 30
0.0
 11
47696.795087
 21
9462.853374
 31
0.0
  0
LINE
  8
7
  6
CONTINUOUS
 62
     4
  5
6C0
 10
47799.995087
 20
9594.853374
 30
0.0
 11
47714.795087
 21
9594.853374
 31
0.0
  0
LINE
  8
7
  6
CONTINUOUS
 62
     4
  5
6C1
 10
47799.995087
 20
9566.053374
 30
0.0
 11
47714.795087
 21
9566.053374
 31
0.0
  0
LINE
  8
7
  6
CONTINUOUS
 62
     4
  5
6C2
 10
47799.995087
 20
9294.853374
 30
0.0
 11
47714.795087
 21
9294.853374
 31
0.0
  0
LINE
  8
7
  6
CONTINUOUS
 62
     4
  5
6C3
 10
47799.995087
 20
9266.053374
 30
0.0
 11
47714.795087
 21
9266.053374
 31
0.0
  0
LINE
  8
7
  6
CONTINUOUS
 62
     4
  5
6C4
 10
47696.795087
 20
9398.053374
 30
0.0
 11
47696.795087
 21
9312.853374
 31
0.0
  0
LINE
  8
7
  6
CONTINUOUS
 62
     4
  5
6C5
 10
47817.995087
 20
9398.053374
 30
0.0
 11
47817.995087
 21
9312.853374
 31
0.0
  0
LINE
  8
7
  6
CONTINUOUS
 62
     4
  5
6C6
 10
47817.995087
 20
9548.053374
 30
0.0
 11
47817.995087
 21
9462.853374
 31
0.0
  0
ARC
  8
7
  6
CONTINUOUS
 62
     4
  5
6C7
 10
47714.795087
 20
9612.853374
 30
0.0
 40
18.0
 50
180.0
 51
270.0
  0
ARC
  8
7
  6
CONTINUOUS
 62
     4
  5
6C8
 10
47714.795087
 20
9548.053374
 30
0.0
 40
18.0
 50
90.0
 51
180.0
  0
ARC
  8
7
  6
CONTINUOUS
 62
     4
  5
6C9
 10
47799.995087
 20
9612.853374
 30
0.0
 40
18.0
 50
270.0
 51
0.0
  0
ARC
  8
7
  6
CONTINUOUS
 62
     4
  5
6CA
 10
47799.995087
 20
9548.053374
 30
0.0
 40
18.0
 50
0.0
 51
90.0
  0
ARC
  8
7
  6
CONTINUOUS
 62
     4
  5
6CB
 10
47714.795087
 20
9312.853374
 30
0.0
 40
18.0
 50
180.0
 51
270.0
  0
ARC
  8
7
  6
CONTINUOUS
 62
     4
  5
6CC
 10
47799.995087
 20
9248.053374
 30
0.0
 40
18.0
 50
0.0
 51
90.0
  0
ARC
  8
7
  6
CONTINUOUS
 62
     4
  5
6CD
 10
47799.995087
 20
9312.853374
 30
0.0
 40
18.0
 50
270.0
 51
0.0
  0
ARC
  8
7
  6
CONTINUOUS
 62
     4
  5
6CE
 10
47714.795087
 20
9248.053374
 30
0.0
 40
18.0
 50
90.0
 51
180.0
  0
LINE
  8
7
  6
CONTINUOUS
 62
     4
  5
6CF
 10
47846.795087
 20
9398.053374
 30
0.0
 11
47846.795087
 21
9312.853374
 31
0.0
  0
LINE
  8
7
  6
CONTINUOUS
 62
     4
  5
6D0
 10
47846.795087
 20
9548.053374
 30
0.0
 11
47846.795087
 21
9462.853374
 31
0.0
  0
ARC
  8
7
  6
CONTINUOUS
 62
     4
  5
6D1
 10
47864.795087
 20
9248.053374
 30
0.0
 40
18.0
 50
90.0
 51
180.0
  0
ARC
  8
7
  6
CONTINUOUS
 62
     4
  5
6D2
 10
47864.795087
 20
9312.853374
 30
0.0
 40
18.0
 50
180.0
 51
270.0
  0
LINE
  8
7
  6
CONTINUOUS
 62
     4
  5
6D3
 10
47667.995087
 20
9398.053374
 30
0.0
 11
47667.995087
 21
9312.853374
 31
0.0
  0
LINE
  8
7
  6
CONTINUOUS
 62
     4
  5
6D4
 10
47667.995087
 20
9548.053374
 30
0.0
 11
47667.995087
 21
9462.853374
 31
0.0
  0
ARC
  8
7
  6
CONTINUOUS
 62
     4
  5
6D5
 10
47649.995087
 20
9612.853374
 30
0.0
 40
18.0
 50
270.0
 51
0.0
  0
ARC
  8
7
  6
CONTINUOUS
 62
     4
  5
6D6
 10
47649.995087
 20
9548.053374
 30
0.0
 40
18.0
 50
0.0
 51
90.0
  0
ARC
  8
7
  6
CONTINUOUS
 62
     4
  5
6D7
 10
47649.995087
 20
9248.053374
 30
0.0
 40
18.0
 50
0.0
 51
90.0
  0
ARC
  8
7
  6
CONTINUOUS
 62
     4
  5
6D8
 10
47649.995087
 20
9312.853374
 30
0.0
 40
18.0
 50
270.0
 51
0.0
  0
ARC
  8
7
  6
CONTINUOUS
 62
     4
  5
6D9
 10
47864.795087
 20
9612.853374
 30
0.0
 40
18.0
 50
180.0
 51
270.0
  0
ARC
  8
7
  6
CONTINUOUS
 62
     4
  5
6DA
 10
47864.795087
 20
9548.053374
 30
0.0
 40
18.0
 50
90.0
 51
180.0
  0
LINE
  8
7
  6
CONTINUOUS
 62
     4
  5
6DB
 10
47951.795087
 20
9116.053374
 30
0.0
 11
47562.995087
 21
9116.053374
 31
0.0
  0
ARC
  8
7
  6
CONTINUOUS
 62
     4
  5
6DC
 10
47562.995087
 20
9161.053374
 30
0.0
 40
45.0
 50
180.0
 51
270.0
  0
ARC
  8
7
  6
CONTINUOUS
 62
     4
  5
6DD
 10
47951.795087
 20
9161.053374
 30
0.0
 40
45.0
 50
270.0
 51
0.0
  0
LINE
  8
7
  6
CONTINUOUS
 62
     4
  5
6DE
 10
47864.795087
 20
9144.853374
 30
0.0
 11
47949.995087
 21
9144.853374
 31
0.0
  0
ARC
  8
7
  6
CONTINUOUS
 62
     4
  5
6DF
 10
47949.995087
 20
9162.853374
 30
0.0
 40
18.0
 50
270.0
 51
0.0
  0
LINE
  8
7
  6
CONTINUOUS
 62
     4
  5
6E0
 10
47649.995087
 20
9144.853374
 30
0.0
 11
47564.795087
 21
9144.853374
 31
0.0
  0
ARC
  8
7
  6
CONTINUOUS
 62
     4
  5
6E1
 10
47564.795087
 20
9162.853374
 30
0.0
 40
18.0
 50
180.0
 51
270.0
  0
LINE
  8
7
  6
CONTINUOUS
 62
     4
  5
6E2
 10
47799.995087
 20
9144.853374
 30
0.0
 11
47714.795087
 21
9144.853374
 31
0.0
  0
ARC
  8
7
  6
CONTINUOUS
 62
     4
  5
6E3
 10
47714.795087
 20
9162.853374
 30
0.0
 40
18.0
 50
180.0
 51
270.0
  0
ARC
  8
7
  6
CONTINUOUS
 62
     4
  5
6E4
 10
47799.995087
 20
9162.853374
 30
0.0
 40
18.0
 50
270.0
 51
0.0
  0
ARC
  8
7
  6
CONTINUOUS
 62
     4
  5
6E5
 10
47864.795087
 20
9162.853374
 30
0.0
 40
18.0
 50
180.0
 51
270.0
  0
ARC
  8
7
  6
CONTINUOUS
 62
     4
  5
6E6
 10
47649.995087
 20
9162.853374
 30
0.0
 40
18.0
 50
270.0
 51
0.0
  0
LINE
  8
7
  6
CONTINUOUS
 62
     4
  5
6E7
 10
47649.995087
 20
9444.853374
 30
0.0
 11
47564.795087
 21
9444.853374
 31
0.0
  0
LINE
  8
7
  6
CONTINUOUS
 62
     4
  5
6E8
 10
47649.995087
 20
9416.053374
 30
0.0
 11
47564.395087
 21
9416.053374
 31
0.0
  0
ARC
  8
7
  6
CONTINUOUS
 62
     4
  5
6E9
 10
47949.995087
 20
9462.853374
 30
0.0
 40
18.0
 50
270.0
 51
0.0
  0
ARC
  8
7
  6
CONTINUOUS
 62
     4
  5
6EA
 10
47949.995087
 20
9398.053374
 30
0.0
 40
18.0
 50
0.0
 51
90.0
  0
LINE
  8
7
  6
CONTINUOUS
 62
     4
  5
6EB
 10
47864.795087
 20
9444.853374
 30
0.0
 11
47949.995087
 21
9444.853374
 31
0.0
  0
LINE
  8
7
  6
CONTINUOUS
 62
     4
  5
6EC
 10
47864.795087
 20
9416.053374
 30
0.0
 11
47950.395087
 21
9416.053374
 31
0.0
  0
ARC
  8
7
  6
CONTINUOUS
 62
     4
  5
6ED
 10
47564.795087
 20
9462.853374
 30
0.0
 40
18.0
 50
180.0
 51
270.0
  0
ARC
  8
7
  6
CONTINUOUS
 62
     4
  5
6EE
 10
47564.795087
 20
9398.053374
 30
0.0
 40
18.0
 50
90.0
 51
180.0
  0
LINE
  8
7
  6
CONTINUOUS
 62
     4
  5
6EF
 10
47799.995087
 20
9444.853374
 30
0.0
 11
47714.795087
 21
9444.853374
 31
0.0
  0
LINE
  8
7
  6
CONTINUOUS
 62
     4
  5
6F0
 10
47799.995087
 20
9416.053374
 30
0.0
 11
47714.495087
 21
9416.053374
 31
0.0
  0
ARC
  8
7
  6
CONTINUOUS
 62
     4
  5
6F1
 10
47714.795087
 20
9462.853374
 30
0.0
 40
18.0
 50
180.0
 51
270.0
  0
ARC
  8
7
  6
CONTINUOUS
 62
     4
  5
6F2
 10
47714.795087
 20
9398.053374
 30
0.0
 40
18.0
 50
90.0
 51
180.0
  0
ARC
  8
7
  6
CONTINUOUS
 62
     4
  5
6F3
 10
47799.995087
 20
9462.853374
 30
0.0
 40
18.0
 50
270.0
 51
0.0
  0
ARC
  8
7
  6
CONTINUOUS
 62
     4
  5
6F4
 10
47799.995087
 20
9398.053374
 30
0.0
 40
18.0
 50
0.0
 51
90.0
  0
ARC
  8
7
  6
CONTINUOUS
 62
     4
  5
6F5
 10
47649.995087
 20
9462.853374
 30
0.0
 40
18.0
 50
270.0
 51
0.0
  0
ARC
  8
7
  6
CONTINUOUS
 62
     4
  5
6F6
 10
47649.995087
 20
9398.053374
 30
0.0
 40
18.0
 50
0.0
 51
90.0
  0
ARC
  8
7
  6
CONTINUOUS
 62
     4
  5
6F7
 10
47864.795087
 20
9462.853374
 30
0.0
 40
18.0
 50
180.0
 51
270.0
  0
ARC
  8
7
  6
CONTINUOUS
 62
     4
  5
6F8
 10
47864.795087
 20
9398.053374
 30
0.0
 40
18.0
 50
90.0
 51
180.0
  0
LINE
  8
7
  6
CONTINUOUS
 62
     4
  5
6F9
 10
47996.795087
 20
9699.853374
 30
0.0
 11
47996.795087
 21
9161.053374
 31
0.0
  0
LINE
  8
7
  6
CONTINUOUS
 62
     4
  5
6FA
 10
47967.995087
 20
9698.053374
 30
0.0
 11
47967.995087
 21
9612.853374
 31
0.0
  0
LINE
  8
7
  6
CONTINUOUS
 62
     4
  5
6FB
 10
47864.795087
 20
9594.853374
 30
0.0
 11
47949.995087
 21
9594.853374
 31
0.0
  0
ARC
  8
7
  6
CONTINUOUS
 62
     4
  5
6FC
 10
47949.995087
 20
9612.853374
 30
0.0
 40
18.0
 50
270.0
 51
0.0
  0
ARC
  8
7
  6
CONTINUOUS
 62
     4
  5
6FD
 10
47949.995087
 20
9548.053374
 30
0.0
 40
18.0
 50
0.0
 51
90.0
  0
LINE
  8
7
  6
CONTINUOUS
 62
     4
  5
6FE
 10
47864.795087
 20
9566.053374
 30
0.0
 11
47949.995087
 21
9566.053374
 31
0.0
  0
LINE
  8
7
  6
CONTINUOUS
 62
     4
  5
6FF
 10
47967.995087
 20
9548.053374
 30
0.0
 11
47967.995087
 21
9462.853374
 31
0.0
  0
LINE
  8
7
  6
CONTINUOUS
 62
     4
  5
700
 10
47949.995087
 20
9716.053374
 30
0.0
 11
47864.795087
 21
9716.053374
 31
0.0
  0
LINE
  8
7
  6
CONTINUOUS
 62
     4
  5
701
 10
47846.795087
 20
9698.053374
 30
0.0
 11
47846.795087
 21
9612.853374
 31
0.0
  0
LINE
  8
7
  6
CONTINUOUS
 62
     4
  5
702
 10
47951.795087
 20
9744.853374
 30
0.0
 11
47562.995087
 21
9744.853374
 31
0.0
  0
LINE
  8
7
  6
CONTINUOUS
 62
     4
  5
703
 10
47967.995087
 20
9398.053374
 30
0.0
 11
47967.995087
 21
9312.853374
 31
0.0
  0
ARC
  8
7
  6
CONTINUOUS
 62
     4
  5
704
 10
47949.995087
 20
9312.853374
 30
0.0
 40
18.0
 50
270.0
 51
0.0
  0
LINE
  8
7
  6
CONTINUOUS
 62
     4
  5
705
 10
47864.795087
 20
9294.853374
 30
0.0
 11
47949.995087
 21
9294.853374
 31
0.0
  0
ARC
  8
7
  6
CONTINUOUS
 62
     4
  5
706
 10
47949.995087
 20
9248.053374
 30
0.0
 40
18.0
 50
0.0
 51
90.0
  0
LINE
  8
7
  6
CONTINUOUS
 62
     4
  5
707
 10
47864.795087
 20
9266.053374
 30
0.0
 11
47949.995087
 21
9266.053374
 31
0.0
  0
LINE
  8
7
  6
CONTINUOUS
 62
     4
  5
708
 10
47967.995087
 20
9248.053374
 30
0.0
 11
47967.995087
 21
9162.853374
 31
0.0
  0
LINE
  8
7
  6
CONTINUOUS
 62
     4
  5
709
 10
47817.995087
 20
9698.053374
 30
0.0
 11
47817.995087
 21
9612.853374
 31
0.0
  0
LINE
  8
7
  6
CONTINUOUS
 62
     4
  5
70A
 10
47714.795087
 20
9716.053374
 30
0.0
 11
47799.995087
 21
9716.053374
 31
0.0
  0
LINE
  8
7
  6
CONTINUOUS
 62
     4
  5
70B
 10
47696.795087
 20
9698.053374
 30
0.0
 11
47696.795087
 21
9612.853374
 31
0.0
  0
LINE
  8
7
  6
CONTINUOUS
 62
     4
  5
70C
 10
47667.995087
 20
9698.053374
 30
0.0
 11
47667.995087
 21
9612.853374
 31
0.0
  0
LINE
  8
7
  6
CONTINUOUS
 62
     4
  5
70D
 10
47564.795087
 20
9716.053374
 30
0.0
 11
47649.995087
 21
9716.053374
 31
0.0
  0
LINE
  8
7
  6
CONTINUOUS
 62
     4
  5
70E
 10
47546.795087
 20
9698.053374
 30
0.0
 11
47546.795087
 21
9612.853374
 31
0.0
  0
LINE
  8
7
  6
CONTINUOUS
 62
     4
  5
70F
 10
47649.995087
 20
9594.853374
 30
0.0
 11
47564.795087
 21
9594.853374
 31
0.0
  0
ARC
  8
7
  6
CONTINUOUS
 62
     4
  5
710
 10
47564.795087
 20
9612.853374
 30
0.0
 40
18.0
 50
180.0
 51
270.0
  0
ARC
  8
7
  6
CONTINUOUS
 62
     4
  5
711
 10
47564.795087
 20
9548.053374
 30
0.0
 40
18.0
 50
90.0
 51
180.0
  0
LINE
  8
7
  6
CONTINUOUS
 62
     4
  5
712
 10
47649.995087
 20
9566.053374
 30
0.0
 11
47564.795087
 21
9566.053374
 31
0.0
  0
LINE
  8
7
  6
CONTINUOUS
 62
     4
  5
713
 10
47546.795087
 20
9548.053374
 30
0.0
 11
47546.795087
 21
9462.853374
 31
0.0
  0
LINE
  8
7
  6
CONTINUOUS
 62
     4
  5
714
 10
47517.995087
 20
9699.853374
 30
0.0
 11
47517.995087
 21
9161.053374
 31
0.0
  0
LINE
  8
7
  6
CONTINUOUS
 62
     4
  5
715
 10
47546.795087
 20
9398.053374
 30
0.0
 11
47546.795087
 21
9312.853374
 31
0.0
  0
ARC
  8
7
  6
CONTINUOUS
 62
     4
  5
716
 10
47564.795087
 20
9312.853374
 30
0.0
 40
18.0
 50
180.0
 51
270.0
  0
LINE
  8
7
  6
CONTINUOUS
 62
     4
  5
717
 10
47649.995087
 20
9294.853374
 30
0.0
 11
47564.795087
 21
9294.853374
 31
0.0
  0
LINE
  8
7
  6
CONTINUOUS
 62
     4
  5
718
 10
47649.995087
 20
9266.053374
 30
0.0
 11
47564.795087
 21
9266.053374
 31
0.0
  0
ARC
  8
7
  6
CONTINUOUS
 62
     4
  5
719
 10
47564.795087
 20
9248.053374
 30
0.0
 40
18.0
 50
90.0
 51
180.0
  0
LINE
  8
7
  6
CONTINUOUS
 62
     4
  5
71A
 10
47546.795087
 20
9248.053374
 30
0.0
 11
47546.795087
 21
9162.853374
 31
0.0
  0
LINE
  8
2
  6
CENTER
 62
     2
  5
71B
 10
47982.395087
 20
9280.453374
 30
0.0
 11
47532.395087
 21
9280.453374
 31
0.0
  0
LINE
  8
2
  6
CENTER
 62
     2
  5
71C
 10
47982.395087
 20
9580.453374
 30
0.0
 11
47532.395087
 21
9580.453374
 31
0.0
  0
LINE
  8
2
  6
CENTER
 62
     2
  5
71D
 10
47982.395087
 20
9430.453374
 30
0.0
 11
47532.395087
 21
9430.453374
 31
0.0
  0
LINE
  8
2
  6
CENTER
 62
     2
  5
71E
 10
47982.395087
 20
9730.453374
 30
0.0
 11
47532.395087
 21
9730.453374
 31
0.0
  0
LINE
  8
2
  6
CENTER
 62
     2
  5
71F
 10
47532.395087
 20
9730.453374
 30
0.0
 11
47532.395087
 21
9130.453374
 31
0.0
  0
LINE
  8
2
  6
CENTER
 62
     2
  5
720
 10
47682.395087
 20
9730.453374
 30
0.0
 11
47682.395087
 21
9130.453374
 31
0.0
  0
LINE
  8
2
  6
CENTER
 62
     2
  5
721
 10
47832.395087
 20
9730.453374
 30
0.0
 11
47832.395087
 21
9130.453374
 31
0.0
  0
LINE
  8
2
  6
CENTER
 62
     2
  5
722
 10
47982.395087
 20
9730.453374
 30
0.0
 11
47982.395087
 21
9130.453374
 31
0.0
  0
LINE
  8
2
  6
CENTER
 62
     2
  5
723
 10
47532.395087
 20
9130.453374
 30
0.0
 11
47982.395087
 21
9130.453374
 31
0.0
  0
CIRCLE
  8
5
  6
CONTINUOUS
 62
     3
  5
724
 10
47532.395087
 20
9860.453374
 30
0.0
 40
7.5
  0
CIRCLE
  8
5
  6
CONTINUOUS
 62
     3
  5
725
 10
47982.395087
 20
9860.453374
 30
0.0
 40
7.5
  0
CIRCLE
  8
5
  6
CONTINUOUS
 62
     3
  5
726
 10
47982.395087
 20
9960.453374
 30
0.0
 40
7.5
  0
CIRCLE
  8
5
  6
CONTINUOUS
 62
     3
  5
727
 10
48112.395087
 20
9130.453374
 30
0.0
 40
7.5
  0
CIRCLE
  8
5
  6
CONTINUOUS
 62
     3
  5
728
 10
48112.395087
 20
9730.453374
 30
0.0
 40
7.5
  0
TEXT
  8
5
  6
CONTINUOUS
 62
     3
  5
729
 10
48112.395087
 20
9370.453374
 30
0.0
 40
60.0
  1
600
 50
90.0
 41
0.666667
  7

 72
     5
 11
48112.395087
 21
9490.453374
 31
0.0
  0
LINE
  8
5
  6
CONTINUOUS
 62
     3
  5
72A
 10
48112.395087
 20
9130.453374
 30
0.0
 11
48112.395087
 21
9730.453374
 31
0.0
  0
LINE
  8
5
  6
CONTINUOUS
 62
     3
  5
72B
 10
48112.395087
 20
9130.453374
 30
0.0
 11
48012.395087
 21
9130.453374
 31
0.0
  0
LINE
  8
5
  6
CONTINUOUS
 62
     3
  5
72C
 10
48112.395087
 20
8480.453374
 30
0.0
 11
48112.395087
 21
9130.453374
 31
0.0
  0
TEXT
  8
5
  6
CONTINUOUS
 62
     3
  5
72D
 10
48112.395087
 20
8777.54763
 30
0.0
 40
60.0
  1
650
 50
90.0
 41
0.666667
  7

 72
     5
 11
48112.395087
 21
8897.54763
 31
0.0
  0
LINE
  8
5
  6
CONTINUOUS
 62
     3
  5
72E
 10
48212.395087
 20
9730.453374
 30
0.0
 11
48012.395087
 21
9730.453374
 31
0.0
  0
LINE
  8
5
  6
CONTINUOUS
 62
     3
  5
72F
 10
48212.395087
 20
9730.453374
 30
0.0
 11
48212.395087
 21
8480.453374
 31
0.0
  0
TEXT
  8
5
  6
CONTINUOUS
 62
     3
  5
730
 10
48212.395087
 20
9047.54763
 30
0.0
 40
60.0
  1
1,250
 50
90.0
 41
0.6
  7

 72
     5
 11
48212.395087
 21
9227.54763
 31
0.0
  0
CIRCLE
  8
5
  6
CONTINUOUS
 62
     3
  5
731
 10
48212.395087
 20
9730.453374
 30
0.0
 40
7.5
  0
TEXT
  8
5
  6
CONTINUOUS
 62
     3
  5
732
 10
47602.395087
 20
8966.053374
 30
0.0
 40
60.0
  1
テスリックス
 41
0.837
  7

 72
     5
 11
47962.395087
 21
8966.053374
 31
0.0
  0
LINE
  8
5
  6
CONTINUOUS
 62
     3
  5
733
 10
47638.997627
 20
9116.053374
 30
0.0
 11
47552.395087
 21
8966.053374
 31
0.0
  0
LINE
  8
5
  6
CONTINUOUS
 62
     3
  5
734
 10
47552.395087
 20
8966.053374
 30
0.0
 11
47962.395087
 21
8966.053374
 31
0.0
  0
LINE
  8
2
  6
CONTINUOUS
 62
     2
  5
735
 10
47520.128335
 20
8478.980298
 30
0.0
 11
47519.977335
 21
8500.659298
 31
0.0
  0
LINE
  8
2
  6
CONTINUOUS
 62
     2
  5
736
 10
47520.772335
 20
8501.851298
 30
0.0
 11
47519.977335
 21
8500.659298
 31
0.0
  0
ARC
  8
2
  6
CONTINUOUS
 62
     2
  5
737
 10
47519.941335
 20
8502.406298
 30
0.0
 40
1.0
 50
326.30993
 51
344.1021
  0
LINE
  8
5
  6
CONTINUOUS
 62
     3
  5
738
 10
46882.395087
 20
9860.453374
 30
0.0
 11
47532.395087
 21
9860.453374
 31
0.0
  0
LINE
  8
5
  6
CONTINUOUS
 62
     3
  5
739
 10
47532.395087
 20
9860.453374
 30
0.0
 11
47982.395087
 21
9860.453374
 31
0.0
  0
LINE
  8
5
  6
CONTINUOUS
 62
     3
  5
73A
 10
47532.395087
 20
9860.453374
 30
0.0
 11
47532.395087
 21
9760.453374
 31
0.0
  0
TEXT
  8
5
  6
CONTINUOUS
 62
     3
  5
73B
 10
47697.395087
 20
9860.453374
 30
0.0
 40
60.0
  1
450
 41
0.666667
  7

 72
     5
 11
47817.395087
 21
9860.453374
 31
0.0
  0
LINE
  8
5
  6
CONTINUOUS
 62
     3
  5
73C
 10
47982.395087
 20
9960.453374
 30
0.0
 11
46882.395087
 21
9960.453374
 31
0.0
  0
LINE
  8
5
  6
CONTINUOUS
 62
     3
  5
73D
 10
47982.395087
 20
9960.453374
 30
0.0
 11
47982.395087
 21
9760.453374
 31
0.0
  0
TEXT
  8
5
  6
CONTINUOUS
 62
     3
  5
73E
 10
47152.68648
 20
9860.453374
 30
0.0
 40
60.0
  1
650
 41
0.666667
  7

 72
     5
 11
47272.68648
 21
9860.453374
 31
0.0
  0
TEXT
  8
5
  6
CONTINUOUS
 62
     3
  5
73F
 10
47347.68648
 20
9960.453374
 30
0.0
 40
60.0
  1
1,100
 41
0.6
  7

 72
     5
 11
47527.68648
 21
9960.453374
 31
0.0
  0
LINE
  8
2
  6
CONTINUOUS
 62
     2
  5
740
 10
48479.895087
 20
8530.452374
 30
0.0
 11
47520.350353
 21
8530.452374
 31
0.0
  0
LINE
  8
2
  6
CONTINUOUS
 62
     2
  5
741
 10
46882.395087
 20
8530.452374
 30
0.0
 11
47002.243787
 21
8530.452374
 31
0.0
  0
TEXT
  8
5
  6
CONTINUOUS
 62
     3
  5
742
 10
47549.654701
 20
8303.37256
 30
0.0
 40
90.0
  1
Ａ面
 41
0.837
  7

 72
     5
 11
47729.654701
 21
8303.37256
 31
0.0
  0
TEXT
  8
5
  6
CONTINUOUS
 62
     3
  5
743
 10
49592.155201
 20
8303.37256
 30
0.0
 40
90.0
  1
Ｂ面
 41
0.837
  7

 72
     5
 11
49772.155201
 21
8303.37256
 31
0.0
  0
LINE
  8
1
  6
CONTINUOUS
 62
     5
  5
744
 10
48122.186763
 20
11266.860302
 30
0.0
 11
49857.185163
 21
11266.860302
 31
0.0
  0
LINE
  8
5
  6
CONTINUOUS
 62
     6
  5
745
 10
48693.092903
 20
12221.562172
 30
0.0
 11
48722.186863
 21
12221.562172
 31
0.0
  0
LINE
  8
5
  6
CONTINUOUS
 62
     6
  5
746
 10
48722.186863
 20
11321.562302
 30
0.0
 11
48122.186763
 21
11321.562302
 31
0.0
  0
LINE
  8
5
  6
CONTINUOUS
 62
     6
  5
747
 10
48704.672723
 20
11452.716822
 30
0.0
 11
48722.186863
 21
11321.562302
 31
0.0
  0
LINE
  8
5
  6
CONTINUOUS
 62
     6
  5
748
 10
48684.384483
 20
11981.091382
 30
0.0
 11
48691.273883
 21
12013.241892
 31
0.0
  0
LINE
  8
5
  6
CONTINUOUS
 62
     6
  5
749
 10
48691.273883
 20
12013.241892
 30
0.0
 11
48684.384483
 21
11981.091382
 31
0.0
  0
LINE
  8
5
  6
CONTINUOUS
 62
     6
  5
74A
 10
48681.495863
 20
12015.337202
 30
0.0
 11
48674.606463
 21
11983.186622
 31
0.0
  0
ARC
  8
5
  6
CONTINUOUS
 62
     6
  5
74B
 10
47713.471323
 20
12222.771002
 30
0.0
 40
990.00006
 50
347.90524
 51
352.393816
  0
ARC
  8
5
  6
CONTINUOUS
 62
     6
  5
74C
 10
47713.471323
 20
12222.771002
 30
0.0
 40
990.00006
 50
347.905242
 51
352.393824
  0
ARC
  8
5
  6
CONTINUOUS
 62
     6
  5
74D
 10
48582.883223
 20
12033.149262
 30
0.0
 40
100.00004
 50
351.265247
 51
106.074804
  0
LINE
  8
5
  6
CONTINUOUS
 62
     6
  5
74E
 10
48704.672723
 20
12090.407652
 30
0.0
 11
48722.186863
 21
12221.562172
 31
0.0
  0
LINE
  8
5
  6
CONTINUOUS
 62
     6
  5
74F
 10
48694.760723
 20
12091.731212
 30
0.0
 11
48712.274863
 21
12222.885872
 31
0.0
  0
LINE
  8
5
  6
CONTINUOUS
 62
     6
  5
750
 10
48674.606463
 20
11983.186622
 30
0.0
 11
48681.495863
 21
12015.337202
 31
0.0
  0
ARC
  8
5
  6
CONTINUOUS
 62
     6
  5
751
 10
47713.471323
 20
12222.771002
 30
0.0
 40
999.99998
 50
347.905242
 51
352.39382
  0
ARC
  8
5
  6
CONTINUOUS
 62
     6
  5
752
 10
47713.471323
 20
11320.353472
 30
0.0
 40
990.00006
 50
7.606175
 51
12.094757
  0
LINE
  8
5
  6
CONTINUOUS
 62
     6
  5
753
 10
48691.273883
 20
11529.882582
 30
0.0
 11
48684.384483
 21
11562.033092
 31
0.0
  0
LINE
  8
5
  6
CONTINUOUS
 62
     6
  5
754
 10
48681.495863
 20
11527.787272
 30
0.0
 11
48674.606463
 21
11559.937852
 31
0.0
  0
ARC
  8
5
  6
CONTINUOUS
 62
     6
  5
755
 10
47713.471323
 20
11320.353472
 30
0.0
 40
999.99998
 50
7.606179
 51
12.094757
  0
ARC
  8
5
  6
CONTINUOUS
 62
     6
  5
756
 10
48581.300943
 20
11510.261722
 30
0.0
 40
100.00004
 50
253.925191
 51
8.734752
  0
ARC
  8
5
  6
CONTINUOUS
 62
     6
  5
757
 10
49662.186903
 20
11771.562342
 30
0.0
 40
1010.00004
 50
167.905242
 51
192.094753
  0
ARC
  8
5
  6
CONTINUOUS
 62
     6
  5
758
 10
49662.186903
 20
11771.562342
 30
0.0
 40
999.99998
 50
167.905242
 51
192.094757
  0
ARC
  8
5
  6
CONTINUOUS
 62
     6
  5
759
 10
48449.229283
 20
11832.190182
 30
0.0
 40
225.00002
 50
126.38061
 51
157.039818
  0
ARC
  8
5
  6
CONTINUOUS
 62
     6
  5
75A
 10
48643.503503
 20
11637.099622
 30
0.0
 40
500.00006
 50
100.172894
 51
135.928025
  0
ARC
  8
5
  6
CONTINUOUS
 62
     6
  5
75B
 10
48449.233343
 20
11711.254402
 30
0.0
 40
225.00002
 50
202.960219
 51
222.550806
  0
ARC
  8
5
  6
CONTINUOUS
 62
     6
  5
75C
 10
48643.503503
 20
11906.024712
 30
0.0
 40
500.00006
 50
224.07197
 51
259.642834
  0
ARC
  8
5
  6
CONTINUOUS
 62
     6
  5
75D
 10
48591.953403
 20
11771.725722
 30
0.0
 40
380.00004
 50
157.03971
 51
202.960219
  0
LINE
  8
5
  6
CONTINUOUS
 62
     6
  5
75E
 10
48694.760723
 20
11451.393122
 30
0.0
 11
48712.098043
 21
11321.562302
 31
0.0
  0
LINE
  8
5
  6
CONTINUOUS
 62
     6
  5
75F
 10
48722.186863
 20
12221.562172
 30
0.0
 11
48122.186763
 21
12221.562172
 31
0.0
  0
LINE
  8
4
  6
CENTER1
 62
     2
  5
760
 10
48032.186763
 20
13294.361302
 30
0.0
 11
48032.186763
 21
11141.860302
 31
0.0
  0
LINE
  8
5
  6
CONTINUOUS
 62
     3
  5
761
 10
48032.186763
 20
13449.453081
 30
0.0
 11
48032.186763
 21
13349.453081
 31
0.0
  0
CIRCLE
  8
5
  6
CONTINUOUS
 62
     3
  5
762
 10
48032.186763
 20
13449.453081
 30
0.0
 40
7.5
  0
CIRCLE
  8
5
  6
CONTINUOUS
 62
     3
  5
763
 10
49782.186163
 20
13449.453081
 30
0.0
 40
7.5
  0
LINE
  8
5
  6
CONTINUOUS
 62
     3
  5
764
 10
49782.186163
 20
13449.453081
 30
0.0
 11
49782.186163
 21
13349.453081
 31
0.0
  0
LINE
  8
5
  6
CONTINUOUS
 62
     3
  5
765
 10
49782.186163
 20
13449.453081
 30
0.0
 11
48032.186763
 21
13449.453081
 31
0.0
  0
TEXT
  8
5
  6
CONTINUOUS
 62
     3
  5
766
 10
48867.186463
 20
13449.453081
 30
0.0
 40
60.0
  1
1,750
 41
0.6
  7

 72
     5
 11
49047.186463
 21
13449.453081
 31
0.0
  0
LINE
  8
4
  6
CENTER1
 62
     2
  5
767
 10
49782.186763
 20
13294.361302
 30
0.0
 11
49782.186763
 21
11141.860302
 31
0.0
  0
ENDSEC
  0
EOF
