  0
SECTION
  2
HEADER
  9
$ACADVER
  1
AC1009
  9
$INSBASE
 10
0.0
 20
0.0
 30
0.0
  9
$EXTMIN
 10
29866.592462
 20
25167.060602
 30
0.0
  9
$EXTMAX
 10
31966.592462
 20
28137.060602
 30
0.0
  9
$LIMMIN
 10
-732.466598
 20
-9031.469699
  9
$LIMMAX
 10
58667.533402
 20
32968.530301
  9
$ORTHOMODE
 70
     0
  9
$REGENMODE
 70
     1
  9
$FILLMODE
 70
     1
  9
$QTEXTMODE
 70
     0
  9
$MIRRTEXT
 70
     1
  9
$DRAGMODE
 70
     2
  9
$LTSCALE
 40
100.0
  9
$OSMODE
 70
     0
  9
$ATTMODE
 70
     1
  9
$TEXTSIZE
 40
0.2
  9
$TRACEWID
 40
0.05
  9
$TEXTSTYLE
  7
STANDARD
  9
$CLAYER
  8
0
  9
$CELTYPE
  6
CONTINUOUS
  9
$CECOLOR
 62
   256
  9
$DIMSCALE
 40
1.0
  9
$DIMASZ
 40
0.18
  9
$DIMEXO
 40
0.0625
  9
$DIMDLI
 40
0.38
  9
$DIMRND
 40
0.0
  9
$DIMDLE
 40
0.0
  9
$DIMEXE
 40
0.18
  9
$DIMTP
 40
0.0
  9
$DIMTM
 40
0.0
  9
$DIMTXT
 40
0.18
  9
$DIMCEN
 40
0.09
  9
$DIMTSZ
 40
0.0
  9
$DIMTOL
 70
     0
  9
$DIMLIM
 70
     0
  9
$DIMTIH
 70
     1
  9
$DIMTOH
 70
     1
  9
$DIMSE1
 70
     0
  9
$DIMSE2
 70
     0
  9
$DIMTAD
 70
     0
  9
$DIMZIN
 70
     0
  9
$DIMBLK
  1

  9
$DIMASO
 70
     1
  9
$DIMSHO
 70
     1
  9
$DIMPOST
  1

  9
$DIMAPOST
  1

  9
$DIMALT
 70
     0
  9
$DIMALTD
 70
     2
  9
$DIMALTF
 40
25.4
  9
$DIMLFAC
 40
1.0
  9
$DIMTOFL
 70
     0
  9
$DIMTVP
 40
0.0
  9
$DIMTIX
 70
     0
  9
$DIMSOXD
 70
     0
  9
$DIMSAH
 70
     0
  9
$DIMBLK1
  1

  9
$DIMBLK2
  1

  9
$DIMSTYLE
  2
STANDARD
  9
$DIMCLRD
 70
     0
  9
$DIMCLRE
 70
     0
  9
$DIMCLRT
 70
     0
  9
$DIMTFAC
 40
1.0
  9
$DIMGAP
 40
0.09
  9
$LUNITS
 70
     2
  9
$LUPREC
 70
     4
  9
$AXISMODE
 70
     0
  9
$AXISUNIT
 10
0.0
 20
0.0
  9
$SKETCHINC
 40
0.1
  9
$FILLETRAD
 40
0.0
  9
$AUNITS
 70
     0
  9
$AUPREC
 70
     0
  9
$MENU
  1
acad
  9
$ELEVATION
 40
0.0
  9
$PELEVATION
 40
0.0
  9
$THICKNESS
 40
0.0
  9
$LIMCHECK
 70
     0
  9
$BLIPMODE
 70
     1
  9
$CHAMFERA
 40
0.0
  9
$CHAMFERB
 40
0.0
  9
$SKPOLY
 70
     0
  9
$TDCREATE
 40
0.000000000
  9
$TDUPDATE
 40
0.000000000
  9
$TDINDWG
 40
0.0000000000
  9
$TDUSRTIMER
 40
0.0000000000
  9
$USRTIMER
 70
     1
  9
$ANGBASE
 50
0.0
  9
$ANGDIR
 70
     0
  9
$PDMODE
 70
     0
  9
$PDSIZE
 40
0.0
  9
$PLINEWID
 40
0.0
  9
$COORDS
 70
     0
  9
$SPLFRAME
 70
     0
  9
$SPLINETYPE
 70
     6
  9
$SPLINESEGS
 70
     8
  9
$ATTDIA
 70
     0
  9
$ATTREQ
 70
     1
  9
$HANDLING
 70
     1
  9
$HANDSEED
  5
7BA
  9
$SURFTAB1
 70
     6
  9
$SURFTAB2
 70
     6
  9
$SURFTYPE
 70
     6
  9
$SURFU
 70
     6
  9
$SURFV
 70
     6
  9
$UCSNAME
  2

  9
$UCSORG
 10
0.0
 20
0.0
 30
0.0
  9
$UCSXDIR
 10
1.0
 20
0.0
 30
0.0
  9
$UCSYDIR
 10
0.0
 20
1.0
 30
0.0
  9
$PUCSNAME
  2

  9
$PUCSORG
 10
0.0
 20
0.0
 30
0.0
  9
$PUCSXDIR
 10
1.0
 20
0.0
 30
0.0
  9
$PUCSYDIR
 10
0.0
 20
1.0
 30
0.0
  9
$USERI1
 70
     0
  9
$USERI2
 70
     0
  9
$USERI3
 70
     0
  9
$USERI4
 70
     0
  9
$USERI5
 70
     0
  9
$USERR1
 40
0.0
  9
$USERR2
 40
0.0
  9
$USERR3
 40
0.0
  9
$USERR4
 40
0.0
  9
$USERR5
 40
0.0
  9
$WORLDVIEW
 70
     1
  9
$SHADEDGE
 70
     3
  9
$SHADEDIF
 70
    70
  9
$TILEMODE
 70
     1
  9
$MAXACTVP
 70
    16
  9
$PINSBASE
 10
0.0
 20
0.0
 30
0.0
  9
$PLIMCHECK
 70
     0
  9
$PEXTMIN
 10
1.000000E+20
 20
1.000000E+20
 30
1.000000E+20
  9
$PEXTMAX
 10
-1.000000E+20
 20
-1.000000E+20
 30
-1.000000E+20
  9
$PLIMMIN
 10
0.0
 20
0.0
  9
$PLIMMAX
 10
12.0
 20
9.0
  9
$UNITMODE
 70
     0
  9
$VISRETAIN
 70
     0
  9
$PLINEGEN
 70
     1
  9
$PSLTSCALE
 70
     0
  9
$TREEDEPTH
 70
  3020
  9
$DWGCODEPAGE
  3
dos932
  0
ENDSEC
  0
SECTION
  2
TABLES
  0
TABLE
  2
VPORT
 70
     1
  0
VPORT
  2
*ACTIVE
 70
     0
 10
0.0
 20
0.0
 11
1.0
 21
1.0
 12
28967.533402
 22
11968.530301
 13
0.0
 23
0.0
 14
1000.0
 24
1000.0
 15
1000.0
 25
1000.0
 16
0.0
 26
0.0
 36
1.0
 17
0.0
 27
0.0
 37
0.0
 40
42000.0
 41
1.414286
 42
50.0
 43
0.0
 44
0.0
 50
0.0
 51
0.0
 71
     0
 72
   100
 73
     1
 74
     1
 75
     0
 76
     0
 77
     0
 78
     0
  0
ENDTAB
  0
TABLE
  2
LTYPE
 70
     5
  0
LTYPE
  2
CONTINUOUS
 70
    64
  3
Solid line
 72
    65
 73
     0
 40
0.0
  0
LTYPE
  2
HIDDEN
 70
    64
  3
__ __ __ __ __ __ __ __ __ __ __ __ __ __ __ __
 72
    65
 73
     5
 40
8.0
 49
1.0
 49
-2.0
 49
2.0
 49
-2.0
 49
1.0
  0
LTYPE
  2
DOT
 70
    64
  3
. . . . . . . . . . . . . . . . . . . . . . . .
 72
    65
 73
     3
 40
1.6
 49
0.4
 49
-0.8
 49
0.4
  0
LTYPE
  2
CENTER
 70
    64
  3
____ _ ____ _ ____ _ ____ _ ____ _ ____ _ ____ 
 72
    65
 73
     5
 40
12.0
 49
5.0
 49
-0.8
 49
0.4
 49
-0.8
 49
5.0
  0
LTYPE
  2
DIVIDE
 70
    64
  3
____ . . ____ . . ____ . . ____ . . ____ . . __
 72
    65
 73
     7
 40
13.2
 49
5.0
 49
-0.8
 49
0.4
 49
-0.8
 49
0.4
 49
-0.8
 49
5.0
  0
ENDTAB
  0
TABLE
  2
LAYER
 70
    16
  0
LAYER
  2
0
 70
     0
 62
     7
  6
CONTINUOUS
  0
LAYER
  2
1
 70
     0
 62
     1
  6
CONTINUOUS
  0
LAYER
  2
3
 70
     0
 62
     1
  6
CONTINUOUS
  0
LAYER
  2
4
 70
     0
 62
     1
  6
CONTINUOUS
  0
LAYER
  2
6
 70
     0
 62
     1
  6
CONTINUOUS
  0
LAYER
  2
8
 70
     0
 62
     1
  6
CONTINUOUS
  0
LAYER
  2
10
 70
     0
 62
     1
  6
CONTINUOUS
  0
LAYER
  2
11
 70
     0
 62
     1
  6
CONTINUOUS
  0
LAYER
  2
31
 70
     0
 62
     1
  6
CONTINUOUS
  0
LAYER
  2
33
 70
     0
 62
     1
  6
CONTINUOUS
  0
LAYER
  2
34
 70
     0
 62
     1
  6
CONTINUOUS
  0
LAYER
  2
100
 70
     0
 62
     1
  6
CONTINUOUS
  0
LAYER
  2
105
 70
     0
 62
     1
  6
CONTINUOUS
  0
LAYER
  2
150
 70
     0
 62
     1
  6
CONTINUOUS
  0
LAYER
  2
160
 70
     0
 62
     1
  6
CONTINUOUS
  0
LAYER
  2
200
 70
     0
 62
     7
  6
CONTINUOUS
  0
ENDTAB
  0
TABLE
  2
STYLE
 70
     3
  0
STYLE
  2
STANDARD
 70
     0
 40
0.0
 41
1.0
 50
0.0
 71
     0
 42
0.0
  3
txt
  4

  0
STYLE
  2
DRACAD
 70
     0
 40
1000.0
 41
1.0
 50
0.0
 71
     0
 42
1000.0
  3
txt
  4
extfont
  0
STYLE
  2
TATEDRACAD
 70
     4
 40
1000.0
 41
1.0
 50
0.0
 71
     0
 42
1000.0
  3
txt
  4
extfont
  0
ENDTAB
  0
TABLE
  2
VIEW
 70
     0
  0
ENDTAB
  0
TABLE
  2
UCS
 70
     0
  0
ENDTAB
  0
TABLE
  2
APPID
 70
     1
  0
APPID
  2
ACAD
 70
     0
  0
ENDTAB
  0
TABLE
  2
DIMSTYLE
 70
     1
  0
DIMSTYLE
  2
STANDARD
 70
     0
  3

  4

  5

  6

  7

 40
1.0
 41
0.18
 42
0.0625
 43
0.38
 44
0.18
 45
0.0
 46
0.0
 47
0.0
 48
0.0
 71
     0
 72
     0
 73
     1
 74
     1
 75
     0
 76
     0
 77
     0
 78
     0
140
0.18
141
0.09
142
0.0
143
25.4
144
1.0
145
0.0
146
1.0
147
0.09
170
     0
171
     2
172
     0
173
     0
174
     0
175
     0
176
     0
177
     0
178
     0
  0
ENDTAB
  0
ENDSEC
  0
SECTION
  2
BLOCKS
  0
ENDSEC
  0
SECTION
  2
ENTITIES
  0
LINE
  8
150
  6
CONTINUOUS
 62
     7
  5
102
 10
29866.592462
 20
28137.060602
 30
0.0
 11
31966.592462
 21
28137.060602
 31
0.0
  0
LINE
  8
150
  6
CONTINUOUS
 62
     7
  5
103
 10
31966.592462
 20
28137.060602
 30
0.0
 11
31966.592462
 21
25167.060602
 31
0.0
  0
LINE
  8
150
  6
CONTINUOUS
 62
     7
  5
104
 10
31966.592462
 20
25167.060602
 30
0.0
 11
29866.592462
 21
25167.060602
 31
0.0
  0
LINE
  8
150
  6
CONTINUOUS
 62
     7
  5
105
 10
29866.592462
 20
25167.060602
 30
0.0
 11
29866.592462
 21
28137.060602
 31
0.0
  0
LINE
  8
3
  6
CONTINUOUS
 62
     2
  5
106
 10
30327.3124
 20
27662.579427
 30
0.0
 11
30373.3124
 21
27662.579427
 31
0.0
  0
LINE
  8
3
  6
CONTINUOUS
 62
     2
  5
107
 10
30327.3124
 20
27630.079427
 30
0.0
 11
30373.3124
 21
27630.079427
 31
0.0
  0
ARC
  8
3
  6
CONTINUOUS
 62
     2
  5
108
 10
30346.8124
 20
27458.829427
 30
0.0
 40
30.0
 50
270.0
 51
344.78
  0
ARC
  8
3
  6
CONTINUOUS
 62
     2
  5
109
 10
30346.8124
 20
27458.829427
 30
0.0
 40
35.0
 50
270.0
 51
344.78
  0
ARC
  8
3
  6
CONTINUOUS
 62
     2
  5
10A
 10
30314.3124
 20
27626.329427
 30
0.0
 40
13.0
 50
270.0
 51
360.0
  0
LINE
  8
3
  6
CONTINUOUS
 62
     2
  5
10B
 10
30327.3124
 20
27666.329427
 30
0.0
 11
30327.3124
 21
27626.329427
 31
0.0
  0
ARC
  8
3
  6
CONTINUOUS
 62
     2
  5
10C
 10
30314.3124
 20
27666.329427
 30
0.0
 40
13.0
 50
0.0
 51
90.0
  0
LINE
  8
3
  6
CONTINUOUS
 62
     2
  5
10D
 10
30550.3124
 20
27559.579427
 30
0.0
 11
30549.8124
 21
27534.579427
 31
0.0
  0
LINE
  8
3
  6
CONTINUOUS
 62
     2
  5
10E
 10
30549.8124
 20
27534.579427
 30
0.0
 11
30549.5624
 21
27526.329427
 31
0.0
  0
LINE
  8
3
  6
CONTINUOUS
 62
     2
  5
10F
 10
30450.8124
 20
27581.329427
 30
0.0
 11
30447.0624
 21
27462.579427
 31
0.0
  0
ARC
  8
3
  6
CONTINUOUS
 62
     2
  5
110
 10
30551.0624
 20
27526.329427
 30
0.0
 40
200.0
 50
158.7
 51
201.2
  0
LINE
  8
3
  6
CONTINUOUS
 62
     2
  5
111
 10
30371.8124
 20
27581.329427
 30
0.0
 11
30375.3124
 21
27462.579427
 31
0.0
  0
ARC
  8
3
  6
CONTINUOUS
 62
     2
  5
112
 10
30866.3124
 20
27526.329427
 30
0.0
 40
142.5
 50
312.75
 51
47.24
  0
ARC
  8
3
  6
CONTINUOUS
 62
     2
  5
113
 10
30793.3124
 20
27605.079427
 30
0.0
 40
250.0
 50
285.8
 51
312.75
  0
ARC
  8
3
  6
CONTINUOUS
 62
     2
  5
114
 10
30732.0624
 20
28048.829427
 30
0.0
 40
700.0
 50
252.29
 51
260.55
  0
ARC
  8
3
  6
CONTINUOUS
 62
     2
  5
115
 10
30657.5624
 20
27455.329427
 30
0.0
 40
105.0
 50
184.55
 51
260.41
  0
ARC
  8
3
  6
CONTINUOUS
 62
     2
  5
116
 10
30719.5624
 20
27823.079427
 30
0.0
 40
478.25
 50
260.41
 51
270.0
  0
ARC
  8
3
  6
CONTINUOUS
 62
     2
  5
117
 10
30719.5624
 20
27864.829427
 30
0.0
 40
520.0
 50
270.0
 51
285.8
  0
LINE
  8
3
  6
CONTINUOUS
 62
     2
  5
118
 10
30550.3124
 20
27493.079427
 30
0.0
 11
30551.3124
 21
27468.079427
 31
0.0
  0
LINE
  8
3
  6
CONTINUOUS
 62
     2
  5
119
 10
30551.3124
 20
27468.079427
 30
0.0
 11
30552.8124
 21
27447.079427
 31
0.0
  0
ARC
  8
3
  6
CONTINUOUS
 62
     2
  5
11A
 10
30435.0624
 20
27462.829427
 30
0.0
 40
12.0
 50
270.0
 51
357.7
  0
ARC
  8
3
  6
CONTINUOUS
 62
     2
  5
11B
 10
30531.3124
 20
27456.579427
 30
0.0
 40
17.5
 50
90.0
 51
270.0
  0
LINE
  8
3
  6
CONTINUOUS
 62
     2
  5
11C
 10
30377.3124
 20
27456.579427
 30
0.0
 11
30375.8124
 21
27451.079427
 31
0.0
  0
ARC
  8
3
  6
CONTINUOUS
 62
     2
  5
11D
 10
30387.3124
 20
27462.829427
 30
0.0
 40
12.0
 50
182.29
 51
270.0
  0
LINE
  8
3
  6
CONTINUOUS
 62
     2
  5
11E
 10
30394.0624
 20
27425.329427
 30
0.0
 11
30417.5624
 21
27416.579427
 31
0.0
  0
LINE
  8
3
  6
CONTINUOUS
 62
     2
  5
11F
 10
30417.5624
 20
27416.579427
 30
0.0
 11
30441.0624
 21
27408.329427
 31
0.0
  0
LINE
  8
3
  6
CONTINUOUS
 62
     2
  5
120
 10
30441.0624
 20
27408.329427
 30
0.0
 11
30464.5624
 21
27400.079427
 31
0.0
  0
LINE
  8
3
  6
CONTINUOUS
 62
     2
  5
121
 10
30464.5624
 20
27400.079427
 30
0.0
 11
30488.3124
 21
27392.079427
 31
0.0
  0
LINE
  8
3
  6
CONTINUOUS
 62
     2
  5
122
 10
30488.3124
 20
27392.079427
 30
0.0
 11
30512.0624
 21
27384.329427
 31
0.0
  0
LINE
  8
3
  6
CONTINUOUS
 62
     2
  5
123
 10
30512.0624
 20
27384.329427
 30
0.0
 11
30519.0624
 21
27382.079427
 31
0.0
  0
LINE
  8
3
  6
CONTINUOUS
 62
     2
  5
124
 10
30387.3124
 20
27450.829427
 30
0.0
 11
30435.0624
 21
27450.829427
 31
0.0
  0
ARC
  8
3
  6
CONTINUOUS
 62
     2
  5
125
 10
30411.3124
 20
27472.079427
 30
0.0
 40
50.0
 50
223.12
 51
249.76
  0
LINE
  8
3
  6
CONTINUOUS
 62
     2
  5
126
 10
30381.3124
 20
27452.579427
 30
0.0
 11
30380.5624
 21
27449.829427
 31
0.0
  0
ARC
  8
3
  6
CONTINUOUS
 62
     2
  5
127
 10
30411.3124
 20
27472.079427
 30
0.0
 40
50.0
 50
201.2
 51
217.2
  0
LINE
  8
3
  6
CONTINUOUS
 62
     2
  5
128
 10
30422.8124
 20
27450.829427
 30
0.0
 11
30422.8124
 21
27444.829427
 31
0.0
  0
LINE
  8
3
  6
CONTINUOUS
 62
     2
  5
129
 10
30399.8124
 20
27450.829427
 30
0.0
 11
30399.8124
 21
27444.829427
 31
0.0
  0
LINE
  8
3
  6
CONTINUOUS
 62
     2
  5
12A
 10
30401.8124
 20
27442.829427
 30
0.0
 11
30420.8124
 21
27442.829427
 31
0.0
  0
ARC
  8
3
  6
CONTINUOUS
 62
     2
  5
12B
 10
30401.8124
 20
27444.829427
 30
0.0
 40
2.0
 50
180.0
 51
270.0
  0
ARC
  8
3
  6
CONTINUOUS
 62
     2
  5
12C
 10
30420.8124
 20
27444.829427
 30
0.0
 40
2.0
 50
270.0
 51
360.0
  0
LINE
  8
3
  6
CONTINUOUS
 62
     2
  5
12D
 10
30531.3124
 20
27438.829427
 30
0.0
 11
30553.8124
 21
27438.829427
 31
0.0
  0
LINE
  8
3
  6
CONTINUOUS
 62
     2
  5
12E
 10
30549.5624
 20
27526.329427
 30
0.0
 11
30550.0624
 21
27501.579427
 31
0.0
  0
LINE
  8
3
  6
CONTINUOUS
 62
     2
  5
12F
 10
30550.0624
 20
27501.579427
 30
0.0
 11
30550.3124
 21
27493.079427
 31
0.0
  0
LINE
  8
3
  6
CONTINUOUS
 62
     2
  5
130
 10
30531.3124
 20
27473.829427
 30
0.0
 11
30550.5624
 21
27473.829427
 31
0.0
  0
LINE
  8
3
  6
CONTINUOUS
 62
     2
  5
131
 10
30612.8124
 20
27519.329427
 30
0.0
 11
30598.5624
 21
27533.329427
 31
0.0
  0
LINE
  8
3
  6
CONTINUOUS
 62
     2
  5
132
 10
30598.5624
 20
27519.329427
 30
0.0
 11
30612.8124
 21
27533.329427
 31
0.0
  0
ARC
  8
3
  6
CONTINUOUS
 62
     2
  5
133
 10
30793.3124
 20
27447.579427
 30
0.0
 40
250.0
 50
47.24
 51
74.19
  0
ARC
  8
3
  6
CONTINUOUS
 62
     2
  5
134
 10
30719.5624
 20
27187.829427
 30
0.0
 40
520.0
 50
74.19
 51
90.0
  0
ARC
  8
3
  6
CONTINUOUS
 62
     2
  5
135
 10
30732.0624
 20
27003.829427
 30
0.0
 40
700.0
 50
99.44
 51
107.7
  0
ARC
  8
3
  6
CONTINUOUS
 62
     2
  5
136
 10
30657.5624
 20
27597.329427
 30
0.0
 40
105.0
 50
99.58
 51
175.44
  0
ARC
  8
3
  6
CONTINUOUS
 62
     2
  5
137
 10
30486.3124
 20
27601.829427
 30
0.0
 40
10.0
 50
0.0
 51
165.52
  0
LINE
  8
3
  6
CONTINUOUS
 62
     2
  5
138
 10
30430.8124
 20
27613.829427
 30
0.0
 11
30430.8124
 21
27601.829427
 31
0.0
  0
ARC
  8
3
  6
CONTINUOUS
 62
     2
  5
139
 10
30531.3124
 20
27596.329427
 30
0.0
 40
17.5
 50
90.0
 51
270.0
  0
LINE
  8
3
  6
CONTINUOUS
 62
     2
  5
13A
 10
30391.8124
 20
27613.829427
 30
0.0
 11
30391.8124
 21
27601.829427
 31
0.0
  0
ARC
  8
3
  6
CONTINUOUS
 62
     2
  5
13B
 10
30411.3124
 20
27580.579427
 30
0.0
 40
50.0
 50
116.0
 51
158.7
  0
CIRCLE
  8
3
  6
CONTINUOUS
 62
     2
  5
13C
 10
30438.3124
 20
27575.329427
 30
0.0
 40
4.0
  0
CIRCLE
  8
3
  6
CONTINUOUS
 62
     2
  5
13D
 10
30384.3124
 20
27575.329427
 30
0.0
 40
4.0
  0
LINE
  8
3
  6
CONTINUOUS
 62
     2
  5
13E
 10
30429.5624
 20
27601.829427
 30
0.0
 11
30411.3124
 21
27601.829427
 31
0.0
  0
LINE
  8
3
  6
CONTINUOUS
 62
     2
  5
13F
 10
30429.5624
 20
27591.829427
 30
0.0
 11
30411.3124
 21
27591.829427
 31
0.0
  0
LINE
  8
3
  6
CONTINUOUS
 62
     2
  5
140
 10
30371.8124
 20
27581.329427
 30
0.0
 11
30450.8124
 21
27581.329427
 31
0.0
  0
LINE
  8
3
  6
CONTINUOUS
 62
     2
  5
141
 10
30430.8124
 20
27601.829427
 30
0.0
 11
30391.8124
 21
27601.829427
 31
0.0
  0
LINE
  8
3
  6
CONTINUOUS
 62
     2
  5
142
 10
30393.8124
 20
27591.829427
 30
0.0
 11
30428.8124
 21
27591.829427
 31
0.0
  0
LINE
  8
3
  6
CONTINUOUS
 62
     2
  5
143
 10
30411.3124
 20
27591.829427
 30
0.0
 11
30411.3124
 21
27601.829427
 31
0.0
  0
LINE
  8
3
  6
CONTINUOUS
 62
     2
  5
144
 10
30406.5624
 20
27591.829427
 30
0.0
 11
30406.5624
 21
27601.829427
 31
0.0
  0
LINE
  8
3
  6
CONTINUOUS
 62
     2
  5
145
 10
30415.8124
 20
27591.829427
 30
0.0
 11
30415.8124
 21
27601.829427
 31
0.0
  0
LINE
  8
3
  6
CONTINUOUS
 62
     2
  5
146
 10
30392.8124
 20
27601.829427
 30
0.0
 11
30392.8124
 21
27591.829427
 31
0.0
  0
LINE
  8
3
  6
CONTINUOUS
 62
     2
  5
147
 10
30393.8124
 20
27581.329427
 30
0.0
 11
30393.8124
 21
27591.829427
 31
0.0
  0
LINE
  8
3
  6
CONTINUOUS
 62
     2
  5
148
 10
30392.8124
 20
27591.829427
 30
0.0
 11
30415.8124
 21
27591.829427
 31
0.0
  0
LINE
  8
3
  6
CONTINUOUS
 62
     2
  5
149
 10
30392.8124
 20
27601.829427
 30
0.0
 11
30411.3124
 21
27601.829427
 31
0.0
  0
LINE
  8
3
  6
CONTINUOUS
 62
     2
  5
14A
 10
30466.3124
 20
27589.329427
 30
0.0
 11
30466.3124
 21
27604.329427
 31
0.0
  0
LINE
  8
3
  6
CONTINUOUS
 62
     2
  5
14B
 10
30429.5624
 20
27601.829427
 30
0.0
 11
30429.5624
 21
27591.829427
 31
0.0
  0
LINE
  8
3
  6
CONTINUOUS
 62
     2
  5
14C
 10
30496.3124
 20
27601.829427
 30
0.0
 11
30496.3124
 21
27591.829427
 31
0.0
  0
LINE
  8
3
  6
CONTINUOUS
 62
     2
  5
14D
 10
30428.8124
 20
27581.329427
 30
0.0
 11
30428.8124
 21
27591.829427
 31
0.0
  0
ARC
  8
3
  6
CONTINUOUS
 62
     2
  5
14E
 10
30486.3124
 20
27591.829427
 30
0.0
 40
10.0
 50
194.47
 51
360.0
  0
LINE
  8
3
  6
CONTINUOUS
 62
     2
  5
14F
 10
30466.3124
 20
27589.329427
 30
0.0
 11
30476.5624
 21
27589.329427
 31
0.0
  0
LINE
  8
3
  6
CONTINUOUS
 62
     2
  5
150
 10
30466.3124
 20
27600.329427
 30
0.0
 11
30434.3124
 21
27600.329427
 31
0.0
  0
LINE
  8
3
  6
CONTINUOUS
 62
     2
  5
151
 10
30466.3124
 20
27593.329427
 30
0.0
 11
30434.3124
 21
27593.329427
 31
0.0
  0
LINE
  8
3
  6
CONTINUOUS
 62
     2
  5
152
 10
30434.3124
 20
27601.329427
 30
0.0
 11
30429.5624
 21
27601.329427
 31
0.0
  0
LINE
  8
3
  6
CONTINUOUS
 62
     2
  5
153
 10
30434.3124
 20
27592.329427
 30
0.0
 11
30429.5624
 21
27592.329427
 31
0.0
  0
LINE
  8
3
  6
CONTINUOUS
 62
     2
  5
154
 10
30434.3124
 20
27601.329427
 30
0.0
 11
30434.3124
 21
27592.329427
 31
0.0
  0
LINE
  8
3
  6
CONTINUOUS
 62
     2
  5
155
 10
30466.3124
 20
27604.329427
 30
0.0
 11
30476.5624
 21
27604.329427
 31
0.0
  0
LINE
  8
3
  6
CONTINUOUS
 62
     2
  5
156
 10
30552.8124
 20
27605.579427
 30
0.0
 11
30551.0624
 21
27580.579427
 31
0.0
  0
LINE
  8
3
  6
CONTINUOUS
 62
     2
  5
157
 10
30551.0624
 20
27580.579427
 30
0.0
 11
30550.3124
 21
27559.579427
 31
0.0
  0
LINE
  8
3
  6
CONTINUOUS
 62
     2
  5
158
 10
30531.3124
 20
27578.829427
 30
0.0
 11
30550.5624
 21
27578.829427
 31
0.0
  0
LINE
  8
3
  6
CONTINUOUS
 62
     2
  5
159
 10
30519.0624
 20
27670.579427
 30
0.0
 11
30495.3124
 21
27662.829427
 31
0.0
  0
LINE
  8
3
  6
CONTINUOUS
 62
     2
  5
15A
 10
30495.3124
 20
27662.829427
 30
0.0
 11
30471.5624
 21
27655.079427
 31
0.0
  0
LINE
  8
3
  6
CONTINUOUS
 62
     2
  5
15B
 10
30471.5624
 20
27655.079427
 30
0.0
 11
30448.0624
 21
27646.829427
 31
0.0
  0
LINE
  8
3
  6
CONTINUOUS
 62
     2
  5
15C
 10
30448.3124
 20
27637.579427
 30
0.0
 11
30448.3124
 21
27654.579427
 31
0.0
  0
LINE
  8
3
  6
CONTINUOUS
 62
     2
  5
15D
 10
30439.3124
 20
27637.829427
 30
0.0
 11
30439.3124
 21
27654.829427
 31
0.0
  0
LINE
  8
3
  6
CONTINUOUS
 62
     2
  5
15E
 10
30430.3124
 20
27627.329427
 30
0.0
 11
30430.3124
 21
27665.329427
 31
0.0
  0
LINE
  8
3
  6
CONTINUOUS
 62
     2
  5
15F
 10
30434.3124
 20
27627.329427
 30
0.0
 11
30434.3124
 21
27665.329427
 31
0.0
  0
LINE
  8
3
  6
CONTINUOUS
 62
     2
  5
160
 10
30373.3124
 20
27627.079427
 30
0.0
 11
30373.3124
 21
27665.579427
 31
0.0
  0
LINE
  8
3
  6
CONTINUOUS
 62
     2
  5
161
 10
30391.8124
 20
27613.829427
 30
0.0
 11
30430.8124
 21
27613.829427
 31
0.0
  0
ARC
  8
3
  6
CONTINUOUS
 62
     2
  5
162
 10
30387.8124
 20
27616.079427
 30
0.0
 40
11.0
 50
67.22
 51
113.2
  0
ARC
  8
3
  6
CONTINUOUS
 62
     2
  5
163
 10
30379.3124
 20
27636.079427
 30
0.0
 40
11.0
 50
236.94
 51
293.2
  0
ARC
  8
3
  6
CONTINUOUS
 62
     2
  5
164
 10
30390.3124
 20
27621.579427
 30
0.0
 40
5.0
 50
0.0
 51
67.31
  0
LINE
  8
3
  6
CONTINUOUS
 62
     2
  5
165
 10
30395.3124
 20
27621.579427
 30
0.0
 11
30395.3124
 21
27613.829427
 31
0.0
  0
LINE
  8
3
  6
CONTINUOUS
 62
     2
  5
166
 10
30434.3124
 20
27627.329427
 30
0.0
 11
30430.3124
 21
27627.329427
 31
0.0
  0
ARC
  8
3
  6
CONTINUOUS
 62
     2
  5
167
 10
30432.3124
 20
27623.079427
 30
0.0
 40
5.0
 50
113.57
 51
180.0
  0
LINE
  8
3
  6
CONTINUOUS
 62
     2
  5
168
 10
30427.3124
 20
27623.079427
 30
0.0
 11
30427.3124
 21
27613.829427
 31
0.0
  0
LINE
  8
3
  6
CONTINUOUS
 62
     2
  5
169
 10
30439.3124
 20
27637.829427
 30
0.0
 11
30448.3124
 21
27637.829427
 31
0.0
  0
LINE
  8
3
  6
CONTINUOUS
 62
     2
  5
16A
 10
30439.3124
 20
27638.329427
 30
0.0
 11
30434.3124
 21
27638.329427
 31
0.0
  0
LINE
  8
3
  6
CONTINUOUS
 62
     2
  5
16B
 10
30414.3124
 20
27666.579427
 30
0.0
 11
30430.3124
 21
27664.829427
 31
0.0
  0
ARC
  8
3
  6
CONTINUOUS
 62
     2
  5
16C
 10
30387.8124
 20
27676.579427
 30
0.0
 40
11.0
 50
246.79
 51
281.57
  0
ARC
  8
3
  6
CONTINUOUS
 62
     2
  5
16D
 10
30379.3124
 20
27656.329427
 30
0.0
 40
11.0
 50
66.79
 51
123.05
  0
ARC
  8
3
  6
CONTINUOUS
 62
     2
  5
16E
 10
30405.0624
 20
27592.329427
 30
0.0
 40
75.0
 50
83.05
 51
101.47
  0
LINE
  8
3
  6
CONTINUOUS
 62
     2
  5
16F
 10
30434.3124
 20
27665.329427
 30
0.0
 11
30430.3124
 21
27665.329427
 31
0.0
  0
LINE
  8
3
  6
CONTINUOUS
 62
     2
  5
170
 10
30448.3124
 20
27654.829427
 30
0.0
 11
30439.3124
 21
27654.829427
 31
0.0
  0
LINE
  8
3
  6
CONTINUOUS
 62
     2
  5
171
 10
30439.3124
 20
27654.329427
 30
0.0
 11
30434.3124
 21
27654.329427
 31
0.0
  0
LINE
  8
3
  6
CONTINUOUS
 62
     2
  5
172
 10
30531.3124
 20
27613.829427
 30
0.0
 11
30553.8124
 21
27613.829427
 31
0.0
  0
ARC
  8
3
  6
CONTINUOUS
 62
     2
  5
173
 10
30719.5624
 20
27229.579427
 30
0.0
 40
478.25
 50
90.0
 51
99.58
  0
LINE
  8
3
  6
CONTINUOUS
 62
     2
  5
174
 10
30724.819909
 20
27715.691505
 30
0.0
 11
30699.819909
 21
27717.441505
 31
0.0
  0
LINE
  8
3
  6
CONTINUOUS
 62
     2
  5
175
 10
30699.819909
 20
27717.441505
 30
0.0
 11
30674.819909
 21
27718.691505
 31
0.0
  0
LINE
  8
3
  6
CONTINUOUS
 62
     2
  5
176
 10
30674.819909
 20
27718.691505
 30
0.0
 11
30649.819909
 21
27719.691505
 31
0.0
  0
LINE
  8
3
  6
CONTINUOUS
 62
     2
  5
177
 10
30649.819909
 20
27719.691505
 30
0.0
 11
30624.819909
 21
27719.941505
 31
0.0
  0
LINE
  8
3
  6
CONTINUOUS
 62
     2
  5
178
 10
30624.819909
 20
27719.941505
 30
0.0
 11
30609.319909
 21
27720.191505
 31
0.0
  0
LINE
  8
3
  6
CONTINUOUS
 62
     2
  5
179
 10
30452.819909
 20
27719.691505
 30
0.0
 11
30452.819909
 21
27721.941505
 31
0.0
  0
ARC
  8
3
  6
CONTINUOUS
 62
     2
  5
17A
 10
30452.819909
 20
27728.691505
 30
0.0
 40
17.25
 50
327.07
 51
330.76
  0
ARC
  8
3
  6
CONTINUOUS
 62
     2
  5
17B
 10
30555.319909
 20
27707.441505
 30
0.0
 40
39.5
 50
160.6
 51
162.55
  0
ARC
  8
3
  6
CONTINUOUS
 62
     2
  5
17C
 10
30542.819909
 20
27717.191505
 30
0.0
 40
3.0
 50
90.0
 51
180.0
  0
ARC
  8
3
  6
CONTINUOUS
 62
     2
  5
17D
 10
31281.319909
 20
27526.191505
 30
0.0
 40
778.0
 50
168.83
 51
191.16
  0
ARC
  8
3
  6
CONTINUOUS
 62
     2
  5
17E
 10
29850.819909
 20
27444.691505
 30
0.0
 40
600.0
 50
351.94
 51
358.33
  0
LINE
  8
3
  6
CONTINUOUS
 62
     2
  5
17F
 10
30461.569909
 20
27371.191505
 30
0.0
 11
30462.569909
 21
27385.441505
 31
0.0
  0
LINE
  8
3
  6
CONTINUOUS
 62
     2
  5
180
 10
30452.819909
 20
27376.941505
 30
0.0
 11
30452.819909
 21
27380.691505
 31
0.0
  0
LINE
  8
3
  6
CONTINUOUS
 62
     2
  5
181
 10
30539.819909
 20
27383.941505
 30
0.0
 11
30539.819909
 21
27335.441505
 31
0.0
  0
LINE
  8
3
  6
CONTINUOUS
 62
     2
  5
182
 10
30520.319909
 20
27332.441505
 30
0.0
 11
30520.319909
 21
27387.941505
 31
0.0
  0
LINE
  8
3
  6
CONTINUOUS
 62
     2
  5
183
 10
30711.819909
 20
27327.441505
 30
0.0
 11
30616.319909
 21
27327.441505
 31
0.0
  0
LINE
  8
3
  6
CONTINUOUS
 62
     2
  5
184
 10
30609.319909
 20
27332.191505
 30
0.0
 11
30634.319909
 21
27332.441505
 31
0.0
  0
LINE
  8
3
  6
CONTINUOUS
 62
     2
  5
185
 10
30634.319909
 20
27332.441505
 30
0.0
 11
30659.319909
 21
27333.191505
 31
0.0
  0
LINE
  8
3
  6
CONTINUOUS
 62
     2
  5
186
 10
30659.319909
 20
27333.191505
 30
0.0
 11
30684.319909
 21
27334.191505
 31
0.0
  0
LINE
  8
3
  6
CONTINUOUS
 62
     2
  5
187
 10
30684.319909
 20
27334.191505
 30
0.0
 11
30709.319909
 21
27335.691505
 31
0.0
  0
LINE
  8
3
  6
CONTINUOUS
 62
     2
  5
188
 10
30709.319909
 20
27335.691505
 30
0.0
 11
30734.319909
 21
27337.441505
 31
0.0
  0
ARC
  8
3
  6
CONTINUOUS
 62
     2
  5
189
 10
30612.069909
 20
27597.191505
 30
0.0
 40
335.75
 50
270.22
 51
272.16
  0
ARC
  8
3
  6
CONTINUOUS
 62
     2
  5
18A
 10
30606.569909
 20
27460.941505
 30
0.0
 40
192.5
 50
271.99
 51
273.98
  0
ARC
  8
3
  6
CONTINUOUS
 62
     2
  5
18B
 10
30616.819909
 20
27299.191505
 30
0.0
 40
18.25
 50
79.04
 51
86.75
  0
LINE
  8
3
  6
CONTINUOUS
 62
     2
  5
18C
 10
30452.819909
 20
27288.191505
 30
0.0
 11
30452.819909
 21
27304.941505
 31
0.0
  0
LINE
  8
3
  6
CONTINUOUS
 62
     2
  5
18D
 10
30443.319909
 20
27283.941505
 30
0.0
 11
30443.319909
 21
27294.691505
 31
0.0
  0
ARC
  8
3
  6
CONTINUOUS
 62
     2
  5
18E
 10
30516.319909
 20
27310.191505
 30
0.0
 40
55.0
 50
199.37
 51
200.32
  0
ARC
  8
3
  6
CONTINUOUS
 62
     2
  5
18F
 10
30499.569909
 20
27302.691505
 30
0.0
 40
30.0
 50
200.07
 51
202.26
  0
LINE
  8
3
  6
CONTINUOUS
 62
     2
  5
190
 10
30459.819909
 20
27262.191505
 30
0.0
 11
30484.819909
 21
27261.941505
 31
0.0
  0
LINE
  8
3
  6
CONTINUOUS
 62
     2
  5
191
 10
30484.819909
 20
27261.941505
 30
0.0
 11
30485.319909
 21
27261.941505
 31
0.0
  0
ARC
  8
3
  6
CONTINUOUS
 62
     2
  5
192
 10
30498.319909
 20
27300.691505
 30
0.0
 40
34.75
 50
213.87
 51
215.13
  0
LINE
  8
3
  6
CONTINUOUS
 62
     2
  5
193
 10
30452.819909
 20
27269.191505
 30
0.0
 11
30452.819909
 21
27288.191505
 31
0.0
  0
ARC
  8
3
  6
CONTINUOUS
 62
     2
  5
194
 10
30459.819909
 20
27269.191505
 30
0.0
 40
7.0
 50
179.99
 51
269.12
  0
ARC
  8
3
  6
CONTINUOUS
 62
     2
  5
195
 10
30446.819909
 20
27279.441505
 30
0.0
 40
5.5
 50
211.48
 51
223.15
  0
ARC
  8
3
  6
CONTINUOUS
 62
     2
  5
196
 10
30446.819909
 20
27279.191505
 30
0.0
 40
5.5
 50
144.08
 51
154.33
  0
ARC
  8
3
  6
CONTINUOUS
 62
     2
  5
197
 10
30446.819909
 20
27279.191505
 30
0.0
 40
5.25
 50
199.75
 51
211.48
  0
ARC
  8
3
  6
CONTINUOUS
 62
     2
  5
198
 10
30446.819909
 20
27279.191505
 30
0.0
 40
5.25
 50
188.03
 51
199.76
  0
ARC
  8
3
  6
CONTINUOUS
 62
     2
  5
199
 10
30446.819909
 20
27279.441505
 30
0.0
 40
5.5
 50
176.36
 51
188.03
  0
ARC
  8
3
  6
CONTINUOUS
 62
     2
  5
19A
 10
30446.819909
 20
27279.441505
 30
0.0
 40
5.25
 50
164.64
 51
176.36
  0
ARC
  8
3
  6
CONTINUOUS
 62
     2
  5
19B
 10
30446.819909
 20
27279.441505
 30
0.0
 40
5.25
 50
154.33
 51
164.64
  0
ARC
  8
3
  6
CONTINUOUS
 62
     2
  5
19C
 10
30446.819909
 20
27279.441505
 30
0.0
 40
5.25
 50
133.81
 51
144.08
  0
ARC
  8
3
  6
CONTINUOUS
 62
     2
  5
19D
 10
30499.819909
 20
27301.691505
 30
0.0
 40
36.5
 50
212.68
 51
213.87
  0
ARC
  8
3
  6
CONTINUOUS
 62
     2
  5
19E
 10
30502.819909
 20
27303.691505
 30
0.0
 40
40.0
 50
210.4
 51
211.53
  0
LINE
  8
3
  6
CONTINUOUS
 62
     2
  5
19F
 10
30452.819909
 20
27273.941505
 30
0.0
 11
30446.819909
 21
27273.941505
 31
0.0
  0
ARC
  8
3
  6
CONTINUOUS
 62
     2
  5
1A0
 10
30446.819909
 20
27279.191505
 30
0.0
 40
5.25
 50
258.27
 51
270.0
  0
ARC
  8
3
  6
CONTINUOUS
 62
     2
  5
1A1
 10
30446.819909
 20
27279.441505
 30
0.0
 40
5.5
 50
246.6
 51
258.27
  0
ARC
  8
3
  6
CONTINUOUS
 62
     2
  5
1A2
 10
30446.819909
 20
27279.191505
 30
0.0
 40
5.25
 50
234.87
 51
246.6
  0
ARC
  8
3
  6
CONTINUOUS
 62
     2
  5
1A3
 10
30446.819909
 20
27279.191505
 30
0.0
 40
5.25
 50
223.15
 51
234.88
  0
ARC
  8
3
  6
CONTINUOUS
 62
     2
  5
1A4
 10
30501.319909
 20
27302.691505
 30
0.0
 40
38.25
 50
211.53
 51
212.68
  0
ARC
  8
3
  6
CONTINUOUS
 62
     2
  5
1A5
 10
30511.819909
 20
27308.191505
 30
0.0
 40
50.0
 50
204.22
 51
205.2
  0
ARC
  8
3
  6
CONTINUOUS
 62
     2
  5
1A6
 10
30442.319909
 20
27283.941505
 30
0.0
 40
1.0
 50
313.81
 51
360.0
  0
ARC
  8
3
  6
CONTINUOUS
 62
     2
  5
1A7
 10
30504.069909
 20
27304.191505
 30
0.0
 40
41.5
 50
209.31
 51
210.4
  0
ARC
  8
3
  6
CONTINUOUS
 62
     2
  5
1A8
 10
30505.319909
 20
27304.941505
 30
0.0
 40
43.0
 50
208.25
 51
209.31
  0
ARC
  8
3
  6
CONTINUOUS
 62
     2
  5
1A9
 10
30506.819909
 20
27305.941505
 30
0.0
 40
44.5
 50
207.2
 51
208.25
  0
ARC
  8
3
  6
CONTINUOUS
 62
     2
  5
1AA
 10
30508.569909
 20
27306.691505
 30
0.0
 40
46.5
 50
206.18
 51
207.2
  0
ARC
  8
3
  6
CONTINUOUS
 62
     2
  5
1AB
 10
30510.319909
 20
27307.441505
 30
0.0
 40
48.25
 50
205.2
 51
206.18
  0
LINE
  8
3
  6
CONTINUOUS
 62
     2
  5
1AC
 10
30443.319909
 20
27289.941505
 30
0.0
 11
30452.819909
 21
27289.941505
 31
0.0
  0
ARC
  8
3
  6
CONTINUOUS
 62
     2
  5
1AD
 10
30512.319909
 20
27308.441505
 30
0.0
 40
50.75
 50
203.24
 51
204.22
  0
ARC
  8
3
  6
CONTINUOUS
 62
     2
  5
1AE
 10
30513.069909
 20
27308.691505
 30
0.0
 40
51.5
 50
202.28
 51
203.24
  0
ARC
  8
3
  6
CONTINUOUS
 62
     2
  5
1AF
 10
30513.819909
 20
27309.191505
 30
0.0
 40
52.5
 50
201.28
 51
202.28
  0
ARC
  8
3
  6
CONTINUOUS
 62
     2
  5
1B0
 10
30515.069909
 20
27309.691505
 30
0.0
 40
53.75
 50
200.32
 51
201.28
  0
LINE
  8
3
  6
CONTINUOUS
 62
     2
  5
1B1
 10
30536.819909
 20
27261.441505
 30
0.0
 11
30561.819909
 21
27261.441505
 31
0.0
  0
LINE
  8
3
  6
CONTINUOUS
 62
     2
  5
1B2
 10
30561.819909
 20
27261.441505
 30
0.0
 11
30562.319909
 21
27261.441505
 31
0.0
  0
LINE
  8
3
  6
CONTINUOUS
 62
     2
  5
1B3
 10
30539.819909
 20
27267.941505
 30
0.0
 11
30544.569909
 21
27267.941505
 31
0.0
  0
LINE
  8
3
  6
CONTINUOUS
 62
     2
  5
1B4
 10
30494.569909
 20
27270.191505
 30
0.0
 11
30503.569909
 21
27269.691505
 31
0.0
  0
ARC
  8
3
  6
CONTINUOUS
 62
     2
  5
1B5
 10
30515.319909
 20
27357.691505
 30
0.0
 40
88.25
 50
261.85
 51
263.74
  0
LINE
  8
3
  6
CONTINUOUS
 62
     2
  5
1B6
 10
30485.319909
 20
27261.941505
 30
0.0
 11
30510.319909
 21
27261.691505
 31
0.0
  0
LINE
  8
3
  6
CONTINUOUS
 62
     2
  5
1B7
 10
30510.319909
 20
27261.691505
 30
0.0
 11
30511.069909
 21
27261.691505
 31
0.0
  0
ARC
  8
3
  6
CONTINUOUS
 62
     2
  5
1B8
 10
30518.069909
 20
27380.441505
 30
0.0
 40
111.25
 50
263.73
 51
264.88
  0
LINE
  8
3
  6
CONTINUOUS
 62
     2
  5
1B9
 10
30503.569909
 20
27269.691505
 30
0.0
 11
30512.569909
 21
27269.191505
 31
0.0
  0
LINE
  8
3
  6
CONTINUOUS
 62
     2
  5
1BA
 10
30511.069909
 20
27261.691505
 30
0.0
 11
30536.069909
 21
27261.441505
 31
0.0
  0
LINE
  8
3
  6
CONTINUOUS
 62
     2
  5
1BB
 10
30536.069909
 20
27261.441505
 30
0.0
 11
30536.819909
 21
27261.441505
 31
0.0
  0
ARC
  8
3
  6
CONTINUOUS
 62
     2
  5
1BC
 10
30537.319909
 20
27658.691505
 30
0.0
 40
390.5
 50
266.96
 51
267.09
  0
ARC
  8
3
  6
CONTINUOUS
 62
     2
  5
1BD
 10
30521.319909
 20
27417.441505
 30
0.0
 40
148.25
 50
264.88
 51
265.76
  0
ARC
  8
3
  6
CONTINUOUS
 62
     2
  5
1BE
 10
30526.319909
 20
27484.441505
 30
0.0
 40
215.5
 50
265.76
 51
266.38
  0
ARC
  8
3
  6
CONTINUOUS
 62
     2
  5
1BF
 10
30531.569909
 20
27569.191505
 30
0.0
 40
300.75
 50
266.36
 51
266.5
  0
ARC
  8
3
  6
CONTINUOUS
 62
     2
  5
1C0
 10
30535.819909
 20
27636.191505
 30
0.0
 40
368.0
 50
266.5
 51
266.61
  0
ARC
  8
3
  6
CONTINUOUS
 62
     2
  5
1C1
 10
30541.819909
 20
27738.691505
 30
0.0
 40
470.75
 50
266.61
 51
266.7
  0
ARC
  8
3
  6
CONTINUOUS
 62
     2
  5
1C2
 10
30537.069909
 20
27656.941505
 30
0.0
 40
388.75
 50
266.7
 51
266.83
  0
ARC
  8
3
  6
CONTINUOUS
 62
     2
  5
1C3
 10
30537.319909
 20
27658.191505
 30
0.0
 40
389.75
 50
266.83
 51
266.96
  0
LINE
  8
3
  6
CONTINUOUS
 62
     2
  5
1C4
 10
30519.819909
 20
27268.691505
 30
0.0
 11
30520.069909
 21
27268.691505
 31
0.0
  0
ARC
  8
3
  6
CONTINUOUS
 62
     2
  5
1C5
 10
30532.319909
 20
27561.941505
 30
0.0
 40
293.5
 50
267.09
 51
267.2
  0
ARC
  8
3
  6
CONTINUOUS
 62
     2
  5
1C6
 10
30539.569909
 20
27711.191505
 30
0.0
 40
443.0
 50
267.2
 51
267.27
  0
LINE
  8
3
  6
CONTINUOUS
 62
     2
  5
1C7
 10
30518.569909
 20
27268.941505
 30
0.0
 11
30519.069909
 21
27268.691505
 31
0.0
  0
LINE
  8
3
  6
CONTINUOUS
 62
     2
  5
1C8
 10
30519.069909
 20
27268.691505
 30
0.0
 11
30519.319909
 21
27268.691505
 31
0.0
  0
LINE
  8
3
  6
CONTINUOUS
 62
     2
  5
1C9
 10
30519.319909
 20
27268.691505
 30
0.0
 11
30519.819909
 21
27268.691505
 31
0.0
  0
LINE
  8
3
  6
CONTINUOUS
 62
     2
  5
1CA
 10
30529.819909
 20
27268.441505
 30
0.0
 11
30534.819909
 21
27268.191505
 31
0.0
  0
LINE
  8
3
  6
CONTINUOUS
 62
     2
  5
1CB
 10
30520.069909
 20
27268.691505
 30
0.0
 11
30525.069909
 21
27268.441505
 31
0.0
  0
LINE
  8
3
  6
CONTINUOUS
 62
     2
  5
1CC
 10
30525.069909
 20
27268.441505
 30
0.0
 11
30529.819909
 21
27268.441505
 31
0.0
  0
LINE
  8
3
  6
CONTINUOUS
 62
     2
  5
1CD
 10
30534.819909
 20
27268.191505
 30
0.0
 11
30539.819909
 21
27267.941505
 31
0.0
  0
ARC
  8
3
  6
CONTINUOUS
 62
     2
  5
1CE
 10
30489.069909
 20
27292.941505
 30
0.0
 40
15.75
 50
227.58
 51
229.03
  0
ARC
  8
3
  6
CONTINUOUS
 62
     2
  5
1CF
 10
30487.069909
 20
27289.691505
 30
0.0
 40
18.75
 50
241.8
 51
243.88
  0
ARC
  8
3
  6
CONTINUOUS
 62
     2
  5
1D0
 10
30500.319909
 20
27303.191505
 30
0.0
 40
30.75
 50
220.21
 51
221.61
  0
ARC
  8
3
  6
CONTINUOUS
 62
     2
  5
1D1
 10
30499.569909
 20
27302.441505
 30
0.0
 40
29.75
 50
221.61
 51
223.06
  0
ARC
  8
3
  6
CONTINUOUS
 62
     2
  5
1D2
 10
30498.819909
 20
27301.691505
 30
0.0
 40
28.75
 50
223.06
 51
224.55
  0
ARC
  8
3
  6
CONTINUOUS
 62
     2
  5
1D3
 10
30483.819909
 20
27286.941505
 30
0.0
 40
7.75
 50
224.67
 51
227.58
  0
ARC
  8
3
  6
CONTINUOUS
 62
     2
  5
1D4
 10
30487.069909
 20
27289.941505
 30
0.0
 40
19.0
 50
239.76
 51
241.8
  0
ARC
  8
3
  6
CONTINUOUS
 62
     2
  5
1D5
 10
30487.319909
 20
27290.441505
 30
0.0
 40
19.5
 50
237.75
 51
239.75
  0
ARC
  8
3
  6
CONTINUOUS
 62
     2
  5
1D6
 10
30487.569909
 20
27290.691505
 30
0.0
 40
20.0
 50
235.8
 51
237.75
  0
ARC
  8
3
  6
CONTINUOUS
 62
     2
  5
1D7
 10
30487.819909
 20
27291.191505
 30
0.0
 40
20.5
 50
233.89
 51
235.8
  0
ARC
  8
3
  6
CONTINUOUS
 62
     2
  5
1D8
 10
30488.319909
 20
27291.691505
 30
0.0
 40
21.0
 50
232.02
 51
233.89
  0
ARC
  8
3
  6
CONTINUOUS
 62
     2
  5
1D9
 10
30488.819909
 20
27292.191505
 30
0.0
 40
21.75
 50
230.22
 51
232.02
  0
ARC
  8
3
  6
CONTINUOUS
 62
     2
  5
1DA
 10
30489.319909
 20
27292.691505
 30
0.0
 40
22.5
 50
228.48
 51
230.22
  0
ARC
  8
3
  6
CONTINUOUS
 62
     2
  5
1DB
 10
30489.819909
 20
27293.441505
 30
0.0
 40
23.5
 50
226.77
 51
228.48
  0
ARC
  8
3
  6
CONTINUOUS
 62
     2
  5
1DC
 10
30490.319909
 20
27294.191505
 30
0.0
 40
24.5
 50
225.13
 51
226.77
  0
ARC
  8
3
  6
CONTINUOUS
 62
     2
  5
1DD
 10
30491.069909
 20
27294.941505
 30
0.0
 40
25.25
 50
223.55
 51
225.13
  0
ARC
  8
3
  6
CONTINUOUS
 62
     2
  5
1DE
 10
30491.819909
 20
27295.691505
 30
0.0
 40
26.5
 50
222.01
 51
223.55
  0
ARC
  8
3
  6
CONTINUOUS
 62
     2
  5
1DF
 10
30492.819909
 20
27296.441505
 30
0.0
 40
27.75
 50
220.53
 51
222.01
  0
ARC
  8
3
  6
CONTINUOUS
 62
     2
  5
1E0
 10
30493.819909
 20
27297.191505
 30
0.0
 40
29.0
 50
219.11
 51
220.53
  0
ARC
  8
3
  6
CONTINUOUS
 62
     2
  5
1E1
 10
30495.069909
 20
27298.191505
 30
0.0
 40
30.5
 50
217.73
 51
219.12
  0
ARC
  8
3
  6
CONTINUOUS
 62
     2
  5
1E2
 10
30496.069909
 20
27298.941505
 30
0.0
 40
31.75
 50
216.4
 51
217.73
  0
ARC
  8
3
  6
CONTINUOUS
 62
     2
  5
1E3
 10
30497.069909
 20
27299.941505
 30
0.0
 40
33.25
 50
215.13
 51
216.4
  0
ARC
  8
3
  6
CONTINUOUS
 62
     2
  5
1E4
 10
30499.819909
 20
27302.941505
 30
0.0
 40
30.25
 50
209.0
 51
211.24
  0
ARC
  8
3
  6
CONTINUOUS
 62
     2
  5
1E5
 10
30499.819909
 20
27302.691505
 30
0.0
 40
30.25
 50
211.24
 51
213.49
  0
ARC
  8
3
  6
CONTINUOUS
 62
     2
  5
1E6
 10
30499.819909
 20
27302.691505
 30
0.0
 40
30.25
 50
213.49
 51
215.74
  0
ARC
  8
3
  6
CONTINUOUS
 62
     2
  5
1E7
 10
30499.819909
 20
27302.691505
 30
0.0
 40
30.25
 50
215.74
 51
217.97
  0
ARC
  8
3
  6
CONTINUOUS
 62
     2
  5
1E8
 10
30499.819909
 20
27302.691505
 30
0.0
 40
30.25
 50
217.97
 51
220.21
  0
ARC
  8
3
  6
CONTINUOUS
 62
     2
  5
1E9
 10
30499.569909
 20
27302.691505
 30
0.0
 40
30.0
 50
202.26
 51
203.77
  0
ARC
  8
3
  6
CONTINUOUS
 62
     2
  5
1EA
 10
30499.819909
 20
27302.691505
 30
0.0
 40
30.25
 50
203.77
 51
205.27
  0
ARC
  8
3
  6
CONTINUOUS
 62
     2
  5
1EB
 10
30499.819909
 20
27302.691505
 30
0.0
 40
30.25
 50
205.27
 51
206.76
  0
ARC
  8
3
  6
CONTINUOUS
 62
     2
  5
1EC
 10
30500.069909
 20
27302.941505
 30
0.0
 40
30.5
 50
206.76
 51
209.0
  0
ARC
  8
3
  6
CONTINUOUS
 62
     2
  5
1ED
 10
30486.819909
 20
27289.441505
 30
0.0
 40
18.25
 50
250.32
 51
252.49
  0
ARC
  8
3
  6
CONTINUOUS
 62
     2
  5
1EE
 10
30512.319909
 20
27318.691505
 30
0.0
 40
50.5
 50
231.03
 51
231.98
  0
LINE
  8
3
  6
CONTINUOUS
 62
     2
  5
1EF
 10
30478.819909
 20
27280.941505
 30
0.0
 11
30479.069909
 21
27280.691505
 31
0.0
  0
ARC
  8
3
  6
CONTINUOUS
 62
     2
  5
1F0
 10
30515.569909
 20
27322.691505
 30
0.0
 40
55.5
 50
228.89
 51
229.29
  0
ARC
  8
3
  6
CONTINUOUS
 62
     2
  5
1F1
 10
30514.569909
 20
27321.441505
 30
0.0
 40
54.0
 50
229.29
 51
229.69
  0
ARC
  8
3
  6
CONTINUOUS
 62
     2
  5
1F2
 10
30513.819909
 20
27320.441505
 30
0.0
 40
52.5
 50
229.69
 51
230.11
  0
ARC
  8
3
  6
CONTINUOUS
 62
     2
  5
1F3
 10
30513.569909
 20
27320.191505
 30
0.0
 40
52.5
 50
230.1
 51
231.03
  0
ARC
  8
3
  6
CONTINUOUS
 62
     2
  5
1F4
 10
30486.819909
 20
27289.441505
 30
0.0
 40
18.5
 50
248.16
 51
250.32
  0
ARC
  8
3
  6
CONTINUOUS
 62
     2
  5
1F5
 10
30486.819909
 20
27289.441505
 30
0.0
 40
18.25
 50
246.0
 51
248.16
  0
ARC
  8
3
  6
CONTINUOUS
 62
     2
  5
1F6
 10
30486.819909
 20
27289.441505
 30
0.0
 40
18.5
 50
243.88
 51
245.99
  0
ARC
  8
3
  6
CONTINUOUS
 62
     2
  5
1F7
 10
30511.069909
 20
27316.941505
 30
0.0
 40
48.25
 50
231.98
 51
232.97
  0
ARC
  8
3
  6
CONTINUOUS
 62
     2
  5
1F8
 10
30510.819909
 20
27328.691505
 30
0.0
 40
59.0
 50
256.76
 51
259.52
  0
ARC
  8
3
  6
CONTINUOUS
 62
     2
  5
1F9
 10
30508.569909
 20
27313.941505
 30
0.0
 40
44.25
 50
232.95
 51
236.74
  0
ARC
  8
3
  6
CONTINUOUS
 62
     2
  5
1FA
 10
30506.819909
 20
27311.191505
 30
0.0
 40
41.25
 50
236.74
 51
240.72
  0
ARC
  8
3
  6
CONTINUOUS
 62
     2
  5
1FB
 10
30505.569909
 20
27308.691505
 30
0.0
 40
38.25
 50
240.72
 51
244.91
  0
ARC
  8
3
  6
CONTINUOUS
 62
     2
  5
1FC
 10
30505.319909
 20
27308.441505
 30
0.0
 40
38.0
 50
244.94
 51
248.61
  0
ARC
  8
3
  6
CONTINUOUS
 62
     2
  5
1FD
 10
30505.819909
 20
27309.691505
 30
0.0
 40
39.5
 50
248.61
 51
252.13
  0
ARC
  8
3
  6
CONTINUOUS
 62
     2
  5
1FE
 10
30506.569909
 20
27311.941505
 30
0.0
 40
41.75
 50
252.13
 51
255.45
  0
ARC
  8
3
  6
CONTINUOUS
 62
     2
  5
1FF
 10
30509.319909
 20
27322.191505
 30
0.0
 40
52.5
 50
255.44
 51
255.87
  0
ARC
  8
3
  6
CONTINUOUS
 62
     2
  5
200
 10
30509.569909
 20
27323.191505
 30
0.0
 40
53.25
 50
255.87
 51
256.3
  0
ARC
  8
3
  6
CONTINUOUS
 62
     2
  5
201
 10
30509.819909
 20
27324.191505
 30
0.0
 40
54.25
 50
256.3
 51
256.72
  0
LINE
  8
3
  6
CONTINUOUS
 62
     2
  5
202
 10
30485.569909
 20
27270.941505
 30
0.0
 11
30494.569909
 21
27270.191505
 31
0.0
  0
ARC
  8
3
  6
CONTINUOUS
 62
     2
  5
203
 10
30487.069909
 20
27290.941505
 30
0.0
 40
20.0
 50
263.53
 51
265.67
  0
ARC
  8
3
  6
CONTINUOUS
 62
     2
  5
204
 10
30487.069909
 20
27290.691505
 30
0.0
 40
19.75
 50
261.34
 51
263.53
  0
ARC
  8
3
  6
CONTINUOUS
 62
     2
  5
205
 10
30487.069909
 20
27289.941505
 30
0.0
 40
19.0
 50
259.1
 51
261.34
  0
ARC
  8
3
  6
CONTINUOUS
 62
     2
  5
206
 10
30487.069909
 20
27289.691505
 30
0.0
 40
18.75
 50
256.9
 51
259.09
  0
ARC
  8
3
  6
CONTINUOUS
 62
     2
  5
207
 10
30487.069909
 20
27289.691505
 30
0.0
 40
18.75
 50
254.71
 51
256.9
  0
ARC
  8
3
  6
CONTINUOUS
 62
     2
  5
208
 10
30486.819909
 20
27289.441505
 30
0.0
 40
18.5
 50
252.49
 51
254.71
  0
ARC
  8
3
  6
CONTINUOUS
 62
     2
  5
209
 10
30512.819909
 20
27340.191505
 30
0.0
 40
70.75
 50
259.52
 51
261.85
  0
LINE
  8
3
  6
CONTINUOUS
 62
     2
  5
20A
 10
30562.319909
 20
27261.441505
 30
0.0
 11
30587.319909
 21
27261.441505
 31
0.0
  0
LINE
  8
3
  6
CONTINUOUS
 62
     2
  5
20B
 10
30587.319909
 20
27261.441505
 30
0.0
 11
30587.819909
 21
27261.441505
 31
0.0
  0
LINE
  8
3
  6
CONTINUOUS
 62
     2
  5
20C
 10
30576.319909
 20
27267.441505
 30
0.0
 11
30583.069909
 21
27267.691505
 31
0.0
  0
LINE
  8
3
  6
CONTINUOUS
 62
     2
  5
20D
 10
30555.069909
 20
27267.691505
 30
0.0
 11
30560.819909
 21
27267.691505
 31
0.0
  0
LINE
  8
3
  6
CONTINUOUS
 62
     2
  5
20E
 10
30544.569909
 20
27267.941505
 30
0.0
 11
30549.569909
 21
27267.691505
 31
0.0
  0
LINE
  8
3
  6
CONTINUOUS
 62
     2
  5
20F
 10
30549.569909
 20
27267.691505
 30
0.0
 11
30555.069909
 21
27267.691505
 31
0.0
  0
LINE
  8
3
  6
CONTINUOUS
 62
     2
  5
210
 10
30567.319909
 20
27267.441505
 30
0.0
 11
30568.569909
 21
27267.441505
 31
0.0
  0
LINE
  8
3
  6
CONTINUOUS
 62
     2
  5
211
 10
30560.819909
 20
27267.691505
 30
0.0
 11
30566.319909
 21
27267.441505
 31
0.0
  0
LINE
  8
3
  6
CONTINUOUS
 62
     2
  5
212
 10
30566.319909
 20
27267.441505
 30
0.0
 11
30567.319909
 21
27267.441505
 31
0.0
  0
LINE
  8
3
  6
CONTINUOUS
 62
     2
  5
213
 10
30568.569909
 20
27267.441505
 30
0.0
 11
30569.819909
 21
27267.441505
 31
0.0
  0
LINE
  8
3
  6
CONTINUOUS
 62
     2
  5
214
 10
30569.819909
 20
27267.441505
 30
0.0
 11
30576.319909
 21
27267.441505
 31
0.0
  0
LINE
  8
3
  6
CONTINUOUS
 62
     2
  5
215
 10
30587.819909
 20
27261.441505
 30
0.0
 11
30612.819909
 21
27261.441505
 31
0.0
  0
LINE
  8
3
  6
CONTINUOUS
 62
     2
  5
216
 10
30612.819909
 20
27261.441505
 30
0.0
 11
30613.319909
 21
27261.441505
 31
0.0
  0
LINE
  8
3
  6
CONTINUOUS
 62
     2
  5
217
 10
30589.819909
 20
27267.691505
 30
0.0
 11
30595.569909
 21
27267.691505
 31
0.0
  0
LINE
  8
3
  6
CONTINUOUS
 62
     2
  5
218
 10
30583.069909
 20
27267.691505
 30
0.0
 11
30589.819909
 21
27267.691505
 31
0.0
  0
LINE
  8
3
  6
CONTINUOUS
 62
     2
  5
219
 10
30595.569909
 20
27267.691505
 30
0.0
 11
30601.569909
 21
27267.941505
 31
0.0
  0
LINE
  8
3
  6
CONTINUOUS
 62
     2
  5
21A
 10
30601.569909
 20
27267.941505
 30
0.0
 11
30607.319909
 21
27267.941505
 31
0.0
  0
LINE
  8
3
  6
CONTINUOUS
 62
     2
  5
21B
 10
30607.319909
 20
27267.941505
 30
0.0
 11
30609.319909
 21
27268.191505
 31
0.0
  0
LINE
  8
3
  6
CONTINUOUS
 62
     2
  5
21C
 10
30609.319909
 20
27268.191505
 30
0.0
 11
30611.319909
 21
27268.191505
 31
0.0
  0
LINE
  8
3
  6
CONTINUOUS
 62
     2
  5
21D
 10
30611.319909
 20
27268.191505
 30
0.0
 11
30613.319909
 21
27268.191505
 31
0.0
  0
ARC
  8
3
  6
CONTINUOUS
 62
     2
  5
21E
 10
30470.819909
 20
27639.441505
 30
0.0
 40
309.75
 50
269.55
 51
270.39
  0
ARC
  8
3
  6
CONTINUOUS
 62
     2
  5
21F
 10
30664.569909
 20
27326.691505
 30
0.0
 40
205.25
 50
177.36
 51
178.11
  0
LINE
  8
3
  6
CONTINUOUS
 62
     2
  5
220
 10
30452.819909
 20
27331.691505
 30
0.0
 11
30452.819909
 21
27336.941505
 31
0.0
  0
LINE
  8
3
  6
CONTINUOUS
 62
     2
  5
221
 10
30443.319909
 20
27305.191505
 30
0.0
 11
30443.319909
 21
27318.691505
 31
0.0
  0
LINE
  8
3
  6
CONTINUOUS
 62
     2
  5
222
 10
30452.819909
 20
27304.941505
 30
0.0
 11
30452.819909
 21
27321.691505
 31
0.0
  0
ARC
  8
3
  6
CONTINUOUS
 62
     2
  5
223
 10
30616.569909
 20
27331.441505
 30
0.0
 40
157.5
 50
185.57
 51
186.91
  0
LINE
  8
3
  6
CONTINUOUS
 62
     2
  5
224
 10
30443.319909
 20
27294.691505
 30
0.0
 11
30443.319909
 21
27305.191505
 31
0.0
  0
ARC
  8
3
  6
CONTINUOUS
 62
     2
  5
225
 10
30594.319909
 20
27327.941505
 30
0.0
 40
135.0
 50
191.35
 51
192.95
  0
ARC
  8
3
  6
CONTINUOUS
 62
     2
  5
226
 10
30516.069909
 20
27309.941505
 30
0.0
 40
54.75
 50
198.35
 51
199.37
  0
ARC
  8
3
  6
CONTINUOUS
 62
     2
  5
227
 10
30516.069909
 20
27309.941505
 30
0.0
 40
54.75
 50
197.34
 51
198.35
  0
ARC
  8
3
  6
CONTINUOUS
 62
     2
  5
228
 10
30515.819909
 20
27309.941505
 30
0.0
 40
54.5
 50
196.32
 51
197.34
  0
ARC
  8
3
  6
CONTINUOUS
 62
     2
  5
229
 10
30515.319909
 20
27309.691505
 30
0.0
 40
54.0
 50
195.21
 51
196.32
  0
ARC
  8
3
  6
CONTINUOUS
 62
     2
  5
22A
 10
30514.569909
 20
27309.691505
 30
0.0
 40
53.25
 50
194.09
 51
195.21
  0
ARC
  8
3
  6
CONTINUOUS
 62
     2
  5
22B
 10
30513.819909
 20
27309.441505
 30
0.0
 40
52.25
 50
192.95
 51
194.09
  0
ARC
  8
3
  6
CONTINUOUS
 62
     2
  5
22C
 10
30610.069909
 20
27330.441505
 30
0.0
 40
151.0
 50
186.91
 51
188.32
  0
ARC
  8
3
  6
CONTINUOUS
 62
     2
  5
22D
 10
30599.069909
 20
27328.691505
 30
0.0
 40
139.75
 50
189.81
 51
191.35
  0
ARC
  8
3
  6
CONTINUOUS
 62
     2
  5
22E
 10
30603.069909
 20
27329.441505
 30
0.0
 40
143.75
 50
188.32
 51
189.81
  0
ARC
  8
3
  6
CONTINUOUS
 62
     2
  5
22F
 10
30623.069909
 20
27331.941505
 30
0.0
 40
164.25
 50
184.29
 51
185.57
  0
ARC
  8
3
  6
CONTINUOUS
 62
     2
  5
230
 10
30552.569909
 20
27326.691505
 30
0.0
 40
93.25
 50
183.73
 51
184.29
  0
ARC
  8
3
  6
CONTINUOUS
 62
     2
  5
231
 10
30554.319909
 20
27326.691505
 30
0.0
 40
95.0
 50
183.19
 51
183.73
  0
ARC
  8
3
  6
CONTINUOUS
 62
     2
  5
232
 10
30556.069909
 20
27326.941505
 30
0.0
 40
96.75
 50
182.65
 51
183.19
  0
ARC
  8
3
  6
CONTINUOUS
 62
     2
  5
233
 10
30568.819909
 20
27327.441505
 30
0.0
 40
109.75
 50
181.9
 51
182.64
  0
ARC
  8
3
  6
CONTINUOUS
 62
     2
  5
234
 10
30577.319909
 20
27327.691505
 30
0.0
 40
118.0
 50
181.21
 51
181.9
  0
ARC
  8
3
  6
CONTINUOUS
 62
     2
  5
235
 10
30587.069909
 20
27327.941505
 30
0.0
 40
128.0
 50
180.57
 51
181.21
  0
ARC
  8
3
  6
CONTINUOUS
 62
     2
  5
236
 10
30597.069909
 20
27327.941505
 30
0.0
 40
138.0
 50
180.01
 51
180.57
  0
ARC
  8
3
  6
CONTINUOUS
 62
     2
  5
237
 10
30607.319909
 20
27327.941505
 30
0.0
 40
148.25
 50
179.48
 51
180.01
  0
ARC
  8
3
  6
CONTINUOUS
 62
     2
  5
238
 10
30619.069909
 20
27327.941505
 30
0.0
 40
159.75
 50
178.99
 51
179.48
  0
ARC
  8
3
  6
CONTINUOUS
 62
     2
  5
239
 10
30636.819909
 20
27327.691505
 30
0.0
 40
177.5
 50
178.11
 51
178.98
  0
LINE
  8
3
  6
CONTINUOUS
 62
     2
  5
23A
 10
30443.319909
 20
27318.691505
 30
0.0
 11
30452.819909
 21
27318.941505
 31
0.0
  0
LINE
  8
3
  6
CONTINUOUS
 62
     2
  5
23B
 10
30452.819909
 20
27321.691505
 30
0.0
 11
30452.819909
 21
27326.691505
 31
0.0
  0
LINE
  8
3
  6
CONTINUOUS
 62
     2
  5
23C
 10
30452.819909
 20
27326.691505
 30
0.0
 11
30452.819909
 21
27331.691505
 31
0.0
  0
ARC
  8
3
  6
CONTINUOUS
 62
     2
  5
23D
 10
30471.069909
 20
27654.441505
 30
0.0
 40
324.75
 50
268.74
 51
269.55
  0
LINE
  8
3
  6
CONTINUOUS
 62
     2
  5
23E
 10
30452.819909
 20
27356.941505
 30
0.0
 11
30452.819909
 21
27353.941505
 31
0.0
  0
ARC
  8
3
  6
CONTINUOUS
 62
     2
  5
23F
 10
30138.819909
 20
27378.191505
 30
0.0
 40
322.75
 50
355.93
 51
356.22
  0
LINE
  8
3
  6
CONTINUOUS
 62
     2
  5
240
 10
30452.819909
 20
27351.191505
 30
0.0
 11
30452.819909
 21
27348.191505
 31
0.0
  0
LINE
  8
3
  6
CONTINUOUS
 62
     2
  5
241
 10
30460.069909
 20
27348.941505
 30
0.0
 11
30460.319909
 21
27350.441505
 31
0.0
  0
LINE
  8
3
  6
CONTINUOUS
 62
     2
  5
242
 10
30452.819909
 20
27348.191505
 30
0.0
 11
30452.819909
 21
27345.191505
 31
0.0
  0
ARC
  8
3
  6
CONTINUOUS
 62
     2
  5
243
 10
31135.069909
 20
27294.691505
 30
0.0
 40
677.0
 50
175.52
 51
175.76
  0
LINE
  8
3
  6
CONTINUOUS
 62
     2
  5
244
 10
30452.819909
 20
27336.941505
 30
0.0
 11
30452.819909
 21
27337.191505
 31
0.0
  0
LINE
  8
3
  6
CONTINUOUS
 62
     2
  5
245
 10
30452.819909
 20
27337.191505
 30
0.0
 11
30452.819909
 21
27337.691505
 31
0.0
  0
LINE
  8
3
  6
CONTINUOUS
 62
     2
  5
246
 10
30452.819909
 20
27337.691505
 30
0.0
 11
30452.819909
 21
27338.191505
 31
0.0
  0
LINE
  8
3
  6
CONTINUOUS
 62
     2
  5
247
 10
30452.819909
 20
27338.191505
 30
0.0
 11
30452.819909
 21
27338.441505
 31
0.0
  0
LINE
  8
3
  6
CONTINUOUS
 62
     2
  5
248
 10
30452.819909
 20
27338.441505
 30
0.0
 11
30452.819909
 21
27338.941505
 31
0.0
  0
LINE
  8
3
  6
CONTINUOUS
 62
     2
  5
249
 10
30452.819909
 20
27338.941505
 30
0.0
 11
30452.819909
 21
27339.441505
 31
0.0
  0
LINE
  8
3
  6
CONTINUOUS
 62
     2
  5
24A
 10
30452.819909
 20
27342.191505
 30
0.0
 11
30452.819909
 21
27339.441505
 31
0.0
  0
LINE
  8
3
  6
CONTINUOUS
 62
     2
  5
24B
 10
30452.819909
 20
27345.191505
 30
0.0
 11
30452.819909
 21
27342.191505
 31
0.0
  0
ARC
  8
3
  6
CONTINUOUS
 62
     2
  5
24C
 10
30699.819909
 20
27325.191505
 30
0.0
 40
240.75
 50
176.72
 51
177.36
  0
ARC
  8
3
  6
CONTINUOUS
 62
     2
  5
24D
 10
30752.819909
 20
27321.941505
 30
0.0
 40
293.75
 50
176.16
 51
176.71
  0
ARC
  8
3
  6
CONTINUOUS
 62
     2
  5
24E
 10
30871.069909
 20
27314.191505
 30
0.0
 40
412.5
 50
175.76
 51
176.16
  0
LINE
  8
3
  6
CONTINUOUS
 62
     2
  5
24F
 10
30460.069909
 20
27348.941505
 30
0.0
 11
30460.069909
 21
27347.441505
 31
0.0
  0
LINE
  8
3
  6
CONTINUOUS
 62
     2
  5
250
 10
30452.819909
 20
27353.941505
 30
0.0
 11
30452.819909
 21
27351.191505
 31
0.0
  0
LINE
  8
3
  6
CONTINUOUS
 62
     2
  5
251
 10
30460.319909
 20
27350.441505
 30
0.0
 11
30460.319909
 21
27351.941505
 31
0.0
  0
ARC
  8
3
  6
CONTINUOUS
 62
     2
  5
252
 10
29806.069909
 20
27402.691505
 30
0.0
 40
656.25
 50
355.56
 51
355.7
  0
ARC
  8
3
  6
CONTINUOUS
 62
     2
  5
253
 10
30028.319909
 20
27386.191505
 30
0.0
 40
433.5
 50
355.7
 51
355.93
  0
LINE
  8
3
  6
CONTINUOUS
 62
     2
  5
254
 10
30452.819909
 20
27360.441505
 30
0.0
 11
30452.819909
 21
27363.691505
 31
0.0
  0
LINE
  8
3
  6
CONTINUOUS
 62
     2
  5
255
 10
30460.819909
 20
27356.941505
 30
0.0
 11
30461.569909
 21
27371.191505
 31
0.0
  0
LINE
  8
3
  6
CONTINUOUS
 62
     2
  5
256
 10
30442.819909
 20
27357.691505
 30
0.0
 11
30451.069909
 21
27356.941505
 31
0.0
  0
LINE
  8
3
  6
CONTINUOUS
 62
     2
  5
257
 10
30452.819909
 20
27356.941505
 30
0.0
 11
30452.819909
 21
27360.441505
 31
0.0
  0
LINE
  8
3
  6
CONTINUOUS
 62
     2
  5
258
 10
30452.819909
 20
27363.691505
 30
0.0
 11
30452.819909
 21
27366.941505
 31
0.0
  0
LINE
  8
3
  6
CONTINUOUS
 62
     2
  5
259
 10
30452.819909
 20
27366.941505
 30
0.0
 11
30452.819909
 21
27370.191505
 31
0.0
  0
LINE
  8
3
  6
CONTINUOUS
 62
     2
  5
25A
 10
30452.819909
 20
27370.191505
 30
0.0
 11
30452.819909
 21
27373.691505
 31
0.0
  0
LINE
  8
3
  6
CONTINUOUS
 62
     2
  5
25B
 10
30452.819909
 20
27373.691505
 30
0.0
 11
30452.819909
 21
27376.941505
 31
0.0
  0
ARC
  8
3
  6
CONTINUOUS
 62
     2
  5
25C
 10
30486.319909
 20
27473.191505
 30
0.0
 40
142.25
 50
281.63
 51
282.5
  0
ARC
  8
3
  6
CONTINUOUS
 62
     2
  5
25D
 10
30542.819909
 20
27335.441505
 30
0.0
 40
3.0
 50
180.0
 51
270.0
  0
LINE
  8
3
  6
CONTINUOUS
 62
     2
  5
25E
 10
30525.569909
 20
27324.441505
 30
0.0
 11
30616.319909
 21
27327.441505
 31
0.0
  0
LINE
  8
3
  6
CONTINUOUS
 62
     2
  5
25F
 10
30542.819909
 20
27332.191505
 30
0.0
 11
30609.319909
 21
27332.191505
 31
0.0
  0
LINE
  8
3
  6
CONTINUOUS
 62
     2
  5
260
 10
30532.319909
 20
27315.191505
 30
0.0
 11
30543.819909
 21
27315.191505
 31
0.0
  0
ARC
  8
3
  6
CONTINUOUS
 62
     2
  5
261
 10
30485.319909
 20
27298.941505
 30
0.0
 40
15.0
 50
113.92
 51
124.65
  0
ARC
  8
3
  6
CONTINUOUS
 62
     2
  5
262
 10
30485.569909
 20
27298.191505
 30
0.0
 40
15.75
 50
103.59
 51
113.98
  0
ARC
  8
3
  6
CONTINUOUS
 62
     2
  5
263
 10
30485.069909
 20
27298.691505
 30
0.0
 40
15.0
 50
170.57
 51
179.96
  0
ARC
  8
3
  6
CONTINUOUS
 62
     2
  5
264
 10
30485.319909
 20
27298.691505
 30
0.0
 40
15.25
 50
180.03
 51
181.92
  0
ARC
  8
3
  6
CONTINUOUS
 62
     2
  5
265
 10
30485.319909
 20
27298.691505
 30
0.0
 40
15.25
 50
181.92
 51
183.79
  0
ARC
  8
3
  6
CONTINUOUS
 62
     2
  5
266
 10
30485.569909
 20
27298.691505
 30
0.0
 40
15.25
 50
183.79
 51
185.66
  0
ARC
  8
3
  6
CONTINUOUS
 62
     2
  5
267
 10
30485.319909
 20
27298.691505
 30
0.0
 40
15.25
 50
185.66
 51
189.03
  0
ARC
  8
3
  6
CONTINUOUS
 62
     2
  5
268
 10
30485.569909
 20
27298.691505
 30
0.0
 40
15.25
 50
189.03
 51
192.38
  0
ARC
  8
3
  6
CONTINUOUS
 62
     2
  5
269
 10
30485.319909
 20
27298.691505
 30
0.0
 40
15.25
 50
192.38
 51
195.75
  0
ARC
  8
3
  6
CONTINUOUS
 62
     2
  5
26A
 10
30500.069909
 20
27302.941505
 30
0.0
 40
30.5
 50
195.76
 51
197.91
  0
ARC
  8
3
  6
CONTINUOUS
 62
     2
  5
26B
 10
30499.819909
 20
27302.691505
 30
0.0
 40
30.25
 50
197.91
 51
200.08
  0
ARC
  8
3
  6
CONTINUOUS
 62
     2
  5
26C
 10
30485.569909
 20
27298.441505
 30
0.0
 40
15.5
 50
133.98
 51
143.0
  0
ARC
  8
3
  6
CONTINUOUS
 62
     2
  5
26D
 10
30485.819909
 20
27298.691505
 30
0.0
 40
15.75
 50
161.6
 51
170.61
  0
ARC
  8
3
  6
CONTINUOUS
 62
     2
  5
26E
 10
30485.319909
 20
27298.691505
 30
0.0
 40
15.0
 50
142.97
 51
152.28
  0
ARC
  8
3
  6
CONTINUOUS
 62
     2
  5
26F
 10
30485.319909
 20
27298.691505
 30
0.0
 40
15.0
 50
152.41
 51
161.65
  0
ARC
  8
3
  6
CONTINUOUS
 62
     2
  5
270
 10
30485.319909
 20
27298.941505
 30
0.0
 40
15.25
 50
124.8
 51
134.02
  0
LINE
  8
3
  6
CONTINUOUS
 62
     2
  5
271
 10
30507.069909
 20
27314.941505
 30
0.0
 11
30495.819909
 21
27314.441505
 31
0.0
  0
ARC
  8
3
  6
CONTINUOUS
 62
     2
  5
272
 10
30480.819909
 20
27503.441505
 30
0.0
 40
172.75
 50
278.53
 51
279.25
  0
ARC
  8
3
  6
CONTINUOUS
 62
     2
  5
273
 10
30471.319909
 20
27608.941505
 30
0.0
 40
279.0
 50
271.28
 51
272.2
  0
ARC
  8
3
  6
CONTINUOUS
 62
     2
  5
274
 10
30471.069909
 20
27625.191505
 30
0.0
 40
295.25
 50
270.39
 51
271.28
  0
ARC
  8
3
  6
CONTINUOUS
 62
     2
  5
275
 10
30475.819909
 20
27540.191505
 30
0.0
 40
210.25
 50
275.35
 51
276.55
  0
LINE
  8
3
  6
CONTINUOUS
 62
     2
  5
276
 10
30495.819909
 20
27314.441505
 30
0.0
 11
30484.569909
 21
27314.191505
 31
0.0
  0
ARC
  8
3
  6
CONTINUOUS
 62
     2
  5
277
 10
30485.319909
 20
27298.941505
 30
0.0
 40
15.0
 50
92.81
 51
103.65
  0
ARC
  8
3
  6
CONTINUOUS
 62
     2
  5
278
 10
30472.069909
 20
27591.191505
 30
0.0
 40
261.5
 50
272.2
 51
273.19
  0
ARC
  8
3
  6
CONTINUOUS
 62
     2
  5
279
 10
30472.819909
 20
27574.941505
 30
0.0
 40
245.25
 50
273.19
 51
274.23
  0
ARC
  8
3
  6
CONTINUOUS
 62
     2
  5
27A
 10
30474.069909
 20
27558.191505
 30
0.0
 40
228.25
 50
274.23
 51
275.35
  0
ARC
  8
3
  6
CONTINUOUS
 62
     2
  5
27B
 10
30477.819909
 20
27524.441505
 30
0.0
 40
194.0
 50
276.55
 51
277.84
  0
ARC
  8
3
  6
CONTINUOUS
 62
     2
  5
27C
 10
30479.319909
 20
27512.941505
 30
0.0
 40
182.5
 50
277.85
 51
278.53
  0
LINE
  8
3
  6
CONTINUOUS
 62
     2
  5
27D
 10
30518.319909
 20
27315.191505
 30
0.0
 11
30507.069909
 21
27314.941505
 31
0.0
  0
ARC
  8
3
  6
CONTINUOUS
 62
     2
  5
27E
 10
30482.069909
 20
27494.691505
 30
0.0
 40
164.0
 50
279.25
 51
280.01
  0
ARC
  8
3
  6
CONTINUOUS
 62
     2
  5
27F
 10
30483.569909
 20
27486.941505
 30
0.0
 40
156.25
 50
280.01
 51
280.8
  0
ARC
  8
3
  6
CONTINUOUS
 62
     2
  5
280
 10
30484.819909
 20
27479.691505
 30
0.0
 40
148.75
 50
280.8
 51
281.63
  0
LINE
  8
3
  6
CONTINUOUS
 62
     2
  5
281
 10
30520.319909
 20
27315.191505
 30
0.0
 11
30519.319909
 21
27315.191505
 31
0.0
  0
ARC
  8
3
  6
CONTINUOUS
 62
     2
  5
282
 10
30529.319909
 20
27332.441505
 30
0.0
 40
9.0
 50
180.0
 51
270.0
  0
LINE
  8
3
  6
CONTINUOUS
 62
     2
  5
283
 10
30519.319909
 20
27315.191505
 30
0.0
 11
30518.319909
 21
27315.191505
 31
0.0
  0
LINE
  8
3
  6
CONTINUOUS
 62
     2
  5
284
 10
30532.319909
 20
27315.191505
 30
0.0
 11
30531.069909
 21
27315.191505
 31
0.0
  0
LINE
  8
3
  6
CONTINUOUS
 62
     2
  5
285
 10
30531.069909
 20
27315.191505
 30
0.0
 11
30529.819909
 21
27315.191505
 31
0.0
  0
LINE
  8
3
  6
CONTINUOUS
 62
     2
  5
286
 10
30529.819909
 20
27315.191505
 30
0.0
 11
30528.569909
 21
27315.191505
 31
0.0
  0
LINE
  8
3
  6
CONTINUOUS
 62
     2
  5
287
 10
30528.569909
 20
27315.191505
 30
0.0
 11
30526.319909
 21
27315.191505
 31
0.0
  0
LINE
  8
3
  6
CONTINUOUS
 62
     2
  5
288
 10
30526.319909
 20
27315.191505
 30
0.0
 11
30523.819909
 21
27315.191505
 31
0.0
  0
LINE
  8
3
  6
CONTINUOUS
 62
     2
  5
289
 10
30523.819909
 20
27315.191505
 30
0.0
 11
30521.319909
 21
27315.191505
 31
0.0
  0
LINE
  8
3
  6
CONTINUOUS
 62
     2
  5
28A
 10
30521.319909
 20
27315.191505
 30
0.0
 11
30520.319909
 21
27315.191505
 31
0.0
  0
ARC
  8
3
  6
CONTINUOUS
 62
     2
  5
28B
 10
30584.819909
 20
27299.441505
 30
0.0
 40
18.0
 50
97.51
 51
103.2
  0
LINE
  8
3
  6
CONTINUOUS
 62
     2
  5
28C
 10
30543.569909
 20
27315.191505
 30
0.0
 11
30555.319909
 21
27315.441505
 31
0.0
  0
LINE
  8
3
  6
CONTINUOUS
 62
     2
  5
28D
 10
30567.319909
 20
27315.191505
 30
0.0
 11
30555.569909
 21
27315.191505
 31
0.0
  0
LINE
  8
3
  6
CONTINUOUS
 62
     2
  5
28E
 10
30569.069909
 20
27315.191505
 30
0.0
 11
30568.319909
 21
27315.191505
 31
0.0
  0
LINE
  8
3
  6
CONTINUOUS
 62
     2
  5
28F
 10
30568.319909
 20
27315.191505
 30
0.0
 11
30568.069909
 21
27315.191505
 31
0.0
  0
LINE
  8
3
  6
CONTINUOUS
 62
     2
  5
290
 10
30568.069909
 20
27315.191505
 30
0.0
 11
30567.819909
 21
27315.191505
 31
0.0
  0
LINE
  8
3
  6
CONTINUOUS
 62
     2
  5
291
 10
30567.819909
 20
27315.191505
 30
0.0
 11
30567.569909
 21
27315.191505
 31
0.0
  0
LINE
  8
3
  6
CONTINUOUS
 62
     2
  5
292
 10
30567.569909
 20
27315.191505
 30
0.0
 11
30567.319909
 21
27315.191505
 31
0.0
  0
ARC
  8
3
  6
CONTINUOUS
 62
     2
  5
293
 10
30584.819909
 20
27299.691505
 30
0.0
 40
17.75
 50
103.19
 51
108.89
  0
ARC
  8
3
  6
CONTINUOUS
 62
     2
  5
294
 10
30571.069909
 20
27339.691505
 30
0.0
 40
24.5
 50
282.6
 51
288.88
  0
ARC
  8
3
  6
CONTINUOUS
 62
     2
  5
295
 10
30571.069909
 20
27340.191505
 30
0.0
 40
24.75
 50
276.39
 51
282.62
  0
ARC
  8
3
  6
CONTINUOUS
 62
     2
  5
296
 10
30571.069909
 20
27339.691505
 30
0.0
 40
24.5
 50
270.04
 51
276.4
  0
LINE
  8
3
  6
CONTINUOUS
 62
     2
  5
297
 10
30570.069909
 20
27315.191505
 30
0.0
 11
30571.069909
 21
27315.191505
 31
0.0
  0
LINE
  8
3
  6
CONTINUOUS
 62
     2
  5
298
 10
30569.069909
 20
27315.191505
 30
0.0
 11
30570.069909
 21
27315.191505
 31
0.0
  0
ARC
  8
3
  6
CONTINUOUS
 62
     2
  5
299
 10
30600.819909
 20
27327.941505
 30
0.0
 40
14.5
 50
240.58
 51
243.96
  0
ARC
  8
3
  6
CONTINUOUS
 62
     2
  5
29A
 10
30584.569909
 20
27299.191505
 30
0.0
 40
18.0
 50
61.27
 51
65.43
  0
ARC
  8
3
  6
CONTINUOUS
 62
     2
  5
29B
 10
30584.819909
 20
27299.441505
 30
0.0
 40
18.0
 50
65.43
 51
69.63
  0
ARC
  8
3
  6
CONTINUOUS
 62
     2
  5
29C
 10
30584.819909
 20
27299.941505
 30
0.0
 40
17.5
 50
69.62
 51
73.92
  0
LINE
  8
3
  6
CONTINUOUS
 62
     2
  5
29D
 10
30589.819909
 20
27316.691505
 30
0.0
 11
30589.819909
 21
27316.941505
 31
0.0
  0
LINE
  8
3
  6
CONTINUOUS
 62
     2
  5
29E
 10
30589.819909
 20
27316.941505
 30
0.0
 11
30589.569909
 21
27316.941505
 31
0.0
  0
ARC
  8
3
  6
CONTINUOUS
 62
     2
  5
29F
 10
30584.819909
 20
27299.941505
 30
0.0
 40
17.25
 50
74.11
 51
80.12
  0
ARC
  8
3
  6
CONTINUOUS
 62
     2
  5
2A0
 10
30584.819909
 20
27299.441505
 30
0.0
 40
17.75
 50
80.11
 51
85.93
  0
ARC
  8
3
  6
CONTINUOUS
 62
     2
  5
2A1
 10
30584.819909
 20
27299.691505
 30
0.0
 40
17.75
 50
85.92
 51
91.7
  0
ARC
  8
3
  6
CONTINUOUS
 62
     2
  5
2A2
 10
30584.819909
 20
27299.691505
 30
0.0
 40
17.75
 50
91.73
 51
97.52
  0
ARC
  8
3
  6
CONTINUOUS
 62
     2
  5
2A3
 10
30600.819909
 20
27327.941505
 30
0.0
 40
14.75
 50
257.28
 51
263.21
  0
ARC
  8
3
  6
CONTINUOUS
 62
     2
  5
2A4
 10
30600.819909
 20
27327.691505
 30
0.0
 40
14.25
 50
251.22
 51
257.29
  0
ARC
  8
3
  6
CONTINUOUS
 62
     2
  5
2A5
 10
30600.819909
 20
27327.941505
 30
0.0
 40
14.5
 50
247.31
 51
250.67
  0
ARC
  8
3
  6
CONTINUOUS
 62
     2
  5
2A6
 10
30600.819909
 20
27327.941505
 30
0.0
 40
14.5
 50
243.95
 51
247.31
  0
ARC
  8
3
  6
CONTINUOUS
 62
     2
  5
2A7
 10
30600.819909
 20
27327.941505
 30
0.0
 40
14.5
 50
281.2
 51
287.21
  0
ARC
  8
3
  6
CONTINUOUS
 62
     2
  5
2A8
 10
30600.819909
 20
27327.941505
 30
0.0
 40
14.75
 50
275.25
 51
281.22
  0
ARC
  8
3
  6
CONTINUOUS
 62
     2
  5
2A9
 10
30600.819909
 20
27327.941505
 30
0.0
 40
14.5
 50
269.19
 51
275.26
  0
ARC
  8
3
  6
CONTINUOUS
 62
     2
  5
2AA
 10
30600.819909
 20
27327.941505
 30
0.0
 40
14.5
 50
263.2
 51
269.16
  0
ARC
  8
3
  6
CONTINUOUS
 62
     2
  5
2AB
 10
30616.819909
 20
27299.691505
 30
0.0
 40
17.5
 50
86.72
 51
94.57
  0
ARC
  8
3
  6
CONTINUOUS
 62
     2
  5
2AC
 10
30616.819909
 20
27299.441505
 30
0.0
 40
18.0
 50
94.61
 51
98.31
  0
ARC
  8
3
  6
CONTINUOUS
 62
     2
  5
2AD
 10
30616.819909
 20
27299.691505
 30
0.0
 40
17.75
 50
98.31
 51
102.06
  0
ARC
  8
3
  6
CONTINUOUS
 62
     2
  5
2AE
 10
30616.569909
 20
27300.191505
 30
0.0
 40
17.25
 50
102.06
 51
105.89
  0
LINE
  8
3
  6
CONTINUOUS
 62
     2
  5
2AF
 10
30612.069909
 20
27316.941505
 30
0.0
 11
30611.819909
 21
27316.941505
 31
0.0
  0
LINE
  8
3
  6
CONTINUOUS
 62
     2
  5
2B0
 10
30611.819909
 20
27316.941505
 30
0.0
 11
30611.819909
 21
27316.691505
 31
0.0
  0
ARC
  8
3
  6
CONTINUOUS
 62
     2
  5
2B1
 10
30616.569909
 20
27300.191505
 30
0.0
 40
17.25
 50
106.06
 51
110.39
  0
ARC
  8
3
  6
CONTINUOUS
 62
     2
  5
2B2
 10
30616.819909
 20
27299.691505
 30
0.0
 40
17.75
 50
110.38
 51
114.61
  0
ARC
  8
3
  6
CONTINUOUS
 62
     2
  5
2B3
 10
30616.819909
 20
27299.441505
 30
0.0
 40
18.0
 50
114.6
 51
118.76
  0
LINE
  8
3
  6
CONTINUOUS
 62
     2
  5
2B4
 10
30608.319909
 20
27315.191505
 30
0.0
 11
30608.069909
 21
27315.191505
 31
0.0
  0
ARC
  8
3
  6
CONTINUOUS
 62
     2
  5
2B5
 10
30600.819909
 20
27327.941505
 30
0.0
 40
14.5
 50
295.55
 51
299.46
  0
ARC
  8
3
  6
CONTINUOUS
 62
     2
  5
2B6
 10
30600.819909
 20
27327.941505
 30
0.0
 40
14.5
 50
291.66
 51
295.56
  0
ARC
  8
3
  6
CONTINUOUS
 62
     2
  5
2B7
 10
30600.819909
 20
27327.941505
 30
0.0
 40
14.5
 50
287.72
 51
291.66
  0
LINE
  8
3
  6
CONTINUOUS
 62
     2
  5
2B8
 10
30605.319909
 20
27313.941505
 30
0.0
 11
30605.069909
 21
27313.941505
 31
0.0
  0
ARC
  8
3
  6
CONTINUOUS
 62
     2
  5
2B9
 10
30729.069909
 20
27298.191505
 30
0.0
 40
40.25
 50
156.86
 51
204.62
  0
ARC
  8
3
  6
CONTINUOUS
 62
     2
  5
2BA
 10
30311.069909
 20
27347.941505
 30
0.0
 40
358.25
 50
350.54
 51
350.99
  0
ARC
  8
3
  6
CONTINUOUS
 62
     2
  5
2BB
 10
30646.069909
 20
27298.441505
 30
0.0
 40
32.5
 50
346.36
 51
348.05
  0
ARC
  8
3
  6
CONTINUOUS
 62
     2
  5
2BC
 10
30742.319909
 20
27297.441505
 30
0.0
 40
41.75
 50
184.06
 51
188.47
  0
ARC
  8
3
  6
CONTINUOUS
 62
     2
  5
2BD
 10
30684.819909
 20
27300.191505
 30
0.0
 40
30.0
 50
341.31
 51
343.49
  0
ARC
  8
3
  6
CONTINUOUS
 62
     2
  5
2BE
 10
30672.069909
 20
27297.441505
 30
0.0
 40
40.75
 50
350.8
 51
355.28
  0
LINE
  8
3
  6
CONTINUOUS
 62
     2
  5
2BF
 10
30695.069909
 20
27274.441505
 30
0.0
 11
30681.819909
 21
27278.691505
 31
0.0
  0
ARC
  8
3
  6
CONTINUOUS
 62
     2
  5
2C0
 10
30684.819909
 20
27300.191505
 30
0.0
 40
29.75
 50
283.75
 51
286.11
  0
ARC
  8
3
  6
CONTINUOUS
 62
     2
  5
2C1
 10
30697.069909
 20
27283.441505
 30
0.0
 40
5.0
 50
204.62
 51
282.76
  0
ARC
  8
3
  6
CONTINUOUS
 62
     2
  5
2C2
 10
30605.819909
 20
27468.691505
 30
0.0
 40
200.5
 50
275.93
 51
277.84
  0
ARC
  8
3
  6
CONTINUOUS
 62
     2
  5
2C3
 10
30612.069909
 20
27597.441505
 30
0.0
 40
336.25
 50
282.29
 51
283.02
  0
ARC
  8
3
  6
CONTINUOUS
 62
     2
  5
2C4
 10
30612.069909
 20
27597.191505
 30
0.0
 40
336.0
 50
275.98
 51
277.87
  0
ARC
  8
3
  6
CONTINUOUS
 62
     2
  5
2C5
 10
30612.069909
 20
27598.191505
 30
0.0
 40
337.0
 50
272.16
 51
274.08
  0
ARC
  8
3
  6
CONTINUOUS
 62
     2
  5
2C6
 10
30606.319909
 20
27464.691505
 30
0.0
 40
196.5
 50
273.98
 51
275.93
  0
ARC
  8
3
  6
CONTINUOUS
 62
     2
  5
2C7
 10
30612.069909
 20
27597.191505
 30
0.0
 40
335.75
 50
274.08
 51
275.98
  0
ARC
  8
3
  6
CONTINUOUS
 62
     2
  5
2C8
 10
30612.069909
 20
27597.191505
 30
0.0
 40
335.75
 50
279.72
 51
281.55
  0
ARC
  8
3
  6
CONTINUOUS
 62
     2
  5
2C9
 10
30611.819909
 20
27597.941505
 30
0.0
 40
336.75
 50
277.87
 51
279.72
  0
ARC
  8
3
  6
CONTINUOUS
 62
     2
  5
2CA
 10
30612.069909
 20
27597.441505
 30
0.0
 40
336.0
 50
281.55
 51
282.29
  0
ARC
  8
3
  6
CONTINUOUS
 62
     2
  5
2CB
 10
30643.819909
 20
27294.441505
 30
0.0
 40
21.75
 50
298.68
 51
303.53
  0
ARC
  8
3
  6
CONTINUOUS
 62
     2
  5
2CC
 10
30717.569909
 20
27028.441505
 30
0.0
 40
253.5
 50
103.96
 51
104.13
  0
ARC
  8
3
  6
CONTINUOUS
 62
     2
  5
2CD
 10
30605.569909
 20
27471.691505
 30
0.0
 40
203.5
 50
278.45
 51
279.06
  0
ARC
  8
3
  6
CONTINUOUS
 62
     2
  5
2CE
 10
30605.569909
 20
27470.691505
 30
0.0
 40
202.5
 50
277.83
 51
278.45
  0
ARC
  8
3
  6
CONTINUOUS
 62
     2
  5
2CF
 10
30603.319909
 20
27481.691505
 30
0.0
 40
213.75
 50
283.28
 51
284.13
  0
ARC
  8
3
  6
CONTINUOUS
 62
     2
  5
2D0
 10
30605.319909
 20
27472.691505
 30
0.0
 40
204.5
 50
279.06
 51
279.67
  0
ARC
  8
3
  6
CONTINUOUS
 62
     2
  5
2D1
 10
30605.319909
 20
27473.191505
 30
0.0
 40
205.0
 50
279.66
 51
279.82
  0
ARC
  8
3
  6
CONTINUOUS
 62
     2
  5
2D2
 10
30605.319909
 20
27473.441505
 30
0.0
 40
205.25
 50
279.82
 51
279.97
  0
ARC
  8
3
  6
CONTINUOUS
 62
     2
  5
2D3
 10
30605.069909
 20
27473.691505
 30
0.0
 40
205.5
 50
279.97
 51
280.12
  0
ARC
  8
3
  6
CONTINUOUS
 62
     2
  5
2D4
 10
30591.819909
 20
27547.691505
 30
0.0
 40
281.0
 50
280.11
 51
280.2
  0
ARC
  8
3
  6
CONTINUOUS
 62
     2
  5
2D5
 10
30610.819909
 20
27443.191505
 30
0.0
 40
174.5
 50
280.2
 51
280.34
  0
ARC
  8
3
  6
CONTINUOUS
 62
     2
  5
2D6
 10
30619.319909
 20
27396.691505
 30
0.0
 40
127.25
 50
280.34
 51
280.53
  0
LINE
  8
3
  6
CONTINUOUS
 62
     2
  5
2D7
 10
30642.569909
 20
27271.441505
 30
0.0
 11
30642.819909
 21
27271.441505
 31
0.0
  0
ARC
  8
3
  6
CONTINUOUS
 62
     2
  5
2D8
 10
30628.069909
 20
27349.191505
 30
0.0
 40
79.0
 50
280.74
 51
281.53
  0
ARC
  8
3
  6
CONTINUOUS
 62
     2
  5
2D9
 10
30628.319909
 20
27348.191505
 30
0.0
 40
77.75
 50
281.53
 51
282.35
  0
ARC
  8
3
  6
CONTINUOUS
 62
     2
  5
2DA
 10
30628.819909
 20
27345.941505
 30
0.0
 40
75.5
 50
282.35
 51
283.2
  0
ARC
  8
3
  6
CONTINUOUS
 62
     2
  5
2DB
 10
30635.569909
 20
27317.941505
 30
0.0
 40
46.75
 50
283.12
 51
286.17
  0
ARC
  8
3
  6
CONTINUOUS
 62
     2
  5
2DC
 10
30639.069909
 20
27306.191505
 30
0.0
 40
34.5
 50
286.16
 51
290.27
  0
ARC
  8
3
  6
CONTINUOUS
 62
     2
  5
2DD
 10
30641.569909
 20
27298.691505
 30
0.0
 40
26.5
 50
290.26
 51
295.52
  0
ARC
  8
3
  6
CONTINUOUS
 62
     2
  5
2DE
 10
30642.569909
 20
27296.691505
 30
0.0
 40
24.25
 50
295.63
 51
296.61
  0
ARC
  8
3
  6
CONTINUOUS
 62
     2
  5
2DF
 10
30643.069909
 20
27295.691505
 30
0.0
 40
23.5
 50
296.61
 51
297.64
  0
ARC
  8
3
  6
CONTINUOUS
 62
     2
  5
2E0
 10
30643.319909
 20
27295.191505
 30
0.0
 40
22.5
 50
297.64
 51
298.69
  0
ARC
  8
3
  6
CONTINUOUS
 62
     2
  5
2E1
 10
30604.069909
 20
27477.691505
 30
0.0
 40
209.75
 50
281.54
 51
282.41
  0
ARC
  8
3
  6
CONTINUOUS
 62
     2
  5
2E2
 10
30603.819909
 20
27479.691505
 30
0.0
 40
211.75
 50
282.41
 51
283.28
  0
ARC
  8
3
  6
CONTINUOUS
 62
     2
  5
2E3
 10
30659.569909
 20
27290.941505
 30
0.0
 40
17.0
 50
311.24
 51
315.62
  0
ARC
  8
3
  6
CONTINUOUS
 62
     2
  5
2E4
 10
30645.319909
 20
27292.441505
 30
0.0
 40
19.25
 50
323.0
 51
332.06
  0
ARC
  8
3
  6
CONTINUOUS
 62
     2
  5
2E5
 10
30665.569909
 20
27284.191505
 30
0.0
 40
8.0
 50
271.45
 51
311.11
  0
ARC
  8
3
  6
CONTINUOUS
 62
     2
  5
2E6
 10
30644.319909
 20
27293.441505
 30
0.0
 40
20.75
 50
303.53
 51
308.65
  0
ARC
  8
3
  6
CONTINUOUS
 62
     2
  5
2E7
 10
30645.069909
 20
27292.691505
 30
0.0
 40
19.75
 50
308.65
 51
314.02
  0
ARC
  8
3
  6
CONTINUOUS
 62
     2
  5
2E8
 10
30645.319909
 20
27292.441505
 30
0.0
 40
19.25
 50
314.07
 51
323.04
  0
ARC
  8
3
  6
CONTINUOUS
 62
     2
  5
2E9
 10
30703.569909
 20
27083.941505
 30
0.0
 40
196.25
 50
103.75
 51
103.96
  0
ARC
  8
3
  6
CONTINUOUS
 62
     2
  5
2EA
 10
30694.069909
 20
27123.191505
 30
0.0
 40
156.0
 50
103.49
 51
103.75
  0
ARC
  8
3
  6
CONTINUOUS
 62
     2
  5
2EB
 10
30687.069909
 20
27152.191505
 30
0.0
 40
126.0
 50
103.18
 51
103.49
  0
ARC
  8
3
  6
CONTINUOUS
 62
     2
  5
2EC
 10
30681.819909
 20
27174.441505
 30
0.0
 40
103.25
 50
102.81
 51
103.18
  0
ARC
  8
3
  6
CONTINUOUS
 62
     2
  5
2ED
 10
30677.819909
 20
27191.941505
 30
0.0
 40
85.25
 50
102.37
 51
102.81
  0
ARC
  8
3
  6
CONTINUOUS
 62
     2
  5
2EE
 10
30675.319909
 20
27204.191505
 30
0.0
 40
72.75
 50
101.88
 51
102.37
  0
ARC
  8
3
  6
CONTINUOUS
 62
     2
  5
2EF
 10
30673.319909
 20
27213.441505
 30
0.0
 40
63.25
 50
101.33
 51
101.88
  0
ARC
  8
3
  6
CONTINUOUS
 62
     2
  5
2F0
 10
30671.569909
 20
27221.441505
 30
0.0
 40
55.0
 50
100.73
 51
101.33
  0
ARC
  8
3
  6
CONTINUOUS
 62
     2
  5
2F1
 10
30670.319909
 20
27228.691505
 30
0.0
 40
47.75
 50
100.06
 51
100.73
  0
ARC
  8
3
  6
CONTINUOUS
 62
     2
  5
2F2
 10
30669.319909
 20
27234.691505
 30
0.0
 40
41.5
 50
99.31
 51
100.06
  0
ARC
  8
3
  6
CONTINUOUS
 62
     2
  5
2F3
 10
30668.319909
 20
27240.191505
 30
0.0
 40
36.0
 50
98.49
 51
99.31
  0
ARC
  8
3
  6
CONTINUOUS
 62
     2
  5
2F4
 10
30667.819909
 20
27244.441505
 30
0.0
 40
31.75
 50
97.58
 51
98.49
  0
ARC
  8
3
  6
CONTINUOUS
 62
     2
  5
2F5
 10
30667.319909
 20
27247.941505
 30
0.0
 40
28.25
 50
96.61
 51
97.58
  0
ARC
  8
3
  6
CONTINUOUS
 62
     2
  5
2F6
 10
30666.819909
 20
27251.191505
 30
0.0
 40
25.0
 50
95.56
 51
96.61
  0
ARC
  8
3
  6
CONTINUOUS
 62
     2
  5
2F7
 10
30666.569909
 20
27254.191505
 30
0.0
 40
22.0
 50
94.41
 51
95.56
  0
ARC
  8
3
  6
CONTINUOUS
 62
     2
  5
2F8
 10
30666.319909
 20
27256.691505
 30
0.0
 40
19.5
 50
93.17
 51
94.41
  0
ARC
  8
3
  6
CONTINUOUS
 62
     2
  5
2F9
 10
30666.319909
 20
27258.941505
 30
0.0
 40
17.0
 50
91.82
 51
93.17
  0
ARC
  8
3
  6
CONTINUOUS
 62
     2
  5
2FA
 10
30644.319909
 20
27292.441505
 30
0.0
 40
20.25
 50
344.67
 51
347.6
  0
ARC
  8
3
  6
CONTINUOUS
 62
     2
  5
2FB
 10
30646.319909
 20
27291.941505
 30
0.0
 40
18.0
 50
332.02
 51
341.67
  0
ARC
  8
3
  6
CONTINUOUS
 62
     2
  5
2FC
 10
30644.319909
 20
27292.441505
 30
0.0
 40
20.25
 50
341.75
 51
344.67
  0
ARC
  8
3
  6
CONTINUOUS
 62
     2
  5
2FD
 10
30644.319909
 20
27292.441505
 30
0.0
 40
20.25
 50
347.6
 51
350.53
  0
ARC
  8
3
  6
CONTINUOUS
 62
     2
  5
2FE
 10
30653.319909
 20
27295.691505
 30
0.0
 40
25.0
 50
330.62
 51
333.87
  0
ARC
  8
3
  6
CONTINUOUS
 62
     2
  5
2FF
 10
30654.569909
 20
27294.941505
 30
0.0
 40
23.25
 50
327.2
 51
330.63
  0
ARC
  8
3
  6
CONTINUOUS
 62
     2
  5
300
 10
30658.569909
 20
27292.191505
 30
0.0
 40
18.5
 50
315.61
 51
319.71
  0
ARC
  8
3
  6
CONTINUOUS
 62
     2
  5
301
 10
30657.319909
 20
27293.191505
 30
0.0
 40
20.0
 50
319.71
 51
323.57
  0
ARC
  8
3
  6
CONTINUOUS
 62
     2
  5
302
 10
30656.069909
 20
27293.941505
 30
0.0
 40
21.5
 50
323.57
 51
327.2
  0
ARC
  8
3
  6
CONTINUOUS
 62
     2
  5
303
 10
30682.569909
 20
27280.691505
 30
0.0
 40
2.0
 50
167.54
 51
251.99
  0
ARC
  8
3
  6
CONTINUOUS
 62
     2
  5
304
 10
30612.069909
 20
27597.441505
 30
0.0
 40
336.0
 50
283.02
 51
283.75
  0
ARC
  8
3
  6
CONTINUOUS
 62
     2
  5
305
 10
30648.569909
 20
27297.691505
 30
0.0
 40
30.0
 50
339.89
 51
342.72
  0
ARC
  8
3
  6
CONTINUOUS
 62
     2
  5
306
 10
30651.569909
 20
27296.441505
 30
0.0
 40
26.75
 50
333.87
 51
336.95
  0
ARC
  8
3
  6
CONTINUOUS
 62
     2
  5
307
 10
30650.069909
 20
27297.191505
 30
0.0
 40
28.25
 50
336.95
 51
339.9
  0
ARC
  8
3
  6
CONTINUOUS
 62
     2
  5
308
 10
30647.569909
 20
27297.941505
 30
0.0
 40
31.0
 50
342.71
 51
343.94
  0
ARC
  8
3
  6
CONTINUOUS
 62
     2
  5
309
 10
30647.069909
 20
27298.191505
 30
0.0
 40
31.5
 50
343.94
 51
345.15
  0
ARC
  8
3
  6
CONTINUOUS
 62
     2
  5
30A
 10
30646.569909
 20
27298.191505
 30
0.0
 40
32.0
 50
345.15
 51
346.35
  0
ARC
  8
3
  6
CONTINUOUS
 62
     2
  5
30B
 10
30702.819909
 20
27287.441505
 30
0.0
 40
8.0
 50
317.73
 51
330.82
  0
ARC
  8
3
  6
CONTINUOUS
 62
     2
  5
30C
 10
30711.069909
 20
27287.691505
 30
0.0
 40
9.0
 50
207.64
 51
219.9
  0
LINE
  8
3
  6
CONTINUOUS
 62
     2
  5
30D
 10
30698.069909
 20
27278.691505
 30
0.0
 11
30707.069909
 21
27280.691505
 31
0.0
  0
ARC
  8
3
  6
CONTINUOUS
 62
     2
  5
30E
 10
30684.819909
 20
27300.191505
 30
0.0
 40
29.75
 50
319.63
 51
320.2
  0
ARC
  8
3
  6
CONTINUOUS
 62
     2
  5
30F
 10
30684.819909
 20
27300.191505
 30
0.0
 40
29.75
 50
319.06
 51
319.63
  0
ARC
  8
3
  6
CONTINUOUS
 62
     2
  5
310
 10
30684.819909
 20
27300.191505
 30
0.0
 40
29.75
 50
318.49
 51
319.06
  0
ARC
  8
3
  6
CONTINUOUS
 62
     2
  5
311
 10
30684.819909
 20
27300.191505
 30
0.0
 40
29.75
 50
311.6
 51
318.49
  0
ARC
  8
3
  6
CONTINUOUS
 62
     2
  5
312
 10
30684.819909
 20
27300.191505
 30
0.0
 40
30.0
 50
304.74
 51
311.6
  0
ARC
  8
3
  6
CONTINUOUS
 62
     2
  5
313
 10
30684.819909
 20
27300.191505
 30
0.0
 40
29.75
 50
297.84
 51
304.75
  0
ARC
  8
3
  6
CONTINUOUS
 62
     2
  5
314
 10
30684.819909
 20
27300.191505
 30
0.0
 40
29.75
 50
295.49
 51
297.83
  0
ARC
  8
3
  6
CONTINUOUS
 62
     2
  5
315
 10
30684.819909
 20
27300.191505
 30
0.0
 40
30.0
 50
293.15
 51
295.49
  0
ARC
  8
3
  6
CONTINUOUS
 62
     2
  5
316
 10
30684.819909
 20
27300.191505
 30
0.0
 40
30.0
 50
290.81
 51
293.15
  0
ARC
  8
3
  6
CONTINUOUS
 62
     2
  5
317
 10
30684.819909
 20
27300.191505
 30
0.0
 40
30.0
 50
288.46
 51
290.81
  0
ARC
  8
3
  6
CONTINUOUS
 62
     2
  5
318
 10
30684.819909
 20
27300.191505
 30
0.0
 40
30.0
 50
286.11
 51
288.46
  0
ARC
  8
3
  6
CONTINUOUS
 62
     2
  5
319
 10
30707.819909
 20
27284.941505
 30
0.0
 40
4.5
 50
219.56
 51
238.75
  0
ARC
  8
3
  6
CONTINUOUS
 62
     2
  5
31A
 10
30706.569909
 20
27283.191505
 30
0.0
 40
2.5
 50
238.88
 51
266.92
  0
ARC
  8
3
  6
CONTINUOUS
 62
     2
  5
31B
 10
30706.569909
 20
27283.191505
 30
0.0
 40
2.25
 50
268.17
 51
297.19
  0
ARC
  8
3
  6
CONTINUOUS
 62
     2
  5
31C
 10
30705.819909
 20
27284.691505
 30
0.0
 40
4.0
 50
297.5
 51
318.06
  0
ARC
  8
3
  6
CONTINUOUS
 62
     2
  5
31D
 10
30725.569909
 20
27294.191505
 30
0.0
 40
24.75
 50
193.4
 51
199.63
  0
ARC
  8
3
  6
CONTINUOUS
 62
     2
  5
31E
 10
30717.319909
 20
27291.191505
 30
0.0
 40
16.0
 50
199.51
 51
207.86
  0
ARC
  8
3
  6
CONTINUOUS
 62
     2
  5
31F
 10
30734.569909
 20
27296.441505
 30
0.0
 40
34.0
 50
188.43
 51
193.47
  0
ARC
  8
3
  6
CONTINUOUS
 62
     2
  5
320
 10
30684.819909
 20
27300.191505
 30
0.0
 40
30.0
 50
333.81
 51
336.47
  0
ARC
  8
3
  6
CONTINUOUS
 62
     2
  5
321
 10
30689.069909
 20
27293.691505
 30
0.0
 40
23.5
 50
339.26
 51
345.74
  0
ARC
  8
3
  6
CONTINUOUS
 62
     2
  5
322
 10
30697.069909
 20
27290.691505
 30
0.0
 40
14.75
 50
330.58
 51
339.39
  0
ARC
  8
3
  6
CONTINUOUS
 62
     2
  5
323
 10
30684.819909
 20
27300.191505
 30
0.0
 40
30.0
 50
331.16
 51
333.81
  0
ARC
  8
3
  6
CONTINUOUS
 62
     2
  5
324
 10
30684.819909
 20
27300.191505
 30
0.0
 40
29.75
 50
339.14
 51
341.31
  0
ARC
  8
3
  6
CONTINUOUS
 62
     2
  5
325
 10
30684.819909
 20
27300.191505
 30
0.0
 40
29.75
 50
336.47
 51
339.14
  0
ARC
  8
3
  6
CONTINUOUS
 62
     2
  5
326
 10
30680.069909
 20
27295.941505
 30
0.0
 40
32.75
 50
345.67
 51
350.85
  0
ARC
  8
3
  6
CONTINUOUS
 62
     2
  5
327
 10
30696.569909
 20
27312.191505
 30
0.0
 40
5.0
 50
59.43
 51
156.86
  0
ARC
  8
3
  6
CONTINUOUS
 62
     2
  5
328
 10
30694.319909
 20
27314.441505
 30
0.0
 40
6.5
 50
101.98
 51
103.66
  0
ARC
  8
3
  6
CONTINUOUS
 62
     2
  5
329
 10
30649.569909
 20
27298.441505
 30
0.0
 40
17.0
 50
56.78
 51
59.91
  0
ARC
  8
3
  6
CONTINUOUS
 62
     2
  5
32A
 10
30373.319909
 20
27339.691505
 30
0.0
 40
308.5
 50
354.53
 51
355.27
  0
ARC
  8
3
  6
CONTINUOUS
 62
     2
  5
32B
 10
30709.819909
 20
27302.691505
 30
0.0
 40
26.5
 50
157.34
 51
158.26
  0
ARC
  8
3
  6
CONTINUOUS
 62
     2
  5
32C
 10
30650.319909
 20
27299.691505
 30
0.0
 40
15.5
 50
358.49
 51
5.03
  0
ARC
  8
3
  6
CONTINUOUS
 62
     2
  5
32D
 10
30375.069909
 20
27339.691505
 30
0.0
 40
306.75
 50
352.32
 51
352.81
  0
ARC
  8
3
  6
CONTINUOUS
 62
     2
  5
32E
 10
30309.319909
 20
27348.191505
 30
0.0
 40
359.75
 50
350.99
 51
351.45
  0
ARC
  8
3
  6
CONTINUOUS
 62
     2
  5
32F
 10
30308.069909
 20
27348.441505
 30
0.0
 40
361.0
 50
351.45
 51
351.9
  0
ARC
  8
3
  6
CONTINUOUS
 62
     2
  5
330
 10
30650.569909
 20
27299.691505
 30
0.0
 40
15.25
 50
351.91
 51
358.5
  0
ARC
  8
3
  6
CONTINUOUS
 62
     2
  5
331
 10
30645.569909
 20
27298.441505
 30
0.0
 40
33.0
 50
348.05
 51
349.72
  0
ARC
  8
3
  6
CONTINUOUS
 62
     2
  5
332
 10
30645.319909
 20
27298.691505
 30
0.0
 40
33.5
 50
349.72
 51
351.38
  0
ARC
  8
3
  6
CONTINUOUS
 62
     2
  5
333
 10
30375.319909
 20
27339.441505
 30
0.0
 40
306.25
 50
351.37
 51
351.56
  0
ARC
  8
3
  6
CONTINUOUS
 62
     2
  5
334
 10
30375.319909
 20
27339.441505
 30
0.0
 40
306.5
 50
351.56
 51
351.75
  0
ARC
  8
3
  6
CONTINUOUS
 62
     2
  5
335
 10
30375.319909
 20
27339.441505
 30
0.0
 40
306.5
 50
351.75
 51
351.94
  0
ARC
  8
3
  6
CONTINUOUS
 62
     2
  5
336
 10
30375.319909
 20
27339.441505
 30
0.0
 40
306.5
 50
351.94
 51
352.07
  0
ARC
  8
3
  6
CONTINUOUS
 62
     2
  5
337
 10
30375.319909
 20
27339.441505
 30
0.0
 40
306.5
 50
352.07
 51
352.2
  0
ARC
  8
3
  6
CONTINUOUS
 62
     2
  5
338
 10
30375.069909
 20
27339.691505
 30
0.0
 40
306.5
 50
352.2
 51
352.32
  0
ARC
  8
3
  6
CONTINUOUS
 62
     2
  5
339
 10
30650.569909
 20
27299.941505
 30
0.0
 40
15.25
 50
33.69
 51
41.45
  0
ARC
  8
3
  6
CONTINUOUS
 62
     2
  5
33A
 10
30650.569909
 20
27299.941505
 30
0.0
 40
15.25
 50
5.02
 51
11.61
  0
ARC
  8
3
  6
CONTINUOUS
 62
     2
  5
33B
 10
30650.569909
 20
27299.941505
 30
0.0
 40
15.25
 50
11.63
 51
19.01
  0
ARC
  8
3
  6
CONTINUOUS
 62
     2
  5
33C
 10
30650.319909
 20
27299.691505
 30
0.0
 40
15.5
 50
19.0
 51
26.3
  0
ARC
  8
3
  6
CONTINUOUS
 62
     2
  5
33D
 10
30650.569909
 20
27299.941505
 30
0.0
 40
15.25
 50
26.29
 51
33.66
  0
ARC
  8
3
  6
CONTINUOUS
 62
     2
  5
33E
 10
30650.319909
 20
27299.691505
 30
0.0
 40
15.5
 50
41.44
 51
49.09
  0
ARC
  8
3
  6
CONTINUOUS
 62
     2
  5
33F
 10
30650.569909
 20
27299.941505
 30
0.0
 40
15.25
 50
49.07
 51
56.79
  0
ARC
  8
3
  6
CONTINUOUS
 62
     2
  5
340
 10
30374.069909
 20
27339.691505
 30
0.0
 40
307.75
 50
353.8
 51
354.53
  0
ARC
  8
3
  6
CONTINUOUS
 62
     2
  5
341
 10
30374.819909
 20
27339.691505
 30
0.0
 40
307.0
 50
352.81
 51
353.3
  0
ARC
  8
3
  6
CONTINUOUS
 62
     2
  5
342
 10
30374.569909
 20
27339.691505
 30
0.0
 40
307.25
 50
353.3
 51
353.78
  0
ARC
  8
3
  6
CONTINUOUS
 62
     2
  5
343
 10
30710.819909
 20
27302.441505
 30
0.0
 40
27.5
 50
158.26
 51
159.15
  0
ARC
  8
3
  6
CONTINUOUS
 62
     2
  5
344
 10
30651.319909
 20
27301.441505
 30
0.0
 40
13.5
 50
71.32
 51
75.09
  0
LINE
  8
3
  6
CONTINUOUS
 62
     2
  5
345
 10
30632.819909
 20
27315.191505
 30
0.0
 11
30632.569909
 21
27315.191505
 31
0.0
  0
LINE
  8
3
  6
CONTINUOUS
 62
     2
  5
346
 10
30632.569909
 20
27315.191505
 30
0.0
 11
30631.819909
 21
27315.191505
 31
0.0
  0
LINE
  8
3
  6
CONTINUOUS
 62
     2
  5
347
 10
30631.819909
 20
27315.191505
 30
0.0
 11
30631.319909
 21
27315.191505
 31
0.0
  0
LINE
  8
3
  6
CONTINUOUS
 62
     2
  5
348
 10
30630.569909
 20
27315.191505
 30
0.0
 11
30631.319909
 21
27315.191505
 31
0.0
  0
ARC
  8
3
  6
CONTINUOUS
 62
     2
  5
349
 10
30630.569909
 20
27339.691505
 30
0.0
 40
24.5
 50
263.67
 51
269.95
  0
ARC
  8
3
  6
CONTINUOUS
 62
     2
  5
34A
 10
30630.569909
 20
27340.191505
 30
0.0
 40
24.75
 50
257.46
 51
263.68
  0
ARC
  8
3
  6
CONTINUOUS
 62
     2
  5
34B
 10
30630.569909
 20
27339.691505
 30
0.0
 40
24.5
 50
251.11
 51
257.47
  0
ARC
  8
3
  6
CONTINUOUS
 62
     2
  5
34C
 10
30616.819909
 20
27299.691505
 30
0.0
 40
17.75
 50
71.13
 51
79.07
  0
LINE
  8
3
  6
CONTINUOUS
 62
     2
  5
34D
 10
30639.069909
 20
27315.191505
 30
0.0
 11
30634.319909
 21
27315.191505
 31
0.0
  0
LINE
  8
3
  6
CONTINUOUS
 62
     2
  5
34E
 10
30634.319909
 20
27315.191505
 30
0.0
 11
30634.069909
 21
27315.191505
 31
0.0
  0
LINE
  8
3
  6
CONTINUOUS
 62
     2
  5
34F
 10
30634.069909
 20
27315.191505
 30
0.0
 11
30633.819909
 21
27315.191505
 31
0.0
  0
LINE
  8
3
  6
CONTINUOUS
 62
     2
  5
350
 10
30633.819909
 20
27315.191505
 30
0.0
 11
30633.569909
 21
27315.191505
 31
0.0
  0
LINE
  8
3
  6
CONTINUOUS
 62
     2
  5
351
 10
30633.569909
 20
27315.191505
 30
0.0
 11
30633.319909
 21
27315.191505
 31
0.0
  0
LINE
  8
3
  6
CONTINUOUS
 62
     2
  5
352
 10
30633.319909
 20
27315.191505
 30
0.0
 11
30633.069909
 21
27315.191505
 31
0.0
  0
LINE
  8
3
  6
CONTINUOUS
 62
     2
  5
353
 10
30633.069909
 20
27315.191505
 30
0.0
 11
30632.819909
 21
27315.191505
 31
0.0
  0
LINE
  8
3
  6
CONTINUOUS
 62
     2
  5
354
 10
30643.819909
 20
27315.191505
 30
0.0
 11
30639.069909
 21
27315.191505
 31
0.0
  0
ARC
  8
3
  6
CONTINUOUS
 62
     2
  5
355
 10
30651.069909
 20
27300.691505
 30
0.0
 40
14.25
 50
75.09
 51
78.67
  0
ARC
  8
3
  6
CONTINUOUS
 62
     2
  5
356
 10
30650.319909
 20
27296.691505
 30
0.0
 40
18.25
 50
78.8
 51
84.41
  0
ARC
  8
3
  6
CONTINUOUS
 62
     2
  5
357
 10
30649.569909
 20
27287.941505
 30
0.0
 40
27.0
 50
84.42
 51
88.2
  0
ARC
  8
3
  6
CONTINUOUS
 62
     2
  5
358
 10
30648.569909
 20
27262.441505
 30
0.0
 40
52.75
 50
88.2
 51
90.15
  0
LINE
  8
3
  6
CONTINUOUS
 62
     2
  5
359
 10
30643.819909
 20
27315.191505
 30
0.0
 11
30648.569909
 21
27315.191505
 31
0.0
  0
ARC
  8
3
  6
CONTINUOUS
 62
     2
  5
35A
 10
30650.569909
 20
27299.941505
 30
0.0
 40
15.25
 50
59.91
 51
63.41
  0
ARC
  8
3
  6
CONTINUOUS
 62
     2
  5
35B
 10
30651.319909
 20
27301.441505
 30
0.0
 40
13.5
 50
63.41
 51
67.3
  0
ARC
  8
3
  6
CONTINUOUS
 62
     2
  5
35C
 10
30651.319909
 20
27301.941505
 30
0.0
 40
13.0
 50
67.35
 51
71.32
  0
ARC
  8
3
  6
CONTINUOUS
 62
     2
  5
35D
 10
30694.319909
 20
27314.441505
 30
0.0
 40
6.5
 50
103.66
 51
105.35
  0
ARC
  8
3
  6
CONTINUOUS
 62
     2
  5
35E
 10
30372.569909
 20
27339.941505
 30
0.0
 40
309.25
 50
355.27
 51
355.99
  0
LINE
  8
3
  6
CONTINUOUS
 62
     2
  5
35F
 10
30681.069909
 20
27318.191505
 30
0.0
 11
30681.069909
 21
27318.441505
 31
0.0
  0
LINE
  8
3
  6
CONTINUOUS
 62
     2
  5
360
 10
30681.069909
 20
27318.441505
 30
0.0
 11
30681.319909
 21
27318.691505
 31
0.0
  0
LINE
  8
3
  6
CONTINUOUS
 62
     2
  5
361
 10
30681.319909
 20
27318.691505
 30
0.0
 11
30681.319909
 21
27319.191505
 31
0.0
  0
ARC
  8
3
  6
CONTINUOUS
 62
     2
  5
362
 10
30708.819909
 20
27303.191505
 30
0.0
 40
25.25
 50
156.38
 51
157.34
  0
ARC
  8
3
  6
CONTINUOUS
 62
     2
  5
363
 10
30706.819909
 20
27303.941505
 30
0.0
 40
23.25
 50
153.71
 51
156.41
  0
ARC
  8
3
  6
CONTINUOUS
 62
     2
  5
364
 10
30704.319909
 20
27305.191505
 30
0.0
 40
20.5
 50
150.7
 51
153.71
  0
ARC
  8
3
  6
CONTINUOUS
 62
     2
  5
365
 10
30702.319909
 20
27306.441505
 30
0.0
 40
18.0
 50
147.37
 51
150.71
  0
ARC
  8
3
  6
CONTINUOUS
 62
     2
  5
366
 10
30700.319909
 20
27307.691505
 30
0.0
 40
15.75
 50
143.64
 51
147.39
  0
ARC
  8
3
  6
CONTINUOUS
 62
     2
  5
367
 10
30698.319909
 20
27309.191505
 30
0.0
 40
13.5
 50
139.36
 51
143.65
  0
ARC
  8
3
  6
CONTINUOUS
 62
     2
  5
368
 10
30697.069909
 20
27310.191505
 30
0.0
 40
11.5
 50
134.51
 51
139.36
  0
ARC
  8
3
  6
CONTINUOUS
 62
     2
  5
369
 10
30696.319909
 20
27310.941505
 30
0.0
 40
10.5
 50
133.19
 51
134.46
  0
ARC
  8
3
  6
CONTINUOUS
 62
     2
  5
36A
 10
30696.069909
 20
27311.441505
 30
0.0
 40
10.0
 50
131.88
 51
133.19
  0
ARC
  8
3
  6
CONTINUOUS
 62
     2
  5
36B
 10
30695.819909
 20
27311.691505
 30
0.0
 40
9.75
 50
130.54
 51
131.88
  0
ARC
  8
3
  6
CONTINUOUS
 62
     2
  5
36C
 10
30695.569909
 20
27311.941505
 30
0.0
 40
9.5
 50
129.85
 51
130.53
  0
ARC
  8
3
  6
CONTINUOUS
 62
     2
  5
36D
 10
30695.319909
 20
27311.941505
 30
0.0
 40
9.25
 50
129.15
 51
129.85
  0
ARC
  8
3
  6
CONTINUOUS
 62
     2
  5
36E
 10
30695.319909
 20
27312.191505
 30
0.0
 40
9.0
 50
128.45
 51
129.15
  0
ARC
  8
3
  6
CONTINUOUS
 62
     2
  5
36F
 10
30695.319909
 20
27312.191505
 30
0.0
 40
9.0
 50
127.73
 51
128.45
  0
ARC
  8
3
  6
CONTINUOUS
 62
     2
  5
370
 10
30695.069909
 20
27312.441505
 30
0.0
 40
8.75
 50
127.02
 51
127.73
  0
ARC
  8
3
  6
CONTINUOUS
 62
     2
  5
371
 10
30695.069909
 20
27312.441505
 30
0.0
 40
8.75
 50
126.29
 51
127.02
  0
ARC
  8
3
  6
CONTINUOUS
 62
     2
  5
372
 10
30696.569909
 20
27310.441505
 30
0.0
 40
11.0
 50
122.66
 51
126.34
  0
ARC
  8
3
  6
CONTINUOUS
 62
     2
  5
373
 10
30695.569909
 20
27312.191505
 30
0.0
 40
9.25
 50
118.4
 51
122.67
  0
ARC
  8
3
  6
CONTINUOUS
 62
     2
  5
374
 10
30694.819909
 20
27313.441505
 30
0.0
 40
7.75
 50
113.47
 51
118.4
  0
ARC
  8
3
  6
CONTINUOUS
 62
     2
  5
375
 10
30694.569909
 20
27313.941505
 30
0.0
 40
7.0
 50
110.78
 51
113.41
  0
ARC
  8
3
  6
CONTINUOUS
 62
     2
  5
376
 10
30694.319909
 20
27314.191505
 30
0.0
 40
6.75
 50
108.09
 51
110.78
  0
ARC
  8
3
  6
CONTINUOUS
 62
     2
  5
377
 10
30694.319909
 20
27314.441505
 30
0.0
 40
6.5
 50
105.36
 51
108.09
  0
ARC
  8
3
  6
CONTINUOUS
 62
     2
  5
378
 10
30670.819909
 20
27319.691505
 30
0.0
 40
10.25
 50
356.04
 51
359.95
  0
ARC
  8
3
  6
CONTINUOUS
 62
     2
  5
379
 10
30673.819909
 20
27319.691505
 30
0.0
 40
7.25
 50
359.93
 51
5.03
  0
ARC
  8
3
  6
CONTINUOUS
 62
     2
  5
37A
 10
30676.069909
 20
27319.941505
 30
0.0
 40
5.0
 50
5.01
 51
11.57
  0
ARC
  8
3
  6
CONTINUOUS
 62
     2
  5
37B
 10
30677.319909
 20
27320.191505
 30
0.0
 40
3.75
 50
11.56
 51
19.76
  0
ARC
  8
3
  6
CONTINUOUS
 62
     2
  5
37C
 10
30678.069909
 20
27320.441505
 30
0.0
 40
3.0
 50
19.78
 51
29.58
  0
ARC
  8
3
  6
CONTINUOUS
 62
     2
  5
37D
 10
30678.569909
 20
27320.691505
 30
0.0
 40
2.5
 50
29.65
 51
40.57
  0
ARC
  8
3
  6
CONTINUOUS
 62
     2
  5
37E
 10
30678.569909
 20
27320.691505
 30
0.0
 40
2.5
 50
40.67
 51
51.79
  0
LINE
  8
3
  6
CONTINUOUS
 62
     2
  5
37F
 10
30699.319909
 20
27316.441505
 30
0.0
 11
30706.819909
 21
27311.941505
 31
0.0
  0
ARC
  8
3
  6
CONTINUOUS
 62
     2
  5
380
 10
30417.319909
 20
27336.941505
 30
0.0
 40
299.75
 50
354.86
 51
356.18
  0
ARC
  8
3
  6
CONTINUOUS
 62
     2
  5
381
 10
30691.819909
 20
27301.691505
 30
0.0
 40
18.5
 50
15.16
 51
21.82
  0
ARC
  8
3
  6
CONTINUOUS
 62
     2
  5
382
 10
30739.319909
 20
27297.941505
 30
0.0
 40
39.0
 50
175.92
 51
179.99
  0
ARC
  8
3
  6
CONTINUOUS
 62
     2
  5
383
 10
30746.569909
 20
27297.691505
 30
0.0
 40
46.25
 50
179.97
 51
184.09
  0
ARC
  8
3
  6
CONTINUOUS
 62
     2
  5
384
 10
30698.319909
 20
27304.191505
 30
0.0
 40
11.5
 50
21.68
 51
30.82
  0
ARC
  8
3
  6
CONTINUOUS
 62
     2
  5
385
 10
30714.819909
 20
27303.441505
 30
0.0
 40
13.75
 50
152.66
 51
160.77
  0
ARC
  8
3
  6
CONTINUOUS
 62
     2
  5
386
 10
30735.819909
 20
27298.191505
 30
0.0
 40
35.25
 50
171.61
 51
175.95
  0
ARC
  8
3
  6
CONTINUOUS
 62
     2
  5
387
 10
30721.819909
 20
27300.941505
 30
0.0
 40
21.25
 50
160.66
 51
166.75
  0
ARC
  8
3
  6
CONTINUOUS
 62
     2
  5
388
 10
30729.319909
 20
27298.941505
 30
0.0
 40
29.0
 50
166.69
 51
171.65
  0
ARC
  8
3
  6
CONTINUOUS
 62
     2
  5
389
 10
30702.819909
 20
27306.941505
 30
0.0
 40
6.25
 50
30.57
 51
44.23
  0
ARC
  8
3
  6
CONTINUOUS
 62
     2
  5
38A
 10
30705.069909
 20
27309.191505
 30
0.0
 40
3.25
 50
43.93
 51
65.25
  0
ARC
  8
3
  6
CONTINUOUS
 62
     2
  5
38B
 10
30705.569909
 20
27310.191505
 30
0.0
 40
2.0
 50
65.69
 51
94.85
  0
ARC
  8
3
  6
CONTINUOUS
 62
     2
  5
38C
 10
30705.569909
 20
27309.941505
 30
0.0
 40
2.25
 50
96.01
 51
123.06
  0
ARC
  8
3
  6
CONTINUOUS
 62
     2
  5
38D
 10
30706.569909
 20
27308.441505
 30
0.0
 40
4.0
 50
123.1
 51
141.41
  0
ARC
  8
3
  6
CONTINUOUS
 62
     2
  5
38E
 10
30709.569909
 20
27306.191505
 30
0.0
 40
7.75
 50
141.09
 51
152.87
  0
ARC
  8
3
  6
CONTINUOUS
 62
     2
  5
38F
 10
30672.819909
 20
27297.941505
 30
0.0
 40
38.0
 50
1.39
 51
5.52
  0
ARC
  8
3
  6
CONTINUOUS
 62
     2
  5
390
 10
30417.319909
 20
27336.941505
 30
0.0
 40
300.0
 50
352.18
 51
353.53
  0
ARC
  8
3
  6
CONTINUOUS
 62
     2
  5
391
 10
30684.819909
 20
27300.191505
 30
0.0
 40
30.0
 50
345.66
 51
347.83
  0
LINE
  8
3
  6
CONTINUOUS
 62
     2
  5
392
 10
30711.819909
 20
27297.941505
 30
0.0
 11
30712.319909
 21
27297.941505
 31
0.0
  0
ARC
  8
3
  6
CONTINUOUS
 62
     2
  5
393
 10
30712.319909
 20
27297.441505
 30
0.0
 40
0.5
 50
359.38
 51
90.0
  0
ARC
  8
3
  6
CONTINUOUS
 62
     2
  5
394
 10
30711.819909
 20
27298.941505
 30
0.0
 40
1.0
 50
181.41
 51
270.0
  0
ARC
  8
3
  6
CONTINUOUS
 62
     2
  5
395
 10
30684.819909
 20
27300.191505
 30
0.0
 40
30.0
 50
343.49
 51
345.66
  0
ARC
  8
3
  6
CONTINUOUS
 62
     2
  5
396
 10
30667.069909
 20
27297.691505
 30
0.0
 40
45.75
 50
355.25
 51
359.4
  0
ARC
  8
3
  6
CONTINUOUS
 62
     2
  5
397
 10
30684.819909
 20
27300.191505
 30
0.0
 40
30.0
 50
347.83
 51
350.0
  0
ARC
  8
3
  6
CONTINUOUS
 62
     2
  5
398
 10
30684.819909
 20
27300.191505
 30
0.0
 40
29.75
 50
350.0
 51
352.18
  0
ARC
  8
3
  6
CONTINUOUS
 62
     2
  5
399
 10
30677.569909
 20
27298.441505
 30
0.0
 40
33.25
 50
5.49
 51
10.0
  0
ARC
  8
3
  6
CONTINUOUS
 62
     2
  5
39A
 10
30684.319909
 20
27299.691505
 30
0.0
 40
26.25
 50
9.95
 51
15.23
  0
ARC
  8
3
  6
CONTINUOUS
 62
     2
  5
39B
 10
30417.569909
 20
27336.941505
 30
0.0
 40
299.75
 50
353.53
 51
354.86
  0
LINE
  8
3
  6
CONTINUOUS
 62
     2
  5
39C
 10
30713.069909
 20
27324.691505
 30
0.0
 11
30693.069909
 21
27320.941505
 31
0.0
  0
ARC
  8
3
  6
CONTINUOUS
 62
     2
  5
39D
 10
30694.319909
 20
27314.441505
 30
0.0
 40
6.75
 50
100.33
 51
101.98
  0
ARC
  8
3
  6
CONTINUOUS
 62
     2
  5
39E
 10
30711.819909
 20
27322.441505
 30
0.0
 40
5.0
 50
357.53
 51
90.0
  0
ARC
  8
3
  6
CONTINUOUS
 62
     2
  5
39F
 10
30416.819909
 20
27336.941505
 30
0.0
 40
300.5
 50
357.01
 51
357.17
  0
ARC
  8
3
  6
CONTINUOUS
 62
     2
  5
3A0
 10
30583.069909
 20
27327.941505
 30
0.0
 40
133.75
 50
356.8
 51
357.53
  0
ARC
  8
3
  6
CONTINUOUS
 62
     2
  5
3A1
 10
30416.819909
 20
27336.941505
 30
0.0
 40
300.5
 50
356.69
 51
356.85
  0
ARC
  8
3
  6
CONTINUOUS
 62
     2
  5
3A2
 10
30417.569909
 20
27336.941505
 30
0.0
 40
299.75
 50
356.52
 51
356.69
  0
ARC
  8
3
  6
CONTINUOUS
 62
     2
  5
3A3
 10
30417.819909
 20
27336.691505
 30
0.0
 40
299.25
 50
356.35
 51
356.52
  0
ARC
  8
3
  6
CONTINUOUS
 62
     2
  5
3A4
 10
30418.319909
 20
27336.691505
 30
0.0
 40
299.0
 50
356.18
 51
356.35
  0
LINE
  8
3
  6
CONTINUOUS
 62
     2
  5
3A5
 10
30594.819909
 20
27388.941505
 30
0.0
 11
30594.819909
 21
27663.691505
 31
0.0
  0
LINE
  8
3
  6
CONTINUOUS
 62
     2
  5
3A6
 10
30578.069909
 20
27387.941505
 30
0.0
 11
30578.069909
 21
27664.441505
 31
0.0
  0
LINE
  8
3
  6
CONTINUOUS
 62
     2
  5
3A7
 10
30527.569909
 20
27390.941505
 30
0.0
 11
30529.319909
 21
27415.941505
 31
0.0
  0
LINE
  8
3
  6
CONTINUOUS
 62
     2
  5
3A8
 10
30529.319909
 20
27415.941505
 30
0.0
 11
30530.569909
 21
27440.691505
 31
0.0
  0
LINE
  8
3
  6
CONTINUOUS
 62
     2
  5
3A9
 10
30530.569909
 20
27440.691505
 30
0.0
 11
30531.569909
 21
27465.691505
 31
0.0
  0
LINE
  8
3
  6
CONTINUOUS
 62
     2
  5
3AA
 10
30531.569909
 20
27465.691505
 30
0.0
 11
30532.069909
 21
27490.691505
 31
0.0
  0
LINE
  8
3
  6
CONTINUOUS
 62
     2
  5
3AB
 10
30532.069909
 20
27490.691505
 30
0.0
 11
30532.569909
 21
27515.691505
 31
0.0
  0
LINE
  8
3
  6
CONTINUOUS
 62
     2
  5
3AC
 10
30532.569909
 20
27515.691505
 30
0.0
 11
30532.319909
 21
27540.441505
 31
0.0
  0
LINE
  8
3
  6
CONTINUOUS
 62
     2
  5
3AD
 10
30532.319909
 20
27540.441505
 30
0.0
 11
30532.069909
 21
27565.441505
 31
0.0
  0
LINE
  8
3
  6
CONTINUOUS
 62
     2
  5
3AE
 10
30532.069909
 20
27565.441505
 30
0.0
 11
30531.319909
 21
27590.441505
 31
0.0
  0
LINE
  8
3
  6
CONTINUOUS
 62
     2
  5
3AF
 10
30531.319909
 20
27590.441505
 30
0.0
 11
30530.319909
 21
27615.441505
 31
0.0
  0
LINE
  8
3
  6
CONTINUOUS
 62
     2
  5
3B0
 10
30530.319909
 20
27615.441505
 30
0.0
 11
30529.069909
 21
27640.441505
 31
0.0
  0
LINE
  8
3
  6
CONTINUOUS
 62
     2
  5
3B1
 10
30529.069909
 20
27640.441505
 30
0.0
 11
30527.569909
 21
27661.441505
 31
0.0
  0
LINE
  8
3
  6
CONTINUOUS
 62
     2
  5
3B2
 10
30450.319909
 20
27427.441505
 30
0.0
 11
30450.819909
 21
27452.191505
 31
0.0
  0
LINE
  8
3
  6
CONTINUOUS
 62
     2
  5
3B3
 10
30450.819909
 20
27452.191505
 30
0.0
 11
30451.319909
 21
27477.191505
 31
0.0
  0
LINE
  8
3
  6
CONTINUOUS
 62
     2
  5
3B4
 10
30451.319909
 20
27477.191505
 30
0.0
 11
30451.569909
 21
27502.191505
 31
0.0
  0
LINE
  8
3
  6
CONTINUOUS
 62
     2
  5
3B5
 10
30451.569909
 20
27502.191505
 30
0.0
 11
30451.819909
 21
27526.941505
 31
0.0
  0
LINE
  8
3
  6
CONTINUOUS
 62
     2
  5
3B6
 10
30451.819909
 20
27526.941505
 30
0.0
 11
30451.569909
 21
27551.941505
 31
0.0
  0
LINE
  8
3
  6
CONTINUOUS
 62
     2
  5
3B7
 10
30451.569909
 20
27551.941505
 30
0.0
 11
30451.319909
 21
27576.941505
 31
0.0
  0
LINE
  8
3
  6
CONTINUOUS
 62
     2
  5
3B8
 10
30451.319909
 20
27576.941505
 30
0.0
 11
30450.819909
 21
27601.941505
 31
0.0
  0
LINE
  8
3
  6
CONTINUOUS
 62
     2
  5
3B9
 10
30450.819909
 20
27601.941505
 30
0.0
 11
30450.319909
 21
27624.941505
 31
0.0
  0
LINE
  8
3
  6
CONTINUOUS
 62
     2
  5
3BA
 10
30466.569909
 20
27546.691505
 30
0.0
 11
30466.319909
 21
27567.191505
 31
0.0
  0
ARC
  8
3
  6
CONTINUOUS
 62
     2
  5
3BB
 10
29673.819909
 20
27526.191505
 30
0.0
 40
789.0
 50
1.45
 51
1.7
  0
LINE
  8
3
  6
CONTINUOUS
 62
     2
  5
3BC
 10
30465.319909
 20
27443.941505
 30
0.0
 11
30465.819909
 21
27464.441505
 31
0.0
  0
ARC
  8
3
  6
CONTINUOUS
 62
     2
  5
3BD
 10
29674.319909
 20
27526.191505
 30
0.0
 40
788.75
 50
355.27
 51
355.46
  0
LINE
  8
3
  6
CONTINUOUS
 62
     2
  5
3BE
 10
30463.319909
 20
27402.941505
 30
0.0
 11
30464.319909
 21
27423.441505
 31
0.0
  0
ARC
  8
3
  6
CONTINUOUS
 62
     2
  5
3BF
 10
29673.069909
 20
27526.191505
 30
0.0
 40
790.0
 50
352.11
 51
352.3
  0
LINE
  8
3
  6
CONTINUOUS
 62
     2
  5
3C0
 10
30452.819909
 20
27395.941505
 30
0.0
 11
30452.819909
 21
27399.691505
 31
0.0
  0
LINE
  8
3
  6
CONTINUOUS
 62
     2
  5
3C1
 10
30462.569909
 20
27385.441505
 30
0.0
 11
30463.069909
 21
27399.691505
 31
0.0
  0
LINE
  8
3
  6
CONTINUOUS
 62
     2
  5
3C2
 10
30452.819909
 20
27380.691505
 30
0.0
 11
30452.819909
 21
27384.691505
 31
0.0
  0
LINE
  8
3
  6
CONTINUOUS
 62
     2
  5
3C3
 10
30452.819909
 20
27384.691505
 30
0.0
 11
30452.819909
 21
27388.441505
 31
0.0
  0
LINE
  8
3
  6
CONTINUOUS
 62
     2
  5
3C4
 10
30452.819909
 20
27388.191505
 30
0.0
 11
30452.819909
 21
27392.191505
 31
0.0
  0
LINE
  8
3
  6
CONTINUOUS
 62
     2
  5
3C5
 10
30452.819909
 20
27392.191505
 30
0.0
 11
30452.819909
 21
27395.941505
 31
0.0
  0
ARC
  8
3
  6
CONTINUOUS
 62
     2
  5
3C6
 10
29673.069909
 20
27526.191505
 30
0.0
 40
790.0
 50
351.93
 51
352.11
  0
ARC
  8
3
  6
CONTINUOUS
 62
     2
  5
3C7
 10
30473.069909
 20
27399.691505
 30
0.0
 40
20.0
 50
173.99
 51
175.48
  0
LINE
  8
3
  6
CONTINUOUS
 62
     2
  5
3C8
 10
30463.319909
 20
27401.941505
 30
0.0
 11
30463.319909
 21
27400.691505
 31
0.0
  0
ARC
  8
3
  6
CONTINUOUS
 62
     2
  5
3C9
 10
30473.069909
 20
27399.691505
 30
0.0
 40
20.0
 50
178.47
 51
179.97
  0
ARC
  8
3
  6
CONTINUOUS
 62
     2
  5
3CA
 10
30473.069909
 20
27399.691505
 30
0.0
 40
20.0
 50
176.98
 51
178.47
  0
ARC
  8
3
  6
CONTINUOUS
 62
     2
  5
3CB
 10
30473.069909
 20
27399.691505
 30
0.0
 40
20.0
 50
175.48
 51
176.98
  0
LINE
  8
3
  6
CONTINUOUS
 62
     2
  5
3CC
 10
30463.319909
 20
27400.691505
 30
0.0
 11
30463.069909
 21
27399.691505
 31
0.0
  0
ARC
  8
3
  6
CONTINUOUS
 62
     2
  5
3CD
 10
29673.319909
 20
27526.191505
 30
0.0
 40
789.75
 50
351.0
 51
351.18
  0
ARC
  8
3
  6
CONTINUOUS
 62
     2
  5
3CE
 10
30473.069909
 20
27399.691505
 30
0.0
 40
20.0
 50
172.5
 51
173.99
  0
ARC
  8
3
  6
CONTINUOUS
 62
     2
  5
3CF
 10
30473.069909
 20
27399.691505
 30
0.0
 40
20.0
 50
171.0
 51
172.5
  0
ARC
  8
3
  6
CONTINUOUS
 62
     2
  5
3D0
 10
31186.319909
 20
27364.691505
 30
0.0
 40
723.75
 50
176.97
 51
177.05
  0
ARC
  8
3
  6
CONTINUOUS
 62
     2
  5
3D1
 10
29673.319909
 20
27526.191505
 30
0.0
 40
789.75
 50
351.18
 51
351.37
  0
ARC
  8
3
  6
CONTINUOUS
 62
     2
  5
3D2
 10
29673.069909
 20
27526.191505
 30
0.0
 40
789.75
 50
351.37
 51
351.56
  0
ARC
  8
3
  6
CONTINUOUS
 62
     2
  5
3D3
 10
29673.069909
 20
27526.191505
 30
0.0
 40
789.75
 50
351.56
 51
351.74
  0
ARC
  8
3
  6
CONTINUOUS
 62
     2
  5
3D4
 10
29673.069909
 20
27526.191505
 30
0.0
 40
790.0
 50
351.74
 51
351.93
  0
ARC
  8
3
  6
CONTINUOUS
 62
     2
  5
3D5
 10
29673.319909
 20
27526.191505
 30
0.0
 40
789.5
 50
353.79
 51
353.97
  0
LINE
  8
3
  6
CONTINUOUS
 62
     2
  5
3D6
 10
30464.319909
 20
27423.441505
 30
0.0
 11
30465.319909
 21
27443.941505
 31
0.0
  0
ARC
  8
3
  6
CONTINUOUS
 62
     2
  5
3D7
 10
29673.069909
 20
27526.191505
 30
0.0
 40
790.0
 50
352.3
 51
352.48
  0
ARC
  8
3
  6
CONTINUOUS
 62
     2
  5
3D8
 10
29673.069909
 20
27526.191505
 30
0.0
 40
790.0
 50
352.48
 51
352.67
  0
ARC
  8
3
  6
CONTINUOUS
 62
     2
  5
3D9
 10
29673.069909
 20
27526.191505
 30
0.0
 40
790.0
 50
352.67
 51
352.86
  0
ARC
  8
3
  6
CONTINUOUS
 62
     2
  5
3DA
 10
29673.069909
 20
27526.191505
 30
0.0
 40
790.0
 50
352.86
 51
353.04
  0
ARC
  8
3
  6
CONTINUOUS
 62
     2
  5
3DB
 10
29673.069909
 20
27526.191505
 30
0.0
 40
790.0
 50
353.04
 51
353.23
  0
ARC
  8
3
  6
CONTINUOUS
 62
     2
  5
3DC
 10
29673.069909
 20
27526.191505
 30
0.0
 40
789.75
 50
353.23
 51
353.41
  0
ARC
  8
3
  6
CONTINUOUS
 62
     2
  5
3DD
 10
29673.069909
 20
27526.191505
 30
0.0
 40
789.75
 50
353.41
 51
353.6
  0
ARC
  8
3
  6
CONTINUOUS
 62
     2
  5
3DE
 10
29673.319909
 20
27526.191505
 30
0.0
 40
789.75
 50
353.6
 51
353.79
  0
ARC
  8
3
  6
CONTINUOUS
 62
     2
  5
3DF
 10
29673.569909
 20
27526.191505
 30
0.0
 40
789.25
 50
354.34
 51
354.53
  0
ARC
  8
3
  6
CONTINUOUS
 62
     2
  5
3E0
 10
29673.319909
 20
27526.191505
 30
0.0
 40
789.5
 50
353.97
 51
354.16
  0
ARC
  8
3
  6
CONTINUOUS
 62
     2
  5
3E1
 10
29673.569909
 20
27526.191505
 30
0.0
 40
789.5
 50
354.16
 51
354.34
  0
ARC
  8
3
  6
CONTINUOUS
 62
     2
  5
3E2
 10
29673.819909
 20
27526.191505
 30
0.0
 40
789.25
 50
354.53
 51
354.72
  0
ARC
  8
3
  6
CONTINUOUS
 62
     2
  5
3E3
 10
29673.819909
 20
27526.191505
 30
0.0
 40
789.0
 50
354.72
 51
354.9
  0
ARC
  8
3
  6
CONTINUOUS
 62
     2
  5
3E4
 10
29674.069909
 20
27526.191505
 30
0.0
 40
789.0
 50
354.9
 51
355.09
  0
ARC
  8
3
  6
CONTINUOUS
 62
     2
  5
3E5
 10
29674.069909
 20
27526.191505
 30
0.0
 40
788.75
 50
355.09
 51
355.27
  0
LINE
  8
3
  6
CONTINUOUS
 62
     2
  5
3E6
 10
30589.819909
 20
27383.941505
 30
0.0
 11
30539.819909
 21
27383.941505
 31
0.0
  0
LINE
  8
3
  6
CONTINUOUS
 62
     2
  5
3E7
 10
30578.069909
 20
27387.941505
 30
0.0
 11
30553.069909
 21
27387.941505
 31
0.0
  0
LINE
  8
3
  6
CONTINUOUS
 62
     2
  5
3E8
 10
30553.069909
 20
27387.941505
 30
0.0
 11
30535.069909
 21
27387.941505
 31
0.0
  0
LINE
  8
3
  6
CONTINUOUS
 62
     2
  5
3E9
 10
30535.069909
 20
27387.941505
 30
0.0
 11
30520.319909
 21
27387.941505
 31
0.0
  0
ARC
  8
3
  6
CONTINUOUS
 62
     2
  5
3EA
 10
30589.819909
 20
27388.941505
 30
0.0
 40
4.75
 50
270.0
 51
360.0
  0
LINE
  8
3
  6
CONTINUOUS
 62
     2
  5
3EB
 10
30466.319909
 20
27485.191505
 30
0.0
 11
30466.569909
 21
27505.691505
 31
0.0
  0
ARC
  8
3
  6
CONTINUOUS
 62
     2
  5
3EC
 10
29673.819909
 20
27526.191505
 30
0.0
 40
789.0
 50
358.48
 51
358.67
  0
LINE
  8
3
  6
CONTINUOUS
 62
     2
  5
3ED
 10
30465.819909
 20
27464.441505
 30
0.0
 11
30466.319909
 21
27485.191505
 31
0.0
  0
ARC
  8
3
  6
CONTINUOUS
 62
     2
  5
3EE
 10
29673.819909
 20
27526.191505
 30
0.0
 40
789.25
 50
356.78
 51
356.97
  0
ARC
  8
3
  6
CONTINUOUS
 62
     2
  5
3EF
 10
29674.319909
 20
27526.191505
 30
0.0
 40
788.75
 50
355.65
 51
355.84
  0
ARC
  8
3
  6
CONTINUOUS
 62
     2
  5
3F0
 10
29674.319909
 20
27526.191505
 30
0.0
 40
788.5
 50
355.46
 51
355.65
  0
ARC
  8
3
  6
CONTINUOUS
 62
     2
  5
3F1
 10
29674.069909
 20
27526.191505
 30
0.0
 40
788.75
 50
355.84
 51
356.03
  0
ARC
  8
3
  6
CONTINUOUS
 62
     2
  5
3F2
 10
29674.069909
 20
27526.191505
 30
0.0
 40
789.0
 50
356.03
 51
356.22
  0
ARC
  8
3
  6
CONTINUOUS
 62
     2
  5
3F3
 10
29674.069909
 20
27526.191505
 30
0.0
 40
789.0
 50
356.22
 51
356.41
  0
ARC
  8
3
  6
CONTINUOUS
 62
     2
  5
3F4
 10
29673.819909
 20
27526.191505
 30
0.0
 40
789.0
 50
356.41
 51
356.59
  0
ARC
  8
3
  6
CONTINUOUS
 62
     2
  5
3F5
 10
29673.819909
 20
27526.191505
 30
0.0
 40
789.25
 50
356.59
 51
356.78
  0
ARC
  8
3
  6
CONTINUOUS
 62
     2
  5
3F6
 10
29673.819909
 20
27526.191505
 30
0.0
 40
789.25
 50
357.92
 51
358.11
  0
ARC
  8
3
  6
CONTINUOUS
 62
     2
  5
3F7
 10
29673.819909
 20
27526.191505
 30
0.0
 40
789.25
 50
357.35
 51
357.54
  0
ARC
  8
3
  6
CONTINUOUS
 62
     2
  5
3F8
 10
29673.819909
 20
27526.191505
 30
0.0
 40
789.25
 50
356.97
 51
357.16
  0
ARC
  8
3
  6
CONTINUOUS
 62
     2
  5
3F9
 10
29673.819909
 20
27526.191505
 30
0.0
 40
789.25
 50
357.16
 51
357.35
  0
ARC
  8
3
  6
CONTINUOUS
 62
     2
  5
3FA
 10
29673.819909
 20
27526.191505
 30
0.0
 40
789.25
 50
357.54
 51
357.73
  0
ARC
  8
3
  6
CONTINUOUS
 62
     2
  5
3FB
 10
29673.819909
 20
27526.191505
 30
0.0
 40
789.25
 50
357.73
 51
357.92
  0
ARC
  8
3
  6
CONTINUOUS
 62
     2
  5
3FC
 10
29673.819909
 20
27526.191505
 30
0.0
 40
789.25
 50
358.11
 51
358.29
  0
ARC
  8
3
  6
CONTINUOUS
 62
     2
  5
3FD
 10
29673.819909
 20
27526.191505
 30
0.0
 40
789.0
 50
358.29
 51
358.48
  0
ARC
  8
3
  6
CONTINUOUS
 62
     2
  5
3FE
 10
29674.569909
 20
27526.191505
 30
0.0
 40
788.25
 50
0.0
 51
0.24
  0
LINE
  8
3
  6
CONTINUOUS
 62
     2
  5
3FF
 10
30466.819909
 20
27526.191505
 30
0.0
 11
30466.569909
 21
27546.691505
 31
0.0
  0
ARC
  8
3
  6
CONTINUOUS
 62
     2
  5
400
 10
29674.569909
 20
27526.191505
 30
0.0
 40
788.5
 50
359.62
 51
359.81
  0
LINE
  8
3
  6
CONTINUOUS
 62
     2
  5
401
 10
30466.569909
 20
27505.691505
 30
0.0
 11
30466.819909
 21
27526.191505
 31
0.0
  0
ARC
  8
3
  6
CONTINUOUS
 62
     2
  5
402
 10
29674.069909
 20
27526.191505
 30
0.0
 40
789.0
 50
358.67
 51
358.86
  0
ARC
  8
3
  6
CONTINUOUS
 62
     2
  5
403
 10
29674.069909
 20
27526.191505
 30
0.0
 40
789.0
 50
358.86
 51
359.05
  0
ARC
  8
3
  6
CONTINUOUS
 62
     2
  5
404
 10
29674.069909
 20
27526.191505
 30
0.0
 40
788.75
 50
359.05
 51
359.24
  0
ARC
  8
3
  6
CONTINUOUS
 62
     2
  5
405
 10
29674.319909
 20
27526.191505
 30
0.0
 40
788.75
 50
359.24
 51
359.43
  0
ARC
  8
3
  6
CONTINUOUS
 62
     2
  5
406
 10
29674.319909
 20
27526.191505
 30
0.0
 40
788.5
 50
359.43
 51
359.62
  0
ARC
  8
3
  6
CONTINUOUS
 62
     2
  5
407
 10
29674.819909
 20
27526.191505
 30
0.0
 40
788.25
 50
359.81
 51
360.0
  0
ARC
  8
3
  6
CONTINUOUS
 62
     2
  5
408
 10
29674.569909
 20
27526.191505
 30
0.0
 40
788.5
 50
0.24
 51
0.48
  0
ARC
  8
3
  6
CONTINUOUS
 62
     2
  5
409
 10
29674.319909
 20
27526.191505
 30
0.0
 40
788.75
 50
0.48
 51
0.72
  0
ARC
  8
3
  6
CONTINUOUS
 62
     2
  5
40A
 10
29674.069909
 20
27526.191505
 30
0.0
 40
788.75
 50
0.72
 51
0.96
  0
ARC
  8
3
  6
CONTINUOUS
 62
     2
  5
40B
 10
29674.069909
 20
27526.191505
 30
0.0
 40
789.0
 50
0.96
 51
1.2
  0
ARC
  8
3
  6
CONTINUOUS
 62
     2
  5
40C
 10
29673.819909
 20
27526.191505
 30
0.0
 40
789.0
 50
1.2
 51
1.45
  0
ARC
  8
3
  6
CONTINUOUS
 62
     2
  5
40D
 10
29850.819909
 20
27607.691505
 30
0.0
 40
600.0
 50
1.66
 51
8.05
  0
LINE
  8
3
  6
CONTINUOUS
 62
     2
  5
40E
 10
30464.319909
 20
27628.941505
 30
0.0
 11
30463.319909
 21
27649.441505
 31
0.0
  0
ARC
  8
3
  6
CONTINUOUS
 62
     2
  5
40F
 10
29673.069909
 20
27526.191505
 30
0.0
 40
790.0
 50
7.49
 51
7.86
  0
LINE
  8
3
  6
CONTINUOUS
 62
     2
  5
410
 10
30465.819909
 20
27587.941505
 30
0.0
 11
30465.319909
 21
27608.441505
 31
0.0
  0
ARC
  8
3
  6
CONTINUOUS
 62
     2
  5
411
 10
29674.069909
 20
27526.191505
 30
0.0
 40
788.75
 50
4.59
 51
4.91
  0
LINE
  8
3
  6
CONTINUOUS
 62
     2
  5
412
 10
30466.319909
 20
27567.191505
 30
0.0
 11
30465.819909
 21
27587.941505
 31
0.0
  0
ARC
  8
3
  6
CONTINUOUS
 62
     2
  5
413
 10
29673.819909
 20
27526.191505
 30
0.0
 40
789.25
 50
2.96
 51
3.33
  0
ARC
  8
3
  6
CONTINUOUS
 62
     2
  5
414
 10
29673.819909
 20
27526.191505
 30
0.0
 40
789.25
 50
1.7
 51
1.95
  0
ARC
  8
3
  6
CONTINUOUS
 62
     2
  5
415
 10
29673.819909
 20
27526.191505
 30
0.0
 40
789.25
 50
2.58
 51
2.96
  0
ARC
  8
3
  6
CONTINUOUS
 62
     2
  5
416
 10
29673.819909
 20
27526.191505
 30
0.0
 40
789.25
 50
1.95
 51
2.2
  0
ARC
  8
3
  6
CONTINUOUS
 62
     2
  5
417
 10
29673.819909
 20
27526.191505
 30
0.0
 40
789.25
 50
2.2
 51
2.58
  0
ARC
  8
3
  6
CONTINUOUS
 62
     2
  5
418
 10
29673.819909
 20
27526.191505
 30
0.0
 40
789.0
 50
3.33
 51
3.65
  0
ARC
  8
3
  6
CONTINUOUS
 62
     2
  5
419
 10
29674.069909
 20
27526.191505
 30
0.0
 40
789.0
 50
3.65
 51
3.96
  0
ARC
  8
3
  6
CONTINUOUS
 62
     2
  5
41A
 10
29674.319909
 20
27526.191505
 30
0.0
 40
788.75
 50
3.96
 51
4.28
  0
ARC
  8
3
  6
CONTINUOUS
 62
     2
  5
41B
 10
29674.319909
 20
27526.191505
 30
0.0
 40
788.5
 50
4.28
 51
4.59
  0
LINE
  8
3
  6
CONTINUOUS
 62
     2
  5
41C
 10
30465.319909
 20
27608.441505
 30
0.0
 11
30464.319909
 21
27628.941505
 31
0.0
  0
ARC
  8
3
  6
CONTINUOUS
 62
     2
  5
41D
 10
29673.319909
 20
27526.191505
 30
0.0
 40
789.75
 50
6.23
 51
6.48
  0
ARC
  8
3
  6
CONTINUOUS
 62
     2
  5
41E
 10
29674.069909
 20
27526.191505
 30
0.0
 40
789.0
 50
4.91
 51
5.22
  0
ARC
  8
3
  6
CONTINUOUS
 62
     2
  5
41F
 10
29673.569909
 20
27526.191505
 30
0.0
 40
789.5
 50
5.48
 51
5.73
  0
ARC
  8
3
  6
CONTINUOUS
 62
     2
  5
420
 10
29673.819909
 20
27526.191505
 30
0.0
 40
789.25
 50
5.22
 51
5.48
  0
ARC
  8
3
  6
CONTINUOUS
 62
     2
  5
421
 10
29673.569909
 20
27526.191505
 30
0.0
 40
789.5
 50
5.73
 51
5.98
  0
ARC
  8
3
  6
CONTINUOUS
 62
     2
  5
422
 10
29673.319909
 20
27526.191505
 30
0.0
 40
789.5
 50
5.98
 51
6.23
  0
ARC
  8
3
  6
CONTINUOUS
 62
     2
  5
423
 10
29673.069909
 20
27526.191505
 30
0.0
 40
790.0
 50
7.11
 51
7.49
  0
ARC
  8
3
  6
CONTINUOUS
 62
     2
  5
424
 10
29673.069909
 20
27526.191505
 30
0.0
 40
789.75
 50
6.48
 51
6.73
  0
ARC
  8
3
  6
CONTINUOUS
 62
     2
  5
425
 10
29673.069909
 20
27526.191505
 30
0.0
 40
790.0
 50
6.73
 51
7.11
  0
ARC
  8
3
  6
CONTINUOUS
 62
     2
  5
426
 10
30489.069909
 20
27685.441505
 30
0.0
 40
28.75
 50
130.03
 51
133.63
  0
LINE
  8
3
  6
CONTINUOUS
 62
     2
  5
427
 10
30462.069909
 20
27675.441505
 30
0.0
 11
30461.319909
 21
27686.941505
 31
0.0
  0
LINE
  8
3
  6
CONTINUOUS
 62
     2
  5
428
 10
30453.319909
 20
27672.441505
 30
0.0
 11
30453.069909
 21
27691.691505
 31
0.0
  0
LINE
  8
3
  6
CONTINUOUS
 62
     2
  5
429
 10
30453.319909
 20
27653.191505
 30
0.0
 11
30453.319909
 21
27672.441505
 31
0.0
  0
LINE
  8
3
  6
CONTINUOUS
 62
     2
  5
42A
 10
30463.319909
 20
27652.691505
 30
0.0
 11
30462.569909
 21
27664.191505
 31
0.0
  0
ARC
  8
3
  6
CONTINUOUS
 62
     2
  5
42B
 10
29673.319909
 20
27526.191505
 30
0.0
 40
789.75
 50
8.62
 51
8.99
  0
ARC
  8
3
  6
CONTINUOUS
 62
     2
  5
42C
 10
29673.069909
 20
27526.191505
 30
0.0
 40
790.0
 50
7.86
 51
8.24
  0
ARC
  8
3
  6
CONTINUOUS
 62
     2
  5
42D
 10
29673.069909
 20
27526.191505
 30
0.0
 40
789.75
 50
8.24
 51
8.62
  0
ARC
  8
3
  6
CONTINUOUS
 62
     2
  5
42E
 10
30473.069909
 20
27652.691505
 30
0.0
 40
20.0
 50
181.52
 51
183.01
  0
LINE
  8
3
  6
CONTINUOUS
 62
     2
  5
42F
 10
30463.069909
 20
27652.691505
 30
0.0
 11
30463.319909
 21
27651.691505
 31
0.0
  0
ARC
  8
3
  6
CONTINUOUS
 62
     2
  5
430
 10
30473.069909
 20
27652.691505
 30
0.0
 40
20.0
 50
187.49
 51
188.99
  0
ARC
  8
3
  6
CONTINUOUS
 62
     2
  5
431
 10
30473.069909
 20
27652.691505
 30
0.0
 40
20.0
 50
186.0
 51
187.49
  0
ARC
  8
3
  6
CONTINUOUS
 62
     2
  5
432
 10
30473.069909
 20
27652.691505
 30
0.0
 40
20.0
 50
184.51
 51
186.0
  0
ARC
  8
3
  6
CONTINUOUS
 62
     2
  5
433
 10
30473.069909
 20
27652.691505
 30
0.0
 40
20.0
 50
183.01
 51
184.51
  0
ARC
  8
3
  6
CONTINUOUS
 62
     2
  5
434
 10
31191.319909
 20
27687.941505
 30
0.0
 40
729.0
 50
182.94
 51
183.02
  0
LINE
  8
3
  6
CONTINUOUS
 62
     2
  5
435
 10
30463.319909
 20
27651.691505
 30
0.0
 11
30463.319909
 21
27650.441505
 31
0.0
  0
ARC
  8
3
  6
CONTINUOUS
 62
     2
  5
436
 10
30473.069909
 20
27652.691505
 30
0.0
 40
20.0
 50
180.02
 51
181.52
  0
LINE
  8
3
  6
CONTINUOUS
 62
     2
  5
437
 10
30452.819909
 20
27652.691505
 30
0.0
 11
30452.819909
 21
27652.941505
 31
0.0
  0
LINE
  8
3
  6
CONTINUOUS
 62
     2
  5
438
 10
30452.819909
 20
27652.941505
 30
0.0
 11
30452.819909
 21
27653.191505
 31
0.0
  0
LINE
  8
3
  6
CONTINUOUS
 62
     2
  5
439
 10
30462.569909
 20
27664.191505
 30
0.0
 11
30462.069909
 21
27675.441505
 31
0.0
  0
LINE
  8
3
  6
CONTINUOUS
 62
     2
  5
43A
 10
30453.069909
 20
27691.691505
 30
0.0
 11
30453.069909
 21
27710.941505
 31
0.0
  0
ARC
  8
3
  6
CONTINUOUS
 62
     2
  5
43B
 10
30485.319909
 20
27688.441505
 30
0.0
 40
24.0
 50
153.02
 51
157.22
  0
ARC
  8
3
  6
CONTINUOUS
 62
     2
  5
43C
 10
30485.069909
 20
27688.441505
 30
0.0
 40
23.75
 50
157.24
 51
161.56
  0
LINE
  8
3
  6
CONTINUOUS
 62
     2
  5
43D
 10
30451.069909
 20
27695.441505
 30
0.0
 11
30442.819909
 21
27694.691505
 31
0.0
  0
ARC
  8
3
  6
CONTINUOUS
 62
     2
  5
43E
 10
30484.819909
 20
27688.691505
 30
0.0
 40
23.25
 50
165.88
 51
170.26
  0
ARC
  8
3
  6
CONTINUOUS
 62
     2
  5
43F
 10
30485.819909
 20
27688.441505
 30
0.0
 40
24.5
 50
179.23
 51
183.58
  0
ARC
  8
3
  6
CONTINUOUS
 62
     2
  5
440
 10
30485.569909
 20
27688.441505
 30
0.0
 40
24.25
 50
174.82
 51
179.23
  0
ARC
  8
3
  6
CONTINUOUS
 62
     2
  5
441
 10
30484.819909
 20
27688.691505
 30
0.0
 40
23.5
 50
170.29
 51
174.83
  0
ARC
  8
3
  6
CONTINUOUS
 62
     2
  5
442
 10
30485.069909
 20
27688.441505
 30
0.0
 40
23.75
 50
161.56
 51
165.88
  0
ARC
  8
3
  6
CONTINUOUS
 62
     2
  5
443
 10
30486.569909
 20
27687.691505
 30
0.0
 40
25.25
 50
144.96
 51
148.96
  0
ARC
  8
3
  6
CONTINUOUS
 62
     2
  5
444
 10
30486.069909
 20
27687.941505
 30
0.0
 40
25.0
 50
148.95
 51
153.02
  0
ARC
  8
3
  6
CONTINUOUS
 62
     2
  5
445
 10
30459.319909
 20
27722.941505
 30
0.0
 40
8.25
 50
285.13
 51
288.81
  0
ARC
  8
3
  6
CONTINUOUS
 62
     2
  5
446
 10
30456.319909
 20
27734.191505
 30
0.0
 40
19.75
 50
283.42
 51
285.09
  0
ARC
  8
3
  6
CONTINUOUS
 62
     2
  5
447
 10
30458.069909
 20
27727.191505
 30
0.0
 40
12.5
 50
281.02
 51
283.44
  0
ARC
  8
3
  6
CONTINUOUS
 62
     2
  5
448
 10
30458.819909
 20
27722.691505
 30
0.0
 40
8.0
 50
277.58
 51
281.05
  0
ARC
  8
3
  6
CONTINUOUS
 62
     2
  5
449
 10
30457.319909
 20
27735.691505
 30
0.0
 40
21.25
 50
276.31
 51
277.47
  0
ARC
  8
3
  6
CONTINUOUS
 62
     2
  5
44A
 10
30457.819909
 20
27730.191505
 30
0.0
 40
15.5
 50
274.83
 51
276.31
  0
ARC
  8
3
  6
CONTINUOUS
 62
     2
  5
44B
 10
30458.319909
 20
27725.941505
 30
0.0
 40
11.25
 50
272.96
 51
274.84
  0
ARC
  8
3
  6
CONTINUOUS
 62
     2
  5
44C
 10
30461.069909
 20
27669.191505
 30
0.0
 40
45.25
 50
92.87
 51
93.93
  0
ARC
  8
3
  6
CONTINUOUS
 62
     2
  5
44D
 10
30459.819909
 20
27686.941505
 30
0.0
 40
27.5
 50
93.92
 51
95.42
  0
ARC
  8
3
  6
CONTINUOUS
 62
     2
  5
44E
 10
30458.819909
 20
27698.691505
 30
0.0
 40
15.75
 50
95.39
 51
97.62
  0
ARC
  8
3
  6
CONTINUOUS
 62
     2
  5
44F
 10
30458.569909
 20
27700.441505
 30
0.0
 40
14.0
 50
97.64
 51
100.34
  0
ARC
  8
3
  6
CONTINUOUS
 62
     2
  5
450
 10
30457.319909
 20
27706.191505
 30
0.0
 40
8.0
 50
100.28
 51
104.01
  0
ARC
  8
3
  6
CONTINUOUS
 62
     2
  5
451
 10
30456.319909
 20
27710.191505
 30
0.0
 40
4.0
 50
103.88
 51
109.52
  0
LINE
  8
3
  6
CONTINUOUS
 62
     2
  5
452
 10
30452.819909
 20
27710.941505
 30
0.0
 11
30453.069909
 21
27710.941505
 31
0.0
  0
LINE
  8
3
  6
CONTINUOUS
 62
     2
  5
453
 10
30452.819909
 20
27710.941505
 30
0.0
 11
30452.819909
 21
27713.191505
 31
0.0
  0
LINE
  8
3
  6
CONTINUOUS
 62
     2
  5
454
 10
30452.819909
 20
27713.191505
 30
0.0
 11
30452.819909
 21
27715.441505
 31
0.0
  0
LINE
  8
3
  6
CONTINUOUS
 62
     2
  5
455
 10
30452.819909
 20
27715.441505
 30
0.0
 11
30452.819909
 21
27717.441505
 31
0.0
  0
LINE
  8
3
  6
CONTINUOUS
 62
     2
  5
456
 10
30452.819909
 20
27717.441505
 30
0.0
 11
30452.819909
 21
27719.691505
 31
0.0
  0
ARC
  8
3
  6
CONTINUOUS
 62
     2
  5
457
 10
30465.569909
 20
27720.441505
 30
0.0
 40
2.0
 50
321.68
 51
326.57
  0
ARC
  8
3
  6
CONTINUOUS
 62
     2
  5
458
 10
30490.069909
 20
27701.191505
 30
0.0
 40
28.75
 50
141.8
 51
142.19
  0
ARC
  8
3
  6
CONTINUOUS
 62
     2
  5
459
 10
30468.819909
 20
27717.691505
 30
0.0
 40
1.75
 50
142.07
 51
147.75
  0
ARC
  8
3
  6
CONTINUOUS
 62
     2
  5
45A
 10
30464.819909
 20
27720.191505
 30
0.0
 40
2.75
 50
319.0
 51
327.58
  0
ARC
  8
3
  6
CONTINUOUS
 62
     2
  5
45B
 10
30461.319909
 20
27723.191505
 30
0.0
 40
7.25
 50
315.57
 51
319.27
  0
ARC
  8
3
  6
CONTINUOUS
 62
     2
  5
45C
 10
30439.819909
 20
27744.191505
 30
0.0
 40
37.25
 50
314.88
 51
315.66
  0
ARC
  8
3
  6
CONTINUOUS
 62
     2
  5
45D
 10
30460.319909
 20
27723.691505
 30
0.0
 40
8.5
 50
312.25
 51
315.02
  0
ARC
  8
3
  6
CONTINUOUS
 62
     2
  5
45E
 10
30458.569909
 20
27725.441505
 30
0.0
 40
10.75
 50
309.97
 51
312.27
  0
ARC
  8
3
  6
CONTINUOUS
 62
     2
  5
45F
 10
30457.569909
 20
27726.941505
 30
0.0
 40
12.5
 50
307.95
 51
309.98
  0
ARC
  8
3
  6
CONTINUOUS
 62
     2
  5
460
 10
30459.819909
 20
27723.941505
 30
0.0
 40
8.75
 50
306.46
 51
307.95
  0
ARC
  8
3
  6
CONTINUOUS
 62
     2
  5
461
 10
30459.069909
 20
27724.941505
 30
0.0
 40
10.25
 50
305.16
 51
306.46
  0
ARC
  8
3
  6
CONTINUOUS
 62
     2
  5
462
 10
30458.069909
 20
27726.191505
 30
0.0
 40
11.5
 50
304.02
 51
305.16
  0
ARC
  8
3
  6
CONTINUOUS
 62
     2
  5
463
 10
30458.569909
 20
27725.441505
 30
0.0
 40
10.75
 50
302.41
 51
304.02
  0
ARC
  8
3
  6
CONTINUOUS
 62
     2
  5
464
 10
30458.569909
 20
27725.441505
 30
0.0
 40
10.75
 50
300.82
 51
302.41
  0
ARC
  8
3
  6
CONTINUOUS
 62
     2
  5
465
 10
30458.819909
 20
27725.191505
 30
0.0
 40
10.25
 50
299.2
 51
300.83
  0
ARC
  8
3
  6
CONTINUOUS
 62
     2
  5
466
 10
30458.319909
 20
27726.191505
 30
0.0
 40
11.5
 50
297.82
 51
299.2
  0
ARC
  8
3
  6
CONTINUOUS
 62
     2
  5
467
 10
30458.569909
 20
27725.691505
 30
0.0
 40
10.75
 50
296.39
 51
297.83
  0
ARC
  8
3
  6
CONTINUOUS
 62
     2
  5
468
 10
30459.069909
 20
27724.691505
 30
0.0
 40
9.75
 50
294.85
 51
296.39
  0
ARC
  8
3
  6
CONTINUOUS
 62
     2
  5
469
 10
30457.819909
 20
27726.941505
 30
0.0
 40
12.5
 50
291.95
 51
294.87
  0
ARC
  8
3
  6
CONTINUOUS
 62
     2
  5
46A
 10
30458.569909
 20
27725.191505
 30
0.0
 40
10.5
 50
288.78
 51
291.97
  0
ARC
  8
3
  6
CONTINUOUS
 62
     2
  5
46B
 10
30487.069909
 20
27687.191505
 30
0.0
 40
26.25
 50
141.05
 51
144.95
  0
ARC
  8
3
  6
CONTINUOUS
 62
     2
  5
46C
 10
30487.819909
 20
27686.691505
 30
0.0
 40
27.25
 50
137.29
 51
141.05
  0
ARC
  8
3
  6
CONTINUOUS
 62
     2
  5
46D
 10
30488.569909
 20
27686.191505
 30
0.0
 40
27.75
 50
133.63
 51
137.29
  0
LINE
  8
3
  6
CONTINUOUS
 62
     2
  5
46E
 10
30539.819909
 20
27668.691505
 30
0.0
 11
30539.819909
 21
27717.191505
 31
0.0
  0
LINE
  8
3
  6
CONTINUOUS
 62
     2
  5
46F
 10
30520.069909
 20
27715.441505
 30
0.0
 11
30520.069909
 21
27664.441505
 31
0.0
  0
LINE
  8
3
  6
CONTINUOUS
 62
     2
  5
470
 10
30589.819909
 20
27668.691505
 30
0.0
 11
30539.819909
 21
27668.691505
 31
0.0
  0
LINE
  8
3
  6
CONTINUOUS
 62
     2
  5
471
 10
30535.069909
 20
27664.441505
 30
0.0
 11
30560.069909
 21
27664.441505
 31
0.0
  0
LINE
  8
3
  6
CONTINUOUS
 62
     2
  5
472
 10
30560.069909
 20
27664.441505
 30
0.0
 11
30578.069909
 21
27664.441505
 31
0.0
  0
LINE
  8
3
  6
CONTINUOUS
 62
     2
  5
473
 10
30520.069909
 20
27664.441505
 30
0.0
 11
30535.069909
 21
27664.441505
 31
0.0
  0
LINE
  8
3
  6
CONTINUOUS
 62
     2
  5
474
 10
30553.319909
 20
27664.441505
 30
0.0
 11
30554.819909
 21
27664.441505
 31
0.0
  0
ARC
  8
3
  6
CONTINUOUS
 62
     2
  5
475
 10
30589.819909
 20
27663.691505
 30
0.0
 40
4.75
 50
359.99
 51
90.0
  0
LINE
  8
3
  6
CONTINUOUS
 62
     2
  5
476
 10
30506.319909
 20
27716.191505
 30
0.0
 11
30514.819909
 21
27716.691505
 31
0.0
  0
ARC
  8
3
  6
CONTINUOUS
 62
     2
  5
477
 10
30491.569909
 20
27681.691505
 30
0.0
 40
33.25
 50
110.05
 51
113.3
  0
ARC
  8
3
  6
CONTINUOUS
 62
     2
  5
478
 10
30489.819909
 20
27684.691505
 30
0.0
 40
30.0
 50
126.55
 51
130.03
  0
ARC
  8
3
  6
CONTINUOUS
 62
     2
  5
479
 10
30490.319909
 20
27683.941505
 30
0.0
 40
30.75
 50
123.17
 51
126.55
  0
ARC
  8
3
  6
CONTINUOUS
 62
     2
  5
47A
 10
30490.819909
 20
27683.441505
 30
0.0
 40
31.5
 50
119.8
 51
123.17
  0
ARC
  8
3
  6
CONTINUOUS
 62
     2
  5
47B
 10
30491.069909
 20
27682.691505
 30
0.0
 40
32.25
 50
116.52
 51
119.8
  0
ARC
  8
3
  6
CONTINUOUS
 62
     2
  5
47C
 10
30491.319909
 20
27682.191505
 30
0.0
 40
32.75
 50
113.3
 51
116.52
  0
ARC
  8
3
  6
CONTINUOUS
 62
     2
  5
47D
 10
30491.819909
 20
27681.441505
 30
0.0
 40
33.75
 50
106.84
 51
110.05
  0
LINE
  8
3
  6
CONTINUOUS
 62
     2
  5
47E
 10
30489.319909
 20
27715.191505
 30
0.0
 11
30498.069909
 21
27715.691505
 31
0.0
  0
ARC
  8
3
  6
CONTINUOUS
 62
     2
  5
47F
 10
30491.819909
 20
27681.191505
 30
0.0
 40
33.75
 50
103.65
 51
106.84
  0
ARC
  8
3
  6
CONTINUOUS
 62
     2
  5
480
 10
30491.819909
 20
27681.191505
 30
0.0
 40
33.75
 50
100.38
 51
103.65
  0
ARC
  8
3
  6
CONTINUOUS
 62
     2
  5
481
 10
30491.569909
 20
27681.441505
 30
0.0
 40
33.75
 50
97.1
 51
100.38
  0
ARC
  8
3
  6
CONTINUOUS
 62
     2
  5
482
 10
30491.569909
 20
27681.941505
 30
0.0
 40
33.0
 50
93.78
 51
97.1
  0
LINE
  8
3
  6
CONTINUOUS
 62
     2
  5
483
 10
30498.069909
 20
27715.691505
 30
0.0
 11
30506.319909
 21
27716.191505
 31
0.0
  0
ARC
  8
3
  6
CONTINUOUS
 62
     2
  5
484
 10
30516.319909
 20
27718.191505
 30
0.0
 40
0.75
 50
324.15
 51
343.79
  0
ARC
  8
3
  6
CONTINUOUS
 62
     2
  5
485
 10
30563.069909
 20
27704.941505
 30
0.0
 40
47.75
 50
162.55
 51
164.31
  0
ARC
  8
3
  6
CONTINUOUS
 62
     2
  5
486
 10
30514.319909
 20
27723.191505
 30
0.0
 40
6.25
 50
273.78
 51
279.24
  0
ARC
  8
3
  6
CONTINUOUS
 62
     2
  5
487
 10
30514.569909
 20
27721.691505
 30
0.0
 40
4.75
 50
279.14
 51
285.6
  0
ARC
  8
3
  6
CONTINUOUS
 62
     2
  5
488
 10
30515.069909
 20
27719.941505
 30
0.0
 40
2.75
 50
285.38
 51
294.6
  0
ARC
  8
3
  6
CONTINUOUS
 62
     2
  5
489
 10
30515.569909
 20
27718.941505
 30
0.0
 40
1.75
 50
294.72
 51
307.93
  0
ARC
  8
3
  6
CONTINUOUS
 62
     2
  5
48A
 10
30516.069909
 20
27718.441505
 30
0.0
 40
1.0
 50
307.88
 51
324.15
  0
ARC
  8
3
  6
CONTINUOUS
 62
     2
  5
48B
 10
30515.569909
 20
27713.441505
 30
0.0
 40
4.75
 50
23.9
 51
30.07
  0
ARC
  8
3
  6
CONTINUOUS
 62
     2
  5
48C
 10
30515.819909
 20
27713.691505
 30
0.0
 40
4.5
 50
30.06
 51
36.51
  0
ARC
  8
3
  6
CONTINUOUS
 62
     2
  5
48D
 10
30516.069909
 20
27713.691505
 30
0.0
 40
4.25
 50
36.55
 51
43.07
  0
ARC
  8
3
  6
CONTINUOUS
 62
     2
  5
48E
 10
30516.069909
 20
27713.691505
 30
0.0
 40
4.25
 50
43.05
 51
49.75
  0
ARC
  8
3
  6
CONTINUOUS
 62
     2
  5
48F
 10
30516.319909
 20
27713.941505
 30
0.0
 40
4.0
 50
49.74
 51
56.85
  0
ARC
  8
3
  6
CONTINUOUS
 62
     2
  5
490
 10
30516.319909
 20
27714.191505
 30
0.0
 40
3.75
 50
56.91
 51
64.2
  0
ARC
  8
3
  6
CONTINUOUS
 62
     2
  5
491
 10
30516.319909
 20
27714.191505
 30
0.0
 40
3.75
 50
64.18
 51
71.61
  0
ARC
  8
3
  6
CONTINUOUS
 62
     2
  5
492
 10
30516.569909
 20
27714.441505
 30
0.0
 40
3.5
 50
71.59
 51
79.45
  0
LINE
  8
3
  6
CONTINUOUS
 62
     2
  5
493
 10
30459.819909
 20
27730.941505
 30
0.0
 11
30601.319909
 21
27730.941505
 31
0.0
  0
ARC
  8
3
  6
CONTINUOUS
 62
     2
  5
494
 10
30440.569909
 20
27722.191505
 30
0.0
 40
29.25
 50
7.22
 51
8.97
  0
ARC
  8
3
  6
CONTINUOUS
 62
     2
  5
495
 10
30461.069909
 20
27725.441505
 30
0.0
 40
8.25
 50
353.27
 51
356.29
  0
LINE
  8
3
  6
CONTINUOUS
 62
     2
  5
496
 10
30452.819909
 20
27721.941505
 30
0.0
 11
30452.819909
 21
27723.941505
 31
0.0
  0
ARC
  8
3
  6
CONTINUOUS
 62
     2
  5
497
 10
30459.819909
 20
27723.941505
 30
0.0
 40
7.0
 50
90.0
 51
180.04
  0
ARC
  8
3
  6
CONTINUOUS
 62
     2
  5
498
 10
30456.569909
 20
27723.941505
 30
0.0
 40
13.0
 50
21.84
 51
24.59
  0
ARC
  8
3
  6
CONTINUOUS
 62
     2
  5
499
 10
30451.819909
 20
27722.191505
 30
0.0
 40
18.0
 50
19.65
 51
21.85
  0
ARC
  8
3
  6
CONTINUOUS
 62
     2
  5
49A
 10
30466.319909
 20
27727.191505
 30
0.0
 40
2.75
 50
18.24
 51
19.68
  0
ARC
  8
3
  6
CONTINUOUS
 62
     2
  5
49B
 10
30465.819909
 20
27727.191505
 30
0.0
 40
3.25
 50
17.0
 51
18.25
  0
ARC
  8
3
  6
CONTINUOUS
 62
     2
  5
49C
 10
30465.069909
 20
27726.941505
 30
0.0
 40
4.25
 50
15.92
 51
17.0
  0
ARC
  8
3
  6
CONTINUOUS
 62
     2
  5
49D
 10
30462.069909
 20
27725.941505
 30
0.0
 40
7.25
 50
11.43
 51
15.62
  0
ARC
  8
3
  6
CONTINUOUS
 62
     2
  5
49E
 10
30453.819909
 20
27724.441505
 30
0.0
 40
15.5
 50
8.93
 51
11.53
  0
ARC
  8
3
  6
CONTINUOUS
 62
     2
  5
49F
 10
30457.069909
 20
27725.941505
 30
0.0
 40
12.25
 50
350.99
 51
353.29
  0
ARC
  8
3
  6
CONTINUOUS
 62
     2
  5
4A0
 10
30451.569909
 20
27726.941505
 30
0.0
 40
18.0
 50
349.24
 51
351.0
  0
ARC
  8
3
  6
CONTINUOUS
 62
     2
  5
4A1
 10
30460.569909
 20
27725.191505
 30
0.0
 40
8.75
 50
345.99
 51
349.21
  0
ARC
  8
3
  6
CONTINUOUS
 62
     2
  5
4A2
 10
30457.569909
 20
27725.691505
 30
0.0
 40
11.75
 50
343.33
 51
346.0
  0
ARC
  8
3
  6
CONTINUOUS
 62
     2
  5
4A3
 10
30454.069909
 20
27726.941505
 30
0.0
 40
15.5
 50
341.13
 51
343.34
  0
ARC
  8
3
  6
CONTINUOUS
 62
     2
  5
4A4
 10
30461.069909
 20
27724.441505
 30
0.0
 40
8.25
 50
335.26
 51
340.98
  0
ARC
  8
3
  6
CONTINUOUS
 62
     2
  5
4A5
 10
30457.319909
 20
27726.191505
 30
0.0
 40
12.0
 50
330.74
 51
335.3
  0
ARC
  8
3
  6
CONTINUOUS
 62
     2
  5
4A6
 10
30466.069909
 20
27725.441505
 30
0.0
 40
3.5
 50
4.43
 51
5.95
  0
ARC
  8
3
  6
CONTINUOUS
 62
     2
  5
4A7
 10
30468.069909
 20
27725.441505
 30
0.0
 40
1.25
 50
354.67
 51
3.66
  0
LINE
  8
3
  6
CONTINUOUS
 62
     2
  5
4A8
 10
30469.569909
 20
27725.941505
 30
0.0
 11
30469.569909
 21
27725.691505
 31
0.0
  0
ARC
  8
3
  6
CONTINUOUS
 62
     2
  5
4A9
 10
30464.069909
 20
27725.191505
 30
0.0
 40
5.25
 50
5.95
 51
6.94
  0
ARC
  8
3
  6
CONTINUOUS
 62
     2
  5
4AA
 10
30463.069909
 20
27725.941505
 30
0.0
 40
6.25
 50
352.7
 51
354.82
  0
ARC
  8
3
  6
CONTINUOUS
 62
     2
  5
4AB
 10
30474.069909
 20
27724.691505
 30
0.0
 40
4.5
 50
172.8
 51
176.03
  0
LINE
  8
3
  6
CONTINUOUS
 62
     2
  5
4AC
 10
30542.819909
 20
27720.191505
 30
0.0
 11
30609.319909
 21
27720.191505
 31
0.0
  0
ARC
  8
3
  6
CONTINUOUS
 62
     2
  5
4AD
 10
30532.819909
 20
27717.191505
 30
0.0
 40
14.75
 50
147.24
 51
150.17
  0
ARC
  8
3
  6
CONTINUOUS
 62
     2
  5
4AE
 10
30548.819909
 20
27709.691505
 30
0.0
 40
32.5
 50
158.41
 51
160.6
  0
ARC
  8
3
  6
CONTINUOUS
 62
     2
  5
4AF
 10
30543.569909
 20
27711.941505
 30
0.0
 40
26.75
 50
155.98
 51
158.42
  0
ARC
  8
3
  6
CONTINUOUS
 62
     2
  5
4B0
 10
30539.069909
 20
27713.941505
 30
0.0
 40
22.0
 50
153.25
 51
155.99
  0
ARC
  8
3
  6
CONTINUOUS
 62
     2
  5
4B1
 10
30535.319909
 20
27715.691505
 30
0.0
 40
18.0
 50
150.18
 51
153.26
  0
ARC
  8
3
  6
CONTINUOUS
 62
     2
  5
4B2
 10
30530.819909
 20
27718.441505
 30
0.0
 40
12.5
 50
143.98
 51
147.24
  0
ARC
  8
3
  6
CONTINUOUS
 62
     2
  5
4B3
 10
30529.069909
 20
27719.691505
 30
0.0
 40
10.5
 50
140.38
 51
143.98
  0
ARC
  8
3
  6
CONTINUOUS
 62
     2
  5
4B4
 10
30522.069909
 20
27725.441505
 30
0.0
 40
1.25
 50
126.99
 51
139.77
  0
ARC
  8
3
  6
CONTINUOUS
 62
     2
  5
4B5
 10
30522.569909
 20
27724.691505
 30
0.0
 40
2.25
 50
118.09
 51
127.1
  0
ARC
  8
3
  6
CONTINUOUS
 62
     2
  5
4B6
 10
30523.319909
 20
27723.191505
 30
0.0
 40
3.75
 50
111.77
 51
118.19
  0
ARC
  8
3
  6
CONTINUOUS
 62
     2
  5
4B7
 10
30524.319909
 20
27721.191505
 30
0.0
 40
6.25
 50
107.18
 51
111.82
  0
ARC
  8
3
  6
CONTINUOUS
 62
     2
  5
4B8
 10
30525.319909
 20
27717.691505
 30
0.0
 40
9.75
 50
103.79
 51
107.23
  0
ARC
  8
3
  6
CONTINUOUS
 62
     2
  5
4B9
 10
30526.569909
 20
27713.191505
 30
0.0
 40
14.25
 50
101.16
 51
103.81
  0
ARC
  8
3
  6
CONTINUOUS
 62
     2
  5
4BA
 10
30527.569909
 20
27707.191505
 30
0.0
 40
20.5
 50
99.12
 51
101.18
  0
ARC
  8
3
  6
CONTINUOUS
 62
     2
  5
4BB
 10
30528.819909
 20
27699.441505
 30
0.0
 40
28.5
 50
97.5
 51
99.13
  0
ARC
  8
3
  6
CONTINUOUS
 62
     2
  5
4BC
 10
30530.319909
 20
27689.941505
 30
0.0
 40
38.0
 50
96.18
 51
97.5
  0
ARC
  8
3
  6
CONTINUOUS
 62
     2
  5
4BD
 10
30531.569909
 20
27677.691505
 30
0.0
 40
50.25
 50
95.1
 51
96.18
  0
ARC
  8
3
  6
CONTINUOUS
 62
     2
  5
4BE
 10
30532.819909
 20
27662.691505
 30
0.0
 40
65.5
 50
94.22
 51
95.11
  0
ARC
  8
3
  6
CONTINUOUS
 62
     2
  5
4BF
 10
30534.069909
 20
27644.941505
 30
0.0
 40
83.0
 50
93.47
 51
94.22
  0
ARC
  8
3
  6
CONTINUOUS
 62
     2
  5
4C0
 10
30545.569909
 20
27460.941505
 30
0.0
 40
268.0
 50
93.28
 51
93.49
  0
ARC
  8
3
  6
CONTINUOUS
 62
     2
  5
4C1
 10
30543.569909
 20
27491.691505
 30
0.0
 40
237.0
 50
93.04
 51
93.28
  0
ARC
  8
3
  6
CONTINUOUS
 62
     2
  5
4C2
 10
30542.569909
 20
27513.691505
 30
0.0
 40
215.0
 50
92.78
 51
93.04
  0
ARC
  8
3
  6
CONTINUOUS
 62
     2
  5
4C3
 10
30601.319909
 20
27723.941505
 30
0.0
 40
7.0
 50
0.0
 51
90.0
  0
LINE
  8
3
  6
CONTINUOUS
 62
     2
  5
4C4
 10
30608.319909
 20
27723.941505
 30
0.0
 11
30608.319909
 21
27720.191505
 31
0.0
  0
LINE
  8
3
  6
CONTINUOUS
 62
     2
  5
4C5
 10
30353.138092
 20
27423.983901
 30
0.0
 11
30310.431296
 21
27423.983901
 31
0.0
  0
LINE
  8
3
  6
CONTINUOUS
 62
     2
  5
4C6
 10
30353.138092
 20
27428.983901
 30
0.0
 11
30310.431296
 21
27428.983901
 31
0.0
  0
LINE
  8
3
  6
CONTINUOUS
 62
     2
  5
4C7
 10
30313.475527
 20
27388.142827
 30
0.0
 11
30308.11834
 21
27388.142827
 31
0.0
  0
LINE
  8
3
  6
CONTINUOUS
 62
     2
  5
4C8
 10
30313.475527
 20
27388.142827
 30
0.0
 11
30313.475527
 21
27460.142827
 31
0.0
  0
LINE
  8
3
  6
CONTINUOUS
 62
     2
  5
4C9
 10
30313.475527
 20
27460.142827
 30
0.0
 11
30308.11834
 21
27460.142827
 31
0.0
  0
LINE
  8
11
  6
CONTINUOUS
 62
     2
  5
4CA
 10
30348.623085
 20
27428.38412
 30
0.0
 11
30348.623085
 21
27629.579427
 31
0.0
  0
LINE
  8
11
  6
CONTINUOUS
 62
     2
  5
4CB
 10
30310.623085
 20
27523.504905
 30
0.0
 11
30351.075909
 21
27523.504905
 31
0.0
  0
LINE
  8
11
  6
CONTINUOUS
 62
     2
  5
4CC
 10
30452.819909
 20
27323.504905
 30
0.0
 11
30310.623085
 21
27323.504905
 31
0.0
  0
LINE
  8
11
  6
CONTINUOUS
 62
     2
  5
4CD
 10
30310.623085
 20
27623.504905
 30
0.0
 11
30386.528779
 21
27623.504905
 31
0.0
  0
LINE
  8
11
  6
CONTINUOUS
 62
     2
  5
4CE
 10
30310.623085
 20
27423.504905
 30
0.0
 11
30398.962545
 21
27423.504905
 31
0.0
  0
LINE
  8
3
  6
CONTINUOUS
 62
     5
  5
4CF
 10
30310.872199
 20
27517.142827
 30
0.0
 11
30324.872199
 21
27531.142827
 31
0.0
  0
LINE
  8
3
  6
CONTINUOUS
 62
     5
  5
4D0
 10
30324.872199
 20
27517.142827
 30
0.0
 11
30310.872199
 21
27531.142827
 31
0.0
  0
LINE
  8
3
  6
CONTINUOUS
 62
     5
  5
4D1
 10
30324.872199
 20
27636.892827
 30
0.0
 11
30310.872199
 21
27651.142827
 31
0.0
  0
LINE
  8
3
  6
CONTINUOUS
 62
     5
  5
4D2
 10
30310.872199
 20
27636.892827
 30
0.0
 11
30324.872199
 21
27651.142827
 31
0.0
  0
LINE
  8
3
  6
CONTINUOUS
 62
     5
  5
4D3
 10
30310.872199
 20
27636.892827
 30
0.0
 11
30324.872199
 21
27651.142827
 31
0.0
  0
LINE
  8
3
  6
CONTINUOUS
 62
     5
  5
4D4
 10
30324.872199
 20
27636.892827
 30
0.0
 11
30310.872199
 21
27651.142827
 31
0.0
  0
ARC
  8
0
  6
CONTINUOUS
 62
     2
  5
4D5
 10
30380.786213
 20
25840.269317
 30
0.0
 40
30.0
 50
179.49
 51
243.93
  0
LINE
  8
0
  6
CONTINUOUS
 62
     2
  5
4D6
 10
30314.786213
 20
25540.769317
 30
0.0
 11
30300.786213
 21
25554.769317
 31
0.0
  0
LINE
  8
0
  6
CONTINUOUS
 62
     2
  5
4D7
 10
30300.786213
 20
25540.769317
 30
0.0
 11
30314.786213
 21
25554.769317
 31
0.0
  0
ARC
  8
0
  6
CONTINUOUS
 62
     2
  5
4D8
 10
30723.036213
 20
25536.019317
 30
0.0
 40
200.0
 50
3.42
 51
20.16
  0
LINE
  8
0
  6
CONTINUOUS
 62
     2
  5
4D9
 10
30389.786213
 20
25619.269317
 30
0.0
 11
30387.286213
 21
25547.769317
 31
0.0
  0
LINE
  8
0
  6
CONTINUOUS
 62
     2
  5
4DA
 10
30595.286213
 20
25540.769317
 30
0.0
 11
30609.286213
 21
25554.769317
 31
0.0
  0
LINE
  8
0
  6
CONTINUOUS
 62
     2
  5
4DB
 10
30609.286213
 20
25540.769317
 30
0.0
 11
30595.286213
 21
25554.769317
 31
0.0
  0
LINE
  8
0
  6
CONTINUOUS
 62
     2
  5
4DC
 10
30598.036213
 20
25826.519317
 30
0.0
 11
30612.786213
 21
25806.519317
 31
0.0
  0
LINE
  8
0
  6
CONTINUOUS
 62
     2
  5
4DD
 10
30612.786213
 20
25806.519317
 30
0.0
 11
30628.036213
 21
25786.769317
 31
0.0
  0
LINE
  8
0
  6
CONTINUOUS
 62
     2
  5
4DE
 10
30628.036213
 20
25786.769317
 30
0.0
 11
30644.036213
 21
25767.269317
 31
0.0
  0
LINE
  8
0
  6
CONTINUOUS
 62
     2
  5
4DF
 10
30644.036213
 20
25767.269317
 30
0.0
 11
30658.786213
 21
25750.269317
 31
0.0
  0
ARC
  8
0
  6
CONTINUOUS
 62
     2
  5
4E0
 10
30797.786213
 20
25916.769317
 30
0.0
 40
200.0
 50
330.56
 51
357.28
  0
LINE
  8
0
  6
CONTINUOUS
 62
     2
  5
4E1
 10
30347.786213
 20
25877.769317
 30
0.0
 11
30350.786213
 21
25840.519317
 31
0.0
  0
ARC
  8
0
  6
CONTINUOUS
 62
     2
  5
4E2
 10
30876.286213
 20
25872.519317
 30
0.0
 40
110.0
 50
297.33
 51
330.56
  0
ARC
  8
0
  6
CONTINUOUS
 62
     2
  5
4E3
 10
30687.786213
 20
25702.769317
 30
0.0
 40
16.75
 50
0.0
 51
64.85
  0
ARC
  8
0
  6
CONTINUOUS
 62
     2
  5
4E4
 10
30908.036213
 20
25722.269317
 30
0.0
 40
40.0
 50
112.01
 51
202.25
  0
LINE
  8
0
  6
CONTINUOUS
 62
     2
  5
4E5
 10
30564.536213
 20
25702.519317
 30
0.0
 11
30509.286213
 21
25781.519317
 31
0.0
  0
LINE
  8
0
  6
CONTINUOUS
 62
     2
  5
4E6
 10
30465.786213
 20
25772.269317
 30
0.0
 11
30475.536213
 21
25666.269317
 31
0.0
  0
LINE
  8
0
  6
CONTINUOUS
 62
     2
  5
4E7
 10
30465.786213
 20
25772.269317
 30
0.0
 11
30475.536213
 21
25666.269317
 31
0.0
  0
LINE
  8
0
  6
CONTINUOUS
 62
     2
  5
4E8
 10
30370.286213
 20
25675.769317
 30
0.0
 11
30389.036213
 21
25787.019317
 31
0.0
  0
ARC
  8
0
  6
CONTINUOUS
 62
     2
  5
4E9
 10
30630.286213
 20
25800.769317
 30
0.0
 40
128.0
 50
270.0
 51
284.14
  0
ARC
  8
0
  6
CONTINUOUS
 62
     2
  5
4EA
 10
30552.036213
 20
25340.019317
 30
0.0
 40
301.0
 50
69.57
 51
76.49
  0
LINE
  8
0
  6
CONTINUOUS
 62
     2
  5
4EB
 10
30674.536213
 20
25572.769317
 30
0.0
 11
30449.536213
 21
25572.769317
 31
0.0
  0
ARC
  8
0
  6
CONTINUOUS
 62
     2
  5
4EC
 10
30552.036213
 20
25340.019317
 30
0.0
 40
301.0
 50
76.49
 51
81.31
  0
ARC
  8
0
  6
CONTINUOUS
 62
     2
  5
4ED
 10
30419.786213
 20
25618.269317
 30
0.0
 40
30.0
 50
133.86
 51
178.09
  0
ARC
  8
0
  6
CONTINUOUS
 62
     2
  5
4EE
 10
30499.786213
 20
25651.269317
 30
0.0
 40
100.0
 50
179.25
 51
224.38
  0
ARC
  8
0
  6
CONTINUOUS
 62
     2
  5
4EF
 10
30502.286213
 20
25582.769317
 30
0.0
 40
7.0
 50
39.12
 51
140.87
  0
LINE
  8
0
  6
CONTINUOUS
 62
     2
  5
4F0
 10
30519.536213
 20
25572.769317
 30
0.0
 11
30449.536213
 21
25572.769317
 31
0.0
  0
ARC
  8
0
  6
CONTINUOUS
 62
     2
  5
4F1
 10
30516.286213
 20
25571.269317
 30
0.0
 40
25.0
 50
140.87
 51
176.88
  0
ARC
  8
0
  6
CONTINUOUS
 62
     2
  5
4F2
 10
30449.536213
 20
25602.769317
 30
0.0
 40
30.0
 50
222.91
 51
270.0
  0
ARC
  8
0
  6
CONTINUOUS
 62
     2
  5
4F3
 10
30559.036213
 20
25570.019317
 30
0.0
 40
60.0
 50
4.31
 51
24.63
  0
ARC
  8
0
  6
CONTINUOUS
 62
     2
  5
4F4
 10
30646.286213
 20
25570.019317
 30
0.0
 40
60.0
 50
155.36
 51
175.68
  0
ARC
  8
0
  6
CONTINUOUS
 62
     2
  5
4F5
 10
30488.286213
 20
25571.269317
 30
0.0
 40
25.0
 50
3.11
 51
39.12
  0
ARC
  8
0
  6
CONTINUOUS
 62
     2
  5
4F6
 10
30602.536213
 20
25590.269317
 30
0.0
 40
12.0
 50
24.63
 51
155.36
  0
LINE
  8
0
  6
CONTINUOUS
 62
     2
  5
4F7
 10
30552.036213
 20
25640.769317
 30
0.0
 11
30477.786213
 21
25640.769317
 31
0.0
  0
ARC
  8
0
  6
CONTINUOUS
 62
     2
  5
4F8
 10
30380.286213
 20
25674.019317
 30
0.0
 40
10.0
 50
170.49
 51
260.83
  0
LINE
  8
0
  6
CONTINUOUS
 62
     2
  5
4F9
 10
30398.286213
 20
25660.769317
 30
0.0
 11
30475.786213
 21
25660.769317
 31
0.0
  0
LINE
  8
0
  6
CONTINUOUS
 62
     2
  5
4FA
 10
30399.786213
 20
25658.269317
 30
0.0
 11
30399.786213
 21
25642.019317
 31
0.0
  0
ARC
  8
0
  6
CONTINUOUS
 62
     2
  5
4FB
 10
30396.786213
 20
25642.019317
 30
0.0
 40
3.0
 50
313.86
 51
360.0
  0
LINE
  8
0
  6
CONTINUOUS
 62
     2
  5
4FC
 10
30378.536213
 20
25664.269317
 30
0.0
 11
30397.286213
 21
25661.269317
 31
0.0
  0
ARC
  8
0
  6
CONTINUOUS
 62
     2
  5
4FD
 10
30396.786213
 20
25658.269317
 30
0.0
 40
3.0
 50
0.0
 51
80.83
  0
LINE
  8
0
  6
CONTINUOUS
 62
     2
  5
4FE
 10
30475.786213
 20
25659.019317
 30
0.0
 11
30475.786213
 21
25643.769317
 31
0.0
  0
ARC
  8
0
  6
CONTINUOUS
 62
     2
  5
4FF
 10
30478.786213
 20
25643.769317
 30
0.0
 40
3.0
 50
180.0
 51
270.0
  0
ARC
  8
0
  6
CONTINUOUS
 62
     2
  5
500
 10
30397.786213
 20
25659.019317
 30
0.0
 40
78.0
 50
0.0
 51
5.22
  0
ARC
  8
0
  6
CONTINUOUS
 62
     2
  5
501
 10
30333.536213
 20
25677.769317
 30
0.0
 40
141.0
 50
0.0
 51
0.01
  0
ARC
  8
0
  6
CONTINUOUS
 62
     2
  5
502
 10
30621.786213
 20
25742.769317
 30
0.0
 40
70.0
 50
250.55
 51
270.0
  0
ARC
  8
0
  6
CONTINUOUS
 62
     2
  5
503
 10
30552.036213
 20
25340.019317
 30
0.0
 40
301.0
 50
81.31
 51
90.0
  0
ARC
  8
0
  6
CONTINUOUS
 62
     2
  5
504
 10
30621.786213
 20
25742.769317
 30
0.0
 40
70.0
 50
214.9
 51
250.55
  0
LINE
  8
0
  6
CONTINUOUS
 62
     2
  5
505
 10
30622.786213
 20
25672.769317
 30
0.0
 11
30630.286213
 21
25672.769317
 31
0.0
  0
LINE
  8
0
  6
CONTINUOUS
 62
     2
  5
506
 10
30910.786213
 20
25604.769317
 30
0.0
 11
30902.036213
 21
25628.019317
 31
0.0
  0
LINE
  8
0
  6
CONTINUOUS
 62
     2
  5
507
 10
30902.036213
 20
25628.019317
 30
0.0
 11
30893.036213
 21
25651.519317
 31
0.0
  0
LINE
  8
0
  6
CONTINUOUS
 62
     2
  5
508
 10
30893.036213
 20
25651.519317
 30
0.0
 11
30884.036213
 21
25674.769317
 31
0.0
  0
LINE
  8
0
  6
CONTINUOUS
 62
     2
  5
509
 10
30884.036213
 20
25674.769317
 30
0.0
 11
30874.786213
 21
25698.019317
 31
0.0
  0
LINE
  8
0
  6
CONTINUOUS
 62
     2
  5
50A
 10
30874.786213
 20
25698.019317
 30
0.0
 11
30871.036213
 21
25707.019317
 31
0.0
  0
LINE
  8
0
  6
CONTINUOUS
 62
     2
  5
50B
 10
30665.536213
 20
25674.519317
 30
0.0
 11
30662.286213
 21
25624.019317
 31
0.0
  0
LINE
  8
0
  6
CONTINUOUS
 62
     2
  5
50C
 10
30704.536213
 20
25602.769317
 30
0.0
 11
30704.536213
 21
25702.769317
 31
0.0
  0
ARC
  8
0
  6
CONTINUOUS
 62
     2
  5
50D
 10
30674.536213
 20
25602.769317
 30
0.0
 40
30.0
 50
270.0
 51
360.0
  0
ARC
  8
0
  6
CONTINUOUS
 62
     2
  5
50E
 10
30659.286213
 20
25624.269317
 30
0.0
 40
3.0
 50
249.37
 51
352.65
  0
ARC
  8
0
  6
CONTINUOUS
 62
     2
  5
50F
 10
30662.536213
 20
25673.519317
 30
0.0
 40
3.0
 50
356.28
 51
100.9
  0
ARC
  8
0
  6
CONTINUOUS
 62
     2
  5
510
 10
30493.786213
 20
25770.769317
 30
0.0
 40
19.0
 50
34.9
 51
90.0
  0
LINE
  8
0
  6
CONTINUOUS
 62
     2
  5
511
 10
30470.036213
 20
25779.269317
 30
0.0
 11
30493.036213
 21
25789.519317
 31
0.0
  0
ARC
  8
0
  6
CONTINUOUS
 62
     2
  5
512
 10
30472.786213
 20
25772.769317
 30
0.0
 40
85.0
 50
163.53
 51
170.49
  0
ARC
  8
0
  6
CONTINUOUS
 62
     2
  5
513
 10
30473.786213
 20
25772.269317
 30
0.0
 40
8.0
 50
113.87
 51
185.22
  0
ARC
  8
0
  6
CONTINUOUS
 62
     2
  5
514
 10
30472.786213
 20
25772.769317
 30
0.0
 40
77.0
 50
113.87
 51
150.71
  0
LINE
  8
0
  6
CONTINUOUS
 62
     2
  5
515
 10
30367.536213
 20
25813.269317
 30
0.0
 11
30388.536213
 21
25802.769317
 31
0.0
  0
ARC
  8
0
  6
CONTINUOUS
 62
     2
  5
516
 10
30390.786213
 20
25821.019317
 30
0.0
 40
18.0
 50
264.12
 51
324.96
  0
ARC
  8
0
  6
CONTINUOUS
 62
     2
  5
517
 10
30386.536213
 20
25798.269317
 30
0.0
 40
5.0
 50
343.53
 51
63.93
  0
ARC
  8
0
  6
CONTINUOUS
 62
     2
  5
518
 10
30493.786213
 20
25787.769317
 30
0.0
 40
2.0
 50
90.0
 51
113.87
  0
ARC
  8
0
  6
CONTINUOUS
 62
     2
  5
519
 10
30743.036213
 20
26130.019317
 30
0.0
 40
400.0
 50
262.3
 51
292.01
  0
ARC
  8
0
  6
CONTINUOUS
 62
     2
  5
51A
 10
30696.286213
 20
25783.269317
 30
0.0
 40
50.0
 50
221.29
 51
262.3
  0
ARC
  8
0
  6
CONTINUOUS
 62
     2
  5
51B
 10
30743.036213
 20
26130.019317
 30
0.0
 40
400.0
 50
292.01
 51
297.33
  0
LINE
  8
0
  6
CONTINUOUS
 62
     2
  5
51C
 10
30426.786213
 20
25947.269317
 30
0.0
 11
30426.786213
 21
25934.769317
 31
0.0
  0
LINE
  8
0
  6
CONTINUOUS
 62
     2
  5
51D
 10
30388.786213
 20
25947.269317
 30
0.0
 11
30388.786213
 21
25934.769317
 31
0.0
  0
LINE
  8
0
  6
CONTINUOUS
 62
     2
  5
51E
 10
30347.786213
 20
25877.769317
 30
0.0
 11
30350.036213
 21
25908.269317
 31
0.0
  0
LINE
  8
0
  6
CONTINUOUS
 62
     2
  5
51F
 10
30374.286213
 20
25922.519317
 30
0.0
 11
30374.286213
 21
25930.019317
 31
0.0
  0
LINE
  8
0
  6
CONTINUOUS
 62
     2
  5
520
 10
30368.286213
 20
25917.769317
 30
0.0
 11
30368.286213
 21
25922.519317
 31
0.0
  0
ARC
  8
0
  6
CONTINUOUS
 62
     2
  5
521
 10
30360.036213
 20
25907.769317
 30
0.0
 40
10.0
 50
90.0
 51
175.71
  0
LINE
  8
0
  6
CONTINUOUS
 62
     2
  5
522
 10
30378.786213
 20
25930.019317
 30
0.0
 11
30378.786213
 21
25934.769317
 31
0.0
  0
LINE
  8
0
  6
CONTINUOUS
 62
     2
  5
523
 10
30427.536213
 20
25947.269317
 30
0.0
 11
30407.786213
 21
25947.269317
 31
0.0
  0
ARC
  8
0
  6
CONTINUOUS
 62
     2
  5
524
 10
30393.286213
 20
25953.269317
 30
0.0
 40
8.0
 50
180.0
 51
228.58
  0
LINE
  8
0
  6
CONTINUOUS
 62
     2
  5
525
 10
30387.786213
 20
25947.269317
 30
0.0
 11
30407.786213
 21
25947.269317
 31
0.0
  0
ARC
  8
0
  6
CONTINUOUS
 62
     2
  5
526
 10
30422.286213
 20
25953.269317
 30
0.0
 40
8.0
 50
311.41
 51
360.0
  0
ARC
  8
0
  6
CONTINUOUS
 62
     2
  5
527
 10
30987.786213
 20
25907.769317
 30
0.0
 40
10.0
 50
357.28
 51
89.91
  0
LINE
  8
0
  6
CONTINUOUS
 62
     2
  5
528
 10
30816.536213
 20
25930.769317
 30
0.0
 11
31007.786213
 21
25926.519317
 31
0.0
  0
LINE
  8
0
  6
CONTINUOUS
 62
     2
  5
529
 10
30438.536213
 20
25945.269317
 30
0.0
 11
30817.536213
 21
25945.269317
 31
0.0
  0
LINE
  8
0
  6
CENTER
 62
     2
  5
52A
 10
30588.536213
 20
25823.769317
 30
0.0
 11
30342.536213
 21
25823.769317
 31
0.0
  0
ARC
  8
0
  6
CONTINUOUS
 62
     2
  5
52B
 10
30472.286213
 20
25859.519317
 30
0.0
 40
20.0
 50
181.4
 51
271.48
  0
ARC
  8
0
  6
CONTINUOUS
 62
     2
  5
52C
 10
30660.786213
 20
25945.269317
 30
0.0
 40
210.0
 50
162.36
 51
178.83
  0
LINE
  8
0
  6
CONTINUOUS
 62
     2
  5
52D
 10
30451.786213
 20
25880.269317
 30
0.0
 11
30450.536213
 21
25944.269317
 31
0.0
  0
LINE
  8
0
  6
CONTINUOUS
 62
     2
  5
52E
 10
30437.036213
 20
25901.269317
 30
0.0
 11
30436.536213
 21
25919.269317
 31
0.0
  0
LINE
  8
0
  6
CONTINUOUS
 62
     2
  5
52F
 10
30437.036213
 20
25901.269317
 30
0.0
 11
30450.036213
 21
25901.269317
 31
0.0
  0
LINE
  8
0
  6
CONTINUOUS
 62
     2
  5
530
 10
30451.786213
 20
25880.269317
 30
0.0
 11
30452.286213
 21
25859.269317
 31
0.0
  0
LINE
  8
0
  6
CONTINUOUS
 62
     2
  5
531
 10
30438.536213
 20
25915.269317
 30
0.0
 11
30451.036213
 21
25915.269317
 31
0.0
  0
LINE
  8
0
  6
CONTINUOUS
 62
     2
  5
532
 10
30433.536213
 20
25919.269317
 30
0.0
 11
30433.536213
 21
25947.769317
 31
0.0
  0
LINE
  8
0
  6
CONTINUOUS
 62
     2
  5
533
 10
30438.536213
 20
25919.269317
 30
0.0
 11
30433.536213
 21
25919.269317
 31
0.0
  0
LINE
  8
0
  6
CONTINUOUS
 62
     2
  5
534
 10
30433.536213
 20
25947.769317
 30
0.0
 11
30438.536213
 21
25947.769317
 31
0.0
  0
LINE
  8
0
  6
CONTINUOUS
 62
     2
  5
535
 10
30450.536213
 20
25945.269317
 30
0.0
 11
30450.786213
 21
25949.519317
 31
0.0
  0
ARC
  8
0
  6
CONTINUOUS
 62
     2
  5
536
 10
30603.286213
 20
26249.019317
 30
0.0
 40
400.0
 50
276.24
 51
289.81
  0
LINE
  8
0
  6
CONTINUOUS
 62
     2
  5
537
 10
30472.786213
 20
25839.519317
 30
0.0
 11
30497.786213
 21
25840.519317
 31
0.0
  0
LINE
  8
0
  6
CONTINUOUS
 62
     2
  5
538
 10
30497.786213
 20
25840.519317
 30
0.0
 11
30522.536213
 21
25841.519317
 31
0.0
  0
LINE
  8
0
  6
CONTINUOUS
 62
     2
  5
539
 10
30522.536213
 20
25841.519317
 30
0.0
 11
30547.536213
 21
25843.019317
 31
0.0
  0
LINE
  8
0
  6
CONTINUOUS
 62
     2
  5
53A
 10
30547.536213
 20
25843.019317
 30
0.0
 11
30572.536213
 21
25844.519317
 31
0.0
  0
LINE
  8
0
  6
CONTINUOUS
 62
     2
  5
53B
 10
30572.536213
 20
25844.519317
 30
0.0
 11
30597.536213
 21
25846.519317
 31
0.0
  0
LINE
  8
0
  6
CONTINUOUS
 62
     2
  5
53C
 10
30597.536213
 20
25846.519317
 30
0.0
 11
30622.286213
 21
25848.769317
 31
0.0
  0
LINE
  8
0
  6
CONTINUOUS
 62
     2
  5
53D
 10
30622.286213
 20
25848.769317
 30
0.0
 11
30647.036213
 21
25851.519317
 31
0.0
  0
LINE
  8
0
  6
CONTINUOUS
 62
     2
  5
53E
 10
30509.036213
 20
25836.519317
 30
0.0
 11
30491.036213
 21
25836.519317
 31
0.0
  0
LINE
  8
0
  6
CONTINUOUS
 62
     2
  5
53F
 10
30491.036213
 20
25836.519317
 30
0.0
 11
30509.036213
 21
25836.519317
 31
0.0
  0
LINE
  8
0
  6
CONTINUOUS
 62
     2
  5
540
 10
30491.036213
 20
25836.519317
 30
0.0
 11
30509.036213
 21
25836.519317
 31
0.0
  0
LINE
  8
0
  6
CONTINUOUS
 62
     2
  5
541
 10
30509.786213
 20
25824.519317
 30
0.0
 11
30490.286213
 21
25824.519317
 31
0.0
  0
LINE
  8
0
  6
CONTINUOUS
 62
     2
  5
542
 10
30509.786213
 20
25836.519317
 30
0.0
 11
30490.286213
 21
25836.519317
 31
0.0
  0
LINE
  8
0
  6
CONTINUOUS
 62
     2
  5
543
 10
30490.286213
 20
25836.519317
 30
0.0
 11
30490.286213
 21
25824.519317
 31
0.0
  0
LINE
  8
0
  6
CONTINUOUS
 62
     2
  5
544
 10
30491.036213
 20
25840.269317
 30
0.0
 11
30491.036213
 21
25836.519317
 31
0.0
  0
LINE
  8
0
  6
CONTINUOUS
 62
     2
  5
545
 10
30509.786213
 20
25836.519317
 30
0.0
 11
30509.786213
 21
25824.519317
 31
0.0
  0
LINE
  8
0
  6
CONTINUOUS
 62
     2
  5
546
 10
30509.036213
 20
25841.019317
 30
0.0
 11
30509.036213
 21
25836.519317
 31
0.0
  0
LINE
  8
0
  6
CONTINUOUS
 62
     2
  5
547
 10
30645.536213
 20
25816.769317
 30
0.0
 11
30590.786213
 21
25816.769317
 31
0.0
  0
LINE
  8
0
  6
CONTINUOUS
 62
     2
  5
548
 10
30645.536213
 20
25830.519317
 30
0.0
 11
30590.786213
 21
25830.519317
 31
0.0
  0
LINE
  8
0
  6
CONTINUOUS
 62
     2
  5
549
 10
30660.786213
 20
25790.269317
 30
0.0
 11
30631.786213
 21
25790.269317
 31
0.0
  0
LINE
  8
0
  6
CONTINUOUS
 62
     2
  5
54A
 10
30631.786213
 20
25809.769317
 30
0.0
 11
30660.786213
 21
25809.769317
 31
0.0
  0
LINE
  8
0
  6
CONTINUOUS
 62
     2
  5
54B
 10
30631.786213
 20
25790.269317
 30
0.0
 11
30631.786213
 21
25816.769317
 31
0.0
  0
LINE
  8
0
  6
CONTINUOUS
 62
     2
  5
54C
 10
30596.036213
 20
25835.519317
 30
0.0
 11
30585.536213
 21
25825.269317
 31
0.0
  0
LINE
  8
0
  6
CONTINUOUS
 62
     2
  5
54D
 10
30593.786213
 20
25821.019317
 30
0.0
 11
30587.036213
 21
25811.769317
 31
0.0
  0
LINE
  8
0
  6
CONTINUOUS
 62
     2
  5
54E
 10
30585.536213
 20
25825.269317
 30
0.0
 11
30593.786213
 21
25821.019317
 31
0.0
  0
LINE
  8
0
  6
CONTINUOUS
 62
     2
  5
54F
 10
30631.286213
 20
25849.769317
 30
0.0
 11
30631.286213
 21
25830.519317
 31
0.0
  0
LINE
  8
0
  6
CONTINUOUS
 62
     2
  5
550
 10
30660.786213
 20
25790.269317
 30
0.0
 11
30660.786213
 21
25812.769317
 31
0.0
  0
LINE
  8
0
  6
CONTINUOUS
 62
     2
  5
551
 10
30661.036213
 20
25853.019317
 30
0.0
 11
30661.036213
 21
25812.769317
 31
0.0
  0
ARC
  8
0
  6
CONTINUOUS
 62
     2
  5
552
 10
30638.786213
 20
25823.769317
 30
0.0
 40
9.25
 50
314.25
 51
45.74
  0
ARC
  8
0
  6
CONTINUOUS
 62
     2
  5
553
 10
30567.536213
 20
25944.269317
 30
0.0
 40
250.0
 50
0.22
 51
7.38
  0
ARC
  8
0
  6
CONTINUOUS
 62
     2
  5
554
 10
30671.286213
 20
26060.769317
 30
0.0
 40
200.0
 50
289.81
 51
313.99
  0
ARC
  8
0
  6
CONTINUOUS
 62
     2
  5
555
 10
30737.536213
 20
25944.269317
 30
0.0
 40
80.0
 50
347.69
 51
0.04
  0
ARC
  8
0
  6
CONTINUOUS
 62
     2
  5
556
 10
30796.286213
 20
25931.269317
 30
0.0
 40
20.0
 50
313.99
 51
347.69
  0
LINE
  8
0
  6
CONTINUOUS
 62
     2
  5
557
 10
30882.786213
 20
25929.269317
 30
0.0
 11
30882.536213
 21
25923.019317
 31
0.0
  0
LINE
  8
0
  6
CONTINUOUS
 62
     2
  5
558
 10
30882.536213
 20
25918.019317
 30
0.0
 11
30882.536213
 21
25923.019317
 31
0.0
  0
LINE
  8
0
  6
CONTINUOUS
 62
     2
  5
559
 10
30897.786213
 20
25929.019317
 30
0.0
 11
30897.536213
 21
25922.519317
 31
0.0
  0
LINE
  8
0
  6
CONTINUOUS
 62
     2
  5
55A
 10
30897.536213
 20
25917.519317
 30
0.0
 11
30897.536213
 21
25922.519317
 31
0.0
  0
ARC
  8
0
  6
CONTINUOUS
 62
     2
  5
55B
 10
30997.786213
 20
25947.269317
 30
0.0
 40
8.0
 50
8.43
 51
85.67
  0
ARC
  8
0
  6
CONTINUOUS
 62
     2
  5
55C
 10
30808.036213
 20
25919.019317
 30
0.0
 40
199.75
 50
2.41
 51
8.43
  0
LINE
  8
0
  6
CONTINUOUS
 62
     2
  5
55D
 10
31007.786213
 20
25927.519317
 30
0.0
 11
31007.786213
 21
25926.519317
 31
0.0
  0
LINE
  8
0
  6
CONTINUOUS
 62
     2
  5
55E
 10
30987.786213
 20
25917.769317
 30
0.0
 11
30811.042567
 21
25917.769317
 31
0.0
  0
LINE
  8
0
  6
CONTINUOUS
 62
     2
  5
55F
 10
30598.036213
 20
25826.519317
 30
0.0
 11
30584.6207
 21
25845.486076
 31
0.0
  0
LINE
  8
0
  6
CONTINUOUS
 62
     2
  5
560
 10
30441.536213
 20
25843.269317
 30
0.0
 11
30455.119451
 21
25849.257626
 31
0.0
  0
LINE
  8
0
  6
CONTINUOUS
 62
     2
  5
561
 10
30360.036213
 20
25917.769317
 30
0.0
 11
30436.536213
 21
25917.769317
 31
0.0
  0
LINE
  8
0
  6
CONTINUOUS
 62
     2
  5
562
 10
30378.786213
 20
25934.769317
 30
0.0
 11
30433.536213
 21
25934.769317
 31
0.0
  0
LINE
  8
0
  6
CONTINUOUS
 62
     2
  5
563
 10
30374.286213
 20
25930.019317
 30
0.0
 11
30433.536213
 21
25930.019317
 31
0.0
  0
LINE
  8
0
  6
CONTINUOUS
 62
     2
  5
564
 10
30368.286213
 20
25922.519317
 30
0.0
 11
30433.536213
 21
25922.519317
 31
0.0
  0
LINE
  8
0
  6
CONTINUOUS
 62
     2
  5
565
 10
30438.536213
 20
25915.269317
 30
0.0
 11
30438.536213
 21
25967.019317
 31
0.0
  0
ARC
  8
0
  6
CONTINUOUS
 62
     2
  5
566
 10
30441.536213
 20
25792.019317
 30
0.0
 40
127.5
 50
189.05
 51
206.99
  0
LINE
  8
0
  6
CONTINUOUS
 62
     2
  5
567
 10
30326.536213
 20
25751.769317
 30
0.0
 11
30325.786213
 21
25767.769317
 31
0.0
  0
LINE
  8
0
  6
DIVIDE
 62
     2
  5
568
 10
30315.536213
 20
25742.769317
 30
0.0
 11
30315.536213
 21
25867.769317
 31
0.0
  0
LINE
  8
0
  6
CONTINUOUS
 62
     2
  5
569
 10
30334.036213
 20
25751.769317
 30
0.0
 11
30334.786213
 21
25767.769317
 31
0.0
  0
ARC
  8
0
  6
CONTINUOUS
 62
     2
  5
56A
 10
30349.786213
 20
25654.519317
 30
0.0
 40
21.75
 50
180.0
 51
270.0
  0
ARC
  8
0
  6
CONTINUOUS
 62
     2
  5
56B
 10
30347.286213
 20
25654.519317
 30
0.0
 40
15.0
 50
180.0
 51
270.0
  0
LINE
  8
0
  6
CONTINUOUS
 62
     2
  5
56C
 10
30328.036213
 20
25751.769317
 30
0.0
 11
30328.036213
 21
25654.519317
 31
0.0
  0
LINE
  8
0
  6
CONTINUOUS
 62
     2
  5
56D
 10
30332.286213
 20
25751.769317
 30
0.0
 11
30332.286213
 21
25654.519317
 31
0.0
  0
LINE
  8
0
  6
DIVIDE
 62
     2
  5
56E
 10
30307.786213
 20
25742.769317
 30
0.0
 11
30315.536213
 21
25742.769317
 31
0.0
  0
LINE
  8
0
  6
CONTINUOUS
 62
     2
  5
56F
 10
30326.536213
 20
25751.769317
 30
0.0
 11
30334.036213
 21
25751.769317
 31
0.0
  0
LINE
  8
0
  6
CONTINUOUS
 62
     2
  5
570
 10
30315.786213
 20
25789.769317
 30
0.0
 11
30335.286213
 21
25790.769317
 31
0.0
  0
LINE
  8
0
  6
CONTINUOUS
 62
     2
  5
571
 10
30315.786213
 20
25775.769317
 30
0.0
 11
30324.036213
 21
25774.269317
 31
0.0
  0
LINE
  8
0
  6
CONTINUOUS
 62
     2
  5
572
 10
30335.286213
 20
25767.769317
 30
0.0
 11
30335.286213
 21
25790.769317
 31
0.0
  0
LINE
  8
0
  6
CONTINUOUS
 62
     2
  5
573
 10
30335.286213
 20
25767.769317
 30
0.0
 11
30325.286213
 21
25767.769317
 31
0.0
  0
LINE
  8
0
  6
CONTINUOUS
 62
     2
  5
574
 10
30324.036213
 20
25774.269317
 30
0.0
 11
30325.286213
 21
25767.769317
 31
0.0
  0
LINE
  8
0
  6
DIVIDE
 62
     2
  5
575
 10
30307.786213
 20
25867.769317
 30
0.0
 11
30315.536213
 21
25867.769317
 31
0.0
  0
LINE
  8
0
  6
CONTINUOUS
 62
     2
  5
576
 10
30424.786213
 20
25639.519317
 30
0.0
 11
30347.286213
 21
25639.519317
 31
0.0
  0
LINE
  8
0
  6
CONTINUOUS
 62
     2
  5
577
 10
30349.786213
 20
25632.769317
 30
0.0
 11
30424.786213
 21
25632.769317
 31
0.0
  0
LINE
  8
0
  6
CONTINUOUS
 62
     2
  5
578
 10
30439.786213
 20
25654.519317
 30
0.0
 11
30439.786213
 21
25901.269317
 31
0.0
  0
ARC
  8
0
  6
CONTINUOUS
 62
     2
  5
579
 10
30424.786213
 20
25654.519317
 30
0.0
 40
15.0
 50
270.0
 51
360.0
  0
LINE
  8
0
  6
CONTINUOUS
 62
     2
  5
57A
 10
30444.286213
 20
25652.269317
 30
0.0
 11
30444.286213
 21
25901.269317
 31
0.0
  0
ARC
  8
0
  6
CONTINUOUS
 62
     2
  5
57B
 10
30424.786213
 20
25652.269317
 30
0.0
 40
19.5
 50
270.0
 51
360.0
  0
LINE
  8
0
  6
CONTINUOUS
 62
     2
  5
57C
 10
30427.536213
 20
25959.269317
 30
0.0
 11
30407.786213
 21
25959.269317
 31
0.0
  0
ARC
  8
0
  6
CONTINUOUS
 62
     2
  5
57D
 10
30393.286213
 20
25953.269317
 30
0.0
 40
8.0
 50
131.41
 51
180.0
  0
LINE
  8
0
  6
CONTINUOUS
 62
     2
  5
57E
 10
30387.786213
 20
25959.269317
 30
0.0
 11
30407.786213
 21
25959.269317
 31
0.0
  0
ARC
  8
0
  6
CONTINUOUS
 62
     2
  5
57F
 10
30422.286213
 20
25953.269317
 30
0.0
 40
8.0
 50
0.0
 51
48.59
  0
LINE
  8
0
  6
CONTINUOUS
 62
     2
  5
580
 10
30816.536213
 20
25968.269317
 30
0.0
 11
30841.286213
 21
25966.769317
 31
0.0
  0
LINE
  8
0
  6
CONTINUOUS
 62
     2
  5
581
 10
30841.286213
 20
25966.769317
 30
0.0
 11
30866.286213
 21
25965.519317
 31
0.0
  0
LINE
  8
0
  6
CONTINUOUS
 62
     2
  5
582
 10
30866.286213
 20
25965.519317
 30
0.0
 11
30891.286213
 21
25964.519317
 31
0.0
  0
LINE
  8
0
  6
CONTINUOUS
 62
     2
  5
583
 10
30891.286213
 20
25964.519317
 30
0.0
 11
30916.286213
 21
25963.769317
 31
0.0
  0
LINE
  8
0
  6
CONTINUOUS
 62
     2
  5
584
 10
30916.286213
 20
25963.769317
 30
0.0
 11
30922.036213
 21
25963.769317
 31
0.0
  0
LINE
  8
0
  6
CONTINUOUS
 62
     2
  5
585
 10
30817.036213
 20
25962.769317
 30
0.0
 11
30841.786213
 21
25961.019317
 31
0.0
  0
LINE
  8
0
  6
CONTINUOUS
 62
     2
  5
586
 10
30841.786213
 20
25961.019317
 30
0.0
 11
30866.786213
 21
25959.519317
 31
0.0
  0
LINE
  8
0
  6
CONTINUOUS
 62
     2
  5
587
 10
30866.786213
 20
25959.519317
 30
0.0
 11
30891.786213
 21
25958.269317
 31
0.0
  0
LINE
  8
0
  6
CONTINUOUS
 62
     2
  5
588
 10
30891.786213
 20
25958.269317
 30
0.0
 11
30916.786213
 21
25957.519317
 31
0.0
  0
LINE
  8
0
  6
CONTINUOUS
 62
     2
  5
589
 10
30916.786213
 20
25957.519317
 30
0.0
 11
30939.786213
 21
25956.769317
 31
0.0
  0
ARC
  8
0
  6
CONTINUOUS
 62
     2
  5
58A
 10
30478.286213
 20
25998.269317
 30
0.0
 40
20.0
 50
91.28
 51
163.75
  0
ARC
  8
0
  6
CONTINUOUS
 62
     2
  5
58B
 10
30448.536213
 20
25967.019317
 30
0.0
 40
10.0
 50
134.44
 51
180.0
  0
LINE
  8
0
  6
CONTINUOUS
 62
     2
  5
58C
 10
30441.536213
 20
25974.269317
 30
0.0
 11
30453.786213
 21
25986.269317
 31
0.0
  0
ARC
  8
0
  6
CONTINUOUS
 62
     2
  5
58D
 10
30450.286213
 20
25989.769317
 30
0.0
 40
5.0
 50
314.44
 51
348.04
  0
LINE
  8
0
  6
CONTINUOUS
 62
     2
  5
58E
 10
30746.036213
 20
25995.269317
 30
0.0
 11
30721.286213
 21
25998.519317
 31
0.0
  0
LINE
  8
0
  6
CONTINUOUS
 62
     2
  5
58F
 10
30721.286213
 20
25998.519317
 30
0.0
 11
30696.536213
 21
26001.519317
 31
0.0
  0
LINE
  8
0
  6
CONTINUOUS
 62
     2
  5
590
 10
30696.536213
 20
26001.519317
 30
0.0
 11
30671.786213
 21
26004.519317
 31
0.0
  0
LINE
  8
0
  6
CONTINUOUS
 62
     2
  5
591
 10
30671.786213
 20
26004.519317
 30
0.0
 11
30646.786213
 21
26007.269317
 31
0.0
  0
LINE
  8
0
  6
CONTINUOUS
 62
     2
  5
592
 10
30673.286213
 20
26017.269317
 30
0.0
 11
30672.036213
 21
26004.519317
 31
0.0
  0
LINE
  8
0
  6
CONTINUOUS
 62
     2
  5
593
 10
30807.536213
 20
25985.019317
 30
0.0
 11
30783.036213
 21
25989.519317
 31
0.0
  0
LINE
  8
0
  6
CONTINUOUS
 62
     2
  5
594
 10
30783.036213
 20
25989.519317
 30
0.0
 11
30758.286213
 21
25993.519317
 31
0.0
  0
LINE
  8
0
  6
CONTINUOUS
 62
     2
  5
595
 10
30758.286213
 20
25993.519317
 30
0.0
 11
30746.036213
 21
25995.269317
 31
0.0
  0
ARC
  8
0
  6
CONTINUOUS
 62
     2
  5
596
 10
30805.536213
 20
25975.019317
 30
0.0
 40
10.0
 50
7.38
 51
78.71
  0
LINE
  8
0
  6
CONTINUOUS
 62
     2
  5
597
 10
30939.786213
 20
25956.769317
 30
0.0
 11
30988.036213
 21
25955.519317
 31
0.0
  0
LINE
  8
0
  6
CONTINUOUS
 62
     2
  5
598
 10
31008.536213
 20
25961.769317
 30
0.0
 11
30919.786213
 21
25963.769317
 31
0.0
  0
ARC
  8
0
  6
CONTINUOUS
 62
     2
  5
599
 10
30843.286213
 20
25507.269317
 30
0.0
 40
500.0
 50
73.18
 51
79.49
  0
ARC
  8
0
  6
CONTINUOUS
 62
     2
  5
59A
 10
30969.786213
 20
25951.269317
 30
0.0
 40
39.75
 50
15.1
 51
44.08
  0
ARC
  8
0
  6
CONTINUOUS
 62
     2
  5
59B
 10
30987.036213
 20
25805.519317
 30
0.0
 40
150.0
 50
85.67
 51
89.69
  0
LINE
  8
0
  6
CONTINUOUS
 62
     2
  5
59C
 10
30423.536213
 20
25993.769317
 30
0.0
 11
30423.536213
 21
25959.269317
 31
0.0
  0
ARC
  8
0
  6
CONTINUOUS
 62
     2
  5
59D
 10
30363.536213
 20
25993.769317
 30
0.0
 40
60.0
 50
0.0
 51
90.0
  0
ARC
  8
0
  6
CONTINUOUS
 62
     2
  5
59E
 10
30361.786213
 20
25992.019317
 30
0.0
 40
30.0
 50
0.0
 51
90.0
  0
LINE
  8
0
  6
CONTINUOUS
 62
     2
  5
59F
 10
30391.786213
 20
25992.019317
 30
0.0
 11
30391.786213
 21
25959.269317
 31
0.0
  0
LINE
  8
0
  6
CONTINUOUS
 62
     2
  5
5A0
 10
30909.786213
 20
26003.269317
 30
0.0
 11
30885.286213
 21
26007.519317
 31
0.0
  0
ARC
  8
0
  6
CONTINUOUS
 62
     2
  5
5A1
 10
30980.786213
 20
25961.769317
 30
0.0
 40
25.0
 50
44.08
 51
73.18
  0
LINE
  8
0
  6
CONTINUOUS
 62
     2
  5
5A2
 10
30934.286213
 20
25998.769317
 30
0.0
 11
30909.786213
 21
26003.269317
 31
0.0
  0
LINE
  8
0
  6
CONTINUOUS
 62
     2
  5
5A3
 10
30885.286213
 20
26007.519317
 30
0.0
 11
30860.536213
 21
26011.769317
 31
0.0
  0
LINE
  8
0
  6
CONTINUOUS
 62
     2
  5
5A4
 10
30860.536213
 20
26011.769317
 30
0.0
 11
30835.786213
 21
26015.769317
 31
0.0
  0
LINE
  8
0
  6
CONTINUOUS
 62
     2
  5
5A5
 10
30835.786213
 20
26015.769317
 30
0.0
 11
30811.036213
 21
26019.519317
 31
0.0
  0
LINE
  8
0
  6
CONTINUOUS
 62
     2
  5
5A6
 10
30811.036213
 20
26019.519317
 30
0.0
 11
30786.536213
 21
26023.269317
 31
0.0
  0
ARC
  8
0
  6
CONTINUOUS
 62
     2
  5
5A7
 10
30824.286213
 20
25668.769317
 30
0.0
 40
500.0
 50
130.35
 51
135.88
  0
ARC
  8
0
  6
CONTINUOUS
 62
     2
  5
5A8
 10
30479.536213
 20
26002.769317
 30
0.0
 40
20.0
 50
135.88
 51
162.36
  0
LINE
  8
0
  6
CONTINUOUS
 62
     2
  5
5A9
 10
30646.786213
 20
26007.269317
 30
0.0
 11
30622.036213
 21
26010.019317
 31
0.0
  0
LINE
  8
0
  6
CONTINUOUS
 62
     2
  5
5AA
 10
30622.036213
 20
26010.019317
 30
0.0
 11
30597.036213
 21
26012.519317
 31
0.0
  0
LINE
  8
0
  6
CONTINUOUS
 62
     2
  5
5AB
 10
30597.036213
 20
26012.519317
 30
0.0
 11
30572.286213
 21
26014.769317
 31
0.0
  0
LINE
  8
0
  6
CONTINUOUS
 62
     2
  5
5AC
 10
30572.286213
 20
26014.769317
 30
0.0
 11
30567.536213
 21
26015.269317
 31
0.0
  0
ARC
  8
0
  6
CONTINUOUS
 62
     2
  5
5AD
 10
30495.786213
 20
25218.769317
 30
0.0
 40
800.0
 50
84.85
 51
91.28
  0
ARC
  8
0
  6
CONTINUOUS
 62
     2
  5
5AE
 10
30634.036213
 20
25880.269317
 30
0.0
 40
142.5
 50
74.09
 51
93.3
  0
LINE
  8
0
  6
CONTINUOUS
 62
     2
  5
5AF
 10
30625.786213
 20
26022.519317
 30
0.0
 11
30624.286213
 21
26009.769317
 31
0.0
  0
LINE
  8
0
  6
CONTINUOUS
 62
     2
  5
5B0
 10
30786.536213
 20
26023.269317
 30
0.0
 11
30761.786213
 21
26026.769317
 31
0.0
  0
LINE
  8
0
  6
CONTINUOUS
 62
     2
  5
5B1
 10
30761.786213
 20
26026.769317
 30
0.0
 11
30736.786213
 21
26030.269317
 31
0.0
  0
LINE
  8
0
  6
CONTINUOUS
 62
     2
  5
5B2
 10
30736.786213
 20
26030.269317
 30
0.0
 11
30712.036213
 21
26033.519317
 31
0.0
  0
LINE
  8
0
  6
CONTINUOUS
 62
     2
  5
5B3
 10
30712.036213
 20
26033.519317
 30
0.0
 11
30687.286213
 21
26036.519317
 31
0.0
  0
LINE
  8
0
  6
CONTINUOUS
 62
     2
  5
5B4
 10
30687.286213
 20
26036.519317
 30
0.0
 11
30662.536213
 21
26039.519317
 31
0.0
  0
LINE
  8
0
  6
CONTINUOUS
 62
     2
  5
5B5
 10
30662.536213
 20
26039.519317
 30
0.0
 11
30637.536213
 21
26042.269317
 31
0.0
  0
LINE
  8
0
  6
CONTINUOUS
 62
     2
  5
5B6
 10
30637.536213
 20
26042.269317
 30
0.0
 11
30612.786213
 21
26045.019317
 31
0.0
  0
LINE
  8
0
  6
CONTINUOUS
 62
     2
  5
5B7
 10
30612.786213
 20
26045.019317
 30
0.0
 11
30592.786213
 21
26047.019317
 31
0.0
  0
LINE
  8
0
  6
CONTINUOUS
 62
     2
  5
5B8
 10
30592.536213
 20
26041.769317
 30
0.0
 11
30567.786213
 21
26044.269317
 31
0.0
  0
LINE
  8
0
  6
CONTINUOUS
 62
     2
  5
5B9
 10
30567.786213
 20
26044.269317
 30
0.0
 11
30563.786213
 21
26044.519317
 31
0.0
  0
ARC
  8
0
  6
CONTINUOUS
 62
     2
  5
5BA
 10
30545.536213
 20
26020.769317
 30
0.0
 40
30.0
 50
52.35
 51
87.32
  0
ARC
  8
0
  6
CONTINUOUS
 62
     2
  5
5BB
 10
30528.286213
 20
25651.269317
 30
0.0
 40
400.0
 50
87.32
 51
93.72
  0
ARC
  8
0
  6
CONTINUOUS
 62
     2
  5
5BC
 10
30502.536213
 20
26047.519317
 30
0.0
 40
3.0
 50
93.72
 51
130.35
  0
LINE
  8
0
  6
CONTINUOUS
 62
     2
  5
5BD
 10
30592.786213
 20
26047.019317
 30
0.0
 11
30592.536213
 21
26041.769317
 31
0.0
  0
LINE
  8
0
  6
CONTINUOUS
 62
     2
  5
5BE
 10
30363.536213
 20
26053.769317
 30
0.0
 11
30307.788544
 21
26053.769317
 31
0.0
  0
LINE
  8
0
  6
CONTINUOUS
 62
     2
  5
5BF
 10
30361.786213
 20
26022.019317
 30
0.0
 11
30307.788544
 21
26022.019317
 31
0.0
  0
LINE
  8
1
  6
CONTINUOUS
 62
     4
  5
5C0
 10
30953.38621
 20
26177.768486
 30
0.0
 11
31342.186216
 21
26177.768486
 31
0.0
  0
LINE
  8
1
  6
CONTINUOUS
 62
     4
  5
5C1
 10
30953.38621
 20
26806.568495
 30
0.0
 11
31342.186216
 21
26806.568495
 31
0.0
  0
LINE
  8
1
  6
CONTINUOUS
 62
     4
  5
5C2
 10
31387.186216
 20
26222.768487
 30
0.0
 11
31387.186216
 21
26761.568495
 31
0.0
  0
ARC
  8
1
  6
CONTINUOUS
 62
     4
  5
5C3
 10
31342.186216
 20
26761.568495
 30
0.0
 40
45.000001
 50
360.0
 51
90.0
  0
ARC
  8
1
  6
CONTINUOUS
 62
     4
  5
5C4
 10
30953.38621
 20
26761.568495
 30
0.0
 40
45.000001
 50
90.0
 51
180.0
  0
ARC
  8
1
  6
CONTINUOUS
 62
     4
  5
5C5
 10
30953.38621
 20
26222.768487
 30
0.0
 40
45.000001
 50
180.0
 51
270.0
  0
ARC
  8
1
  6
CONTINUOUS
 62
     4
  5
5C6
 10
31342.186216
 20
26222.768487
 30
0.0
 40
45.000001
 50
270.0
 51
360.0
  0
LINE
  8
1
  6
CONTINUOUS
 62
     4
  5
5C7
 10
31208.386214
 20
26224.568487
 30
0.0
 11
31208.386214
 21
26309.768488
 31
0.0
  0
LINE
  8
1
  6
CONTINUOUS
 62
     4
  5
5C8
 10
31208.386214
 20
26374.568489
 30
0.0
 11
31208.386214
 21
26459.76849
 31
0.0
  0
LINE
  8
1
  6
CONTINUOUS
 62
     4
  5
5C9
 10
31105.186212
 20
26327.768488
 30
0.0
 11
31190.386213
 21
26327.768488
 31
0.0
  0
LINE
  8
1
  6
CONTINUOUS
 62
     4
  5
5CA
 10
31105.186212
 20
26356.568489
 30
0.0
 11
31190.386213
 21
26356.568489
 31
0.0
  0
LINE
  8
1
  6
CONTINUOUS
 62
     4
  5
5CB
 10
31105.186212
 20
26477.76849
 30
0.0
 11
31190.386213
 21
26477.76849
 31
0.0
  0
LINE
  8
1
  6
CONTINUOUS
 62
     4
  5
5CC
 10
31105.186212
 20
26506.568491
 30
0.0
 11
31190.686213
 21
26506.568491
 31
0.0
  0
LINE
  8
1
  6
CONTINUOUS
 62
     4
  5
5CD
 10
31105.186212
 20
26627.768493
 30
0.0
 11
31190.386213
 21
26627.768493
 31
0.0
  0
LINE
  8
1
  6
CONTINUOUS
 62
     4
  5
5CE
 10
31105.186212
 20
26656.568493
 30
0.0
 11
31190.386213
 21
26656.568493
 31
0.0
  0
LINE
  8
1
  6
CONTINUOUS
 62
     4
  5
5CF
 10
31208.386214
 20
26524.568491
 30
0.0
 11
31208.386214
 21
26609.768492
 31
0.0
  0
LINE
  8
1
  6
CONTINUOUS
 62
     4
  5
5D0
 10
31208.386214
 20
26674.568493
 30
0.0
 11
31208.386214
 21
26759.768495
 31
0.0
  0
LINE
  8
1
  6
CONTINUOUS
 62
     4
  5
5D1
 10
31105.186212
 20
26777.768495
 30
0.0
 11
31190.386213
 21
26777.768495
 31
0.0
  0
LINE
  8
1
  6
CONTINUOUS
 62
     4
  5
5D2
 10
31087.186212
 20
26674.568493
 30
0.0
 11
31087.186212
 21
26759.768495
 31
0.0
  0
LINE
  8
1
  6
CONTINUOUS
 62
     4
  5
5D3
 10
31087.186212
 20
26524.568491
 30
0.0
 11
31087.186212
 21
26609.768492
 31
0.0
  0
LINE
  8
1
  6
CONTINUOUS
 62
     4
  5
5D4
 10
31087.186212
 20
26374.568489
 30
0.0
 11
31087.186212
 21
26459.76849
 31
0.0
  0
ARC
  8
1
  6
CONTINUOUS
 62
     4
  5
5D5
 10
31190.386213
 20
26224.568487
 30
0.0
 40
18.0
 50
270.0
 51
360.0
  0
ARC
  8
1
  6
CONTINUOUS
 62
     4
  5
5D6
 10
31105.186212
 20
26224.568487
 30
0.0
 40
18.0
 50
180.0
 51
270.0
  0
ARC
  8
1
  6
CONTINUOUS
 62
     4
  5
5D7
 10
31190.386213
 20
26309.768488
 30
0.0
 40
18.0
 50
360.0
 51
90.0
  0
ARC
  8
1
  6
CONTINUOUS
 62
     4
  5
5D8
 10
31190.386213
 20
26374.568489
 30
0.0
 40
18.0
 50
270.0
 51
360.0
  0
ARC
  8
1
  6
CONTINUOUS
 62
     4
  5
5D9
 10
31105.186212
 20
26309.768488
 30
0.0
 40
18.0
 50
90.0
 51
180.0
  0
ARC
  8
1
  6
CONTINUOUS
 62
     4
  5
5DA
 10
31105.186212
 20
26374.568489
 30
0.0
 40
18.0
 50
180.0
 51
270.0
  0
ARC
  8
1
  6
CONTINUOUS
 62
     4
  5
5DB
 10
31190.386213
 20
26459.76849
 30
0.0
 40
18.0
 50
360.0
 51
90.0
  0
ARC
  8
1
  6
CONTINUOUS
 62
     4
  5
5DC
 10
31190.386213
 20
26524.568491
 30
0.0
 40
18.0
 50
270.0
 51
360.0
  0
ARC
  8
1
  6
CONTINUOUS
 62
     4
  5
5DD
 10
31105.186212
 20
26459.76849
 30
0.0
 40
18.0
 50
90.0
 51
180.0
  0
ARC
  8
1
  6
CONTINUOUS
 62
     4
  5
5DE
 10
31105.186212
 20
26524.568491
 30
0.0
 40
18.0
 50
180.0
 51
270.0
  0
ARC
  8
1
  6
CONTINUOUS
 62
     4
  5
5DF
 10
31190.386213
 20
26609.768492
 30
0.0
 40
18.0
 50
360.0
 51
90.0
  0
ARC
  8
1
  6
CONTINUOUS
 62
     4
  5
5E0
 10
31105.186212
 20
26674.568493
 30
0.0
 40
18.0
 50
180.0
 51
270.0
  0
ARC
  8
1
  6
CONTINUOUS
 62
     4
  5
5E1
 10
31105.186212
 20
26609.768492
 30
0.0
 40
18.0
 50
90.0
 51
180.0
  0
ARC
  8
1
  6
CONTINUOUS
 62
     4
  5
5E2
 10
31190.386213
 20
26674.568493
 30
0.0
 40
18.0
 50
270.0
 51
360.0
  0
ARC
  8
1
  6
CONTINUOUS
 62
     4
  5
5E3
 10
31190.386213
 20
26759.768495
 30
0.0
 40
18.0
 50
360.0
 51
90.0
  0
ARC
  8
1
  6
CONTINUOUS
 62
     4
  5
5E4
 10
31105.186212
 20
26759.768495
 30
0.0
 40
18.0
 50
90.0
 51
180.0
  0
LINE
  8
1
  6
CONTINUOUS
 62
     4
  5
5E5
 10
31190.386213
 20
26206.568486
 30
0.0
 11
31105.186212
 21
26206.568486
 31
0.0
  0
LINE
  8
1
  6
CONTINUOUS
 62
     4
  5
5E6
 10
30937.18621
 20
26374.568489
 30
0.0
 11
30937.18621
 21
26459.76849
 31
0.0
  0
LINE
  8
1
  6
CONTINUOUS
 62
     4
  5
5E7
 10
31040.386211
 20
26327.768488
 30
0.0
 11
30955.18621
 21
26327.768488
 31
0.0
  0
LINE
  8
1
  6
CONTINUOUS
 62
     4
  5
5E8
 10
31040.386211
 20
26356.568489
 30
0.0
 11
30955.18621
 21
26356.568489
 31
0.0
  0
LINE
  8
1
  6
CONTINUOUS
 62
     4
  5
5E9
 10
31040.386211
 20
26477.76849
 30
0.0
 11
30955.18621
 21
26477.76849
 31
0.0
  0
LINE
  8
1
  6
CONTINUOUS
 62
     4
  5
5EA
 10
31040.386211
 20
26506.568491
 30
0.0
 11
30954.78621
 21
26506.568491
 31
0.0
  0
LINE
  8
1
  6
CONTINUOUS
 62
     4
  5
5EB
 10
31040.386211
 20
26627.768493
 30
0.0
 11
30955.18621
 21
26627.768493
 31
0.0
  0
LINE
  8
1
  6
CONTINUOUS
 62
     4
  5
5EC
 10
31040.386211
 20
26656.568493
 30
0.0
 11
30955.18621
 21
26656.568493
 31
0.0
  0
LINE
  8
1
  6
CONTINUOUS
 62
     4
  5
5ED
 10
30937.18621
 20
26524.568491
 30
0.0
 11
30937.18621
 21
26609.768492
 31
0.0
  0
LINE
  8
1
  6
CONTINUOUS
 62
     4
  5
5EE
 10
30937.18621
 20
26674.568493
 30
0.0
 11
30937.18621
 21
26759.768495
 31
0.0
  0
LINE
  8
1
  6
CONTINUOUS
 62
     4
  5
5EF
 10
31040.386211
 20
26777.768495
 30
0.0
 11
30955.18621
 21
26777.768495
 31
0.0
  0
LINE
  8
1
  6
CONTINUOUS
 62
     4
  5
5F0
 10
31058.386211
 20
26674.568493
 30
0.0
 11
31058.386211
 21
26759.768495
 31
0.0
  0
LINE
  8
1
  6
CONTINUOUS
 62
     4
  5
5F1
 10
31058.386211
 20
26524.568491
 30
0.0
 11
31058.386211
 21
26609.768492
 31
0.0
  0
LINE
  8
1
  6
CONTINUOUS
 62
     4
  5
5F2
 10
31058.386211
 20
26374.568489
 30
0.0
 11
31058.386211
 21
26459.76849
 31
0.0
  0
ARC
  8
1
  6
CONTINUOUS
 62
     4
  5
5F3
 10
30955.18621
 20
26224.568487
 30
0.0
 40
18.0
 50
180.0
 51
270.0
  0
ARC
  8
1
  6
CONTINUOUS
 62
     4
  5
5F4
 10
31040.386211
 20
26224.568487
 30
0.0
 40
18.0
 50
270.0
 51
360.0
  0
ARC
  8
1
  6
CONTINUOUS
 62
     4
  5
5F5
 10
30955.18621
 20
26309.768488
 30
0.0
 40
18.0
 50
90.0
 51
180.0
  0
ARC
  8
1
  6
CONTINUOUS
 62
     4
  5
5F6
 10
30955.18621
 20
26374.568489
 30
0.0
 40
18.0
 50
180.0
 51
270.0
  0
ARC
  8
1
  6
CONTINUOUS
 62
     4
  5
5F7
 10
31040.386211
 20
26309.768488
 30
0.0
 40
18.0
 50
360.0
 51
90.0
  0
ARC
  8
1
  6
CONTINUOUS
 62
     4
  5
5F8
 10
31040.386211
 20
26374.568489
 30
0.0
 40
18.0
 50
270.0
 51
360.0
  0
ARC
  8
1
  6
CONTINUOUS
 62
     4
  5
5F9
 10
30955.18621
 20
26459.76849
 30
0.0
 40
18.0
 50
90.0
 51
180.0
  0
ARC
  8
1
  6
CONTINUOUS
 62
     4
  5
5FA
 10
30955.18621
 20
26524.568491
 30
0.0
 40
18.0
 50
180.0
 51
270.0
  0
ARC
  8
1
  6
CONTINUOUS
 62
     4
  5
5FB
 10
31040.386211
 20
26459.76849
 30
0.0
 40
18.0
 50
360.0
 51
90.0
  0
ARC
  8
1
  6
CONTINUOUS
 62
     4
  5
5FC
 10
31040.386211
 20
26524.568491
 30
0.0
 40
18.0
 50
270.0
 51
360.0
  0
ARC
  8
1
  6
CONTINUOUS
 62
     4
  5
5FD
 10
30955.18621
 20
26609.768492
 30
0.0
 40
18.0
 50
90.0
 51
180.0
  0
ARC
  8
1
  6
CONTINUOUS
 62
     4
  5
5FE
 10
31040.386211
 20
26674.568493
 30
0.0
 40
18.0
 50
270.0
 51
360.0
  0
ARC
  8
1
  6
CONTINUOUS
 62
     4
  5
5FF
 10
31040.386211
 20
26609.768492
 30
0.0
 40
18.0
 50
360.0
 51
90.0
  0
ARC
  8
1
  6
CONTINUOUS
 62
     4
  5
600
 10
30955.18621
 20
26674.568493
 30
0.0
 40
18.0
 50
180.0
 51
270.0
  0
ARC
  8
1
  6
CONTINUOUS
 62
     4
  5
601
 10
30955.18621
 20
26759.768495
 30
0.0
 40
18.0
 50
90.0
 51
180.0
  0
ARC
  8
1
  6
CONTINUOUS
 62
     4
  5
602
 10
31040.386211
 20
26759.768495
 30
0.0
 40
18.0
 50
360.0
 51
90.0
  0
LINE
  8
1
  6
CONTINUOUS
 62
     4
  5
603
 10
30955.18621
 20
26206.568486
 30
0.0
 11
31040.386211
 21
26206.568486
 31
0.0
  0
LINE
  8
1
  6
CONTINUOUS
 62
     4
  5
604
 10
31358.386216
 20
26224.568487
 30
0.0
 11
31358.386216
 21
26309.768488
 31
0.0
  0
LINE
  8
1
  6
CONTINUOUS
 62
     4
  5
605
 10
31358.386216
 20
26374.568489
 30
0.0
 11
31358.386216
 21
26459.76849
 31
0.0
  0
LINE
  8
1
  6
CONTINUOUS
 62
     4
  5
606
 10
31255.186214
 20
26327.768488
 30
0.0
 11
31340.386216
 21
26327.768488
 31
0.0
  0
LINE
  8
1
  6
CONTINUOUS
 62
     4
  5
607
 10
31255.186214
 20
26356.568489
 30
0.0
 11
31340.386216
 21
26356.568489
 31
0.0
  0
LINE
  8
1
  6
CONTINUOUS
 62
     4
  5
608
 10
31255.186214
 20
26477.76849
 30
0.0
 11
31340.386216
 21
26477.76849
 31
0.0
  0
LINE
  8
1
  6
CONTINUOUS
 62
     4
  5
609
 10
31255.186214
 20
26506.568491
 30
0.0
 11
31340.786216
 21
26506.568491
 31
0.0
  0
LINE
  8
1
  6
CONTINUOUS
 62
     4
  5
60A
 10
31255.186214
 20
26627.768493
 30
0.0
 11
31340.386216
 21
26627.768493
 31
0.0
  0
LINE
  8
1
  6
CONTINUOUS
 62
     4
  5
60B
 10
31255.186214
 20
26656.568493
 30
0.0
 11
31340.386216
 21
26656.568493
 31
0.0
  0
LINE
  8
1
  6
CONTINUOUS
 62
     4
  5
60C
 10
31358.386216
 20
26524.568491
 30
0.0
 11
31358.386216
 21
26609.768492
 31
0.0
  0
LINE
  8
1
  6
CONTINUOUS
 62
     4
  5
60D
 10
31358.386216
 20
26674.568493
 30
0.0
 11
31358.386216
 21
26759.768495
 31
0.0
  0
LINE
  8
1
  6
CONTINUOUS
 62
     4
  5
60E
 10
31255.186214
 20
26777.768495
 30
0.0
 11
31340.386216
 21
26777.768495
 31
0.0
  0
LINE
  8
1
  6
CONTINUOUS
 62
     4
  5
60F
 10
31237.186214
 20
26674.568493
 30
0.0
 11
31237.186214
 21
26759.768495
 31
0.0
  0
LINE
  8
1
  6
CONTINUOUS
 62
     4
  5
610
 10
31237.186214
 20
26524.568491
 30
0.0
 11
31237.186214
 21
26609.768492
 31
0.0
  0
LINE
  8
1
  6
CONTINUOUS
 62
     4
  5
611
 10
31237.186214
 20
26374.568489
 30
0.0
 11
31237.186214
 21
26459.76849
 31
0.0
  0
LINE
  8
1
  6
CONTINUOUS
 62
     4
  5
612
 10
31237.186214
 20
26224.568487
 30
0.0
 11
31237.186214
 21
26309.768488
 31
0.0
  0
ARC
  8
1
  6
CONTINUOUS
 62
     4
  5
613
 10
31340.386216
 20
26224.568487
 30
0.0
 40
18.0
 50
270.0
 51
360.0
  0
ARC
  8
1
  6
CONTINUOUS
 62
     4
  5
614
 10
31255.186214
 20
26224.568487
 30
0.0
 40
18.0
 50
180.0
 51
270.0
  0
ARC
  8
1
  6
CONTINUOUS
 62
     4
  5
615
 10
31340.386216
 20
26309.768488
 30
0.0
 40
18.0
 50
360.0
 51
90.0
  0
ARC
  8
1
  6
CONTINUOUS
 62
     4
  5
616
 10
31340.386216
 20
26374.568489
 30
0.0
 40
18.0
 50
270.0
 51
360.0
  0
ARC
  8
1
  6
CONTINUOUS
 62
     4
  5
617
 10
31255.186214
 20
26309.768488
 30
0.0
 40
18.0
 50
90.0
 51
180.0
  0
ARC
  8
1
  6
CONTINUOUS
 62
     4
  5
618
 10
31255.186214
 20
26374.568489
 30
0.0
 40
18.0
 50
180.0
 51
270.0
  0
ARC
  8
1
  6
CONTINUOUS
 62
     4
  5
619
 10
31340.386216
 20
26459.76849
 30
0.0
 40
18.0
 50
360.0
 51
90.0
  0
ARC
  8
1
  6
CONTINUOUS
 62
     4
  5
61A
 10
31340.386216
 20
26524.568491
 30
0.0
 40
18.0
 50
270.0
 51
360.0
  0
ARC
  8
1
  6
CONTINUOUS
 62
     4
  5
61B
 10
31255.186214
 20
26459.76849
 30
0.0
 40
18.0
 50
90.0
 51
180.0
  0
ARC
  8
1
  6
CONTINUOUS
 62
     4
  5
61C
 10
31255.186214
 20
26524.568491
 30
0.0
 40
18.0
 50
180.0
 51
270.0
  0
ARC
  8
1
  6
CONTINUOUS
 62
     4
  5
61D
 10
31340.386216
 20
26609.768492
 30
0.0
 40
18.0
 50
360.0
 51
90.0
  0
ARC
  8
1
  6
CONTINUOUS
 62
     4
  5
61E
 10
31255.186214
 20
26674.568493
 30
0.0
 40
18.0
 50
180.0
 51
270.0
  0
ARC
  8
1
  6
CONTINUOUS
 62
     4
  5
61F
 10
31255.186214
 20
26609.768492
 30
0.0
 40
18.0
 50
90.0
 51
180.0
  0
ARC
  8
1
  6
CONTINUOUS
 62
     4
  5
620
 10
31340.386216
 20
26674.568493
 30
0.0
 40
18.0
 50
270.0
 51
360.0
  0
ARC
  8
1
  6
CONTINUOUS
 62
     4
  5
621
 10
31340.386216
 20
26759.768495
 30
0.0
 40
18.0
 50
360.0
 51
90.0
  0
ARC
  8
1
  6
CONTINUOUS
 62
     4
  5
622
 10
31255.186214
 20
26759.768495
 30
0.0
 40
18.0
 50
90.0
 51
180.0
  0
LINE
  8
1
  6
CONTINUOUS
 62
     4
  5
623
 10
31340.386216
 20
26206.568486
 30
0.0
 11
31255.186214
 21
26206.568486
 31
0.0
  0
LINE
  8
33
  6
CONTINUOUS
 62
     2
  5
624
 10
31353.186216
 20
26675.868493
 30
0.0
 11
31350.086216
 21
26681.268494
 31
0.0
  0
LINE
  8
33
  6
CONTINUOUS
 62
     2
  5
625
 10
31350.486216
 20
26682.368494
 30
0.0
 11
31353.986216
 21
26676.368493
 31
0.0
  0
ARC
  8
33
  6
CONTINUOUS
 62
     2
  5
626
 10
31399.786216
 20
26642.168493
 30
0.0
 40
7.7
 50
90.0
 51
270.0
  0
ARC
  8
33
  6
CONTINUOUS
 62
     2
  5
627
 10
31399.786216
 20
26642.168493
 30
0.0
 40
6.8
 50
90.0
 51
270.0
  0
ARC
  8
33
  6
CONTINUOUS
 62
     2
  5
628
 10
31347.286216
 20
26611.868492
 30
0.0
 40
7.7
 50
330.0
 51
150.0
  0
ARC
  8
33
  6
CONTINUOUS
 62
     2
  5
629
 10
31347.286216
 20
26611.868492
 30
0.0
 40
6.8
 50
330.0
 51
150.0
  0
CIRCLE
  8
4
  6
CONTINUOUS
 62
     2
  5
62A
 10
30930.786209
 20
26642.168493
 30
0.0
 40
10.5
  0
ARC
  8
33
  6
CONTINUOUS
 62
     2
  5
62B
 10
30948.28621
 20
26672.468493
 30
0.0
 40
7.7
 50
150.0
 51
330.0
  0
ARC
  8
33
  6
CONTINUOUS
 62
     2
  5
62C
 10
30948.28621
 20
26672.468493
 30
0.0
 40
6.8
 50
150.0
 51
330.0
  0
LINE
  8
33
  6
CONTINUOUS
 62
     2
  5
62D
 10
30942.38621
 20
26608.468492
 30
0.0
 11
30945.48621
 21
26603.068492
 31
0.0
  0
LINE
  8
33
  6
CONTINUOUS
 62
     2
  5
62E
 10
30945.08621
 20
26601.968492
 30
0.0
 11
30941.58621
 21
26607.968492
 31
0.0
  0
LINE
  8
33
  6
CONTINUOUS
 62
     2
  5
62F
 10
30958.38621
 20
26609.568492
 30
0.0
 11
30954.88621
 21
26615.668493
 31
0.0
  0
LINE
  8
33
  6
CONTINUOUS
 62
     2
  5
630
 10
30954.08621
 20
26615.168493
 30
0.0
 11
30957.28621
 21
26609.768492
 31
0.0
  0
ARC
  8
33
  6
CONTINUOUS
 62
     2
  5
631
 10
30930.786209
 20
26642.168493
 30
0.0
 40
41.800001
 50
290.63
 51
309.02
  0
ARC
  8
3
  6
CONTINUOUS
 62
     2
  5
632
 10
30930.786209
 20
26642.168493
 30
0.0
 40
45.000001
 50
278.18
 51
341.32
  0
CIRCLE
  8
34
  6
CONTINUOUS
 62
     2
  5
633
 10
30948.28621
 20
26611.868492
 30
0.0
 40
4.0
  0
CIRCLE
  8
34
  6
CONTINUOUS
 62
     2
  5
634
 10
30948.28621
 20
26611.868492
 30
0.0
 40
4.4
  0
ARC
  8
31
  6
DIVIDE
 62
     2
  5
635
 10
30930.786209
 20
26642.168493
 30
0.0
 40
42.700001
 50
278.62
 51
340.29
  0
ARC
  8
33
  6
CONTINUOUS
 62
     2
  5
636
 10
30948.28621
 20
26611.868492
 30
0.0
 40
6.8
 50
30.0
 51
210.0
  0
ARC
  8
33
  6
CONTINUOUS
 62
     2
  5
637
 10
30948.28621
 20
26611.868492
 30
0.0
 40
7.7
 50
30.0
 51
210.0
  0
LINE
  8
33
  6
CONTINUOUS
 62
     2
  5
638
 10
30945.18621
 20
26682.368494
 30
0.0
 11
30941.68621
 21
26676.268493
 31
0.0
  0
LINE
  8
33
  6
CONTINUOUS
 62
     2
  5
639
 10
30942.48621
 20
26675.868493
 30
0.0
 11
30945.58621
 21
26681.268494
 31
0.0
  0
ARC
  8
33
  6
CONTINUOUS
 62
     2
  5
63A
 10
30930.786209
 20
26642.168493
 30
0.0
 40
41.800001
 50
50.63
 51
69.02
  0
LINE
  8
33
  6
CONTINUOUS
 62
     2
  5
63B
 10
30954.18621
 20
26669.068493
 30
0.0
 11
30957.28621
 21
26674.468493
 31
0.0
  0
LINE
  8
33
  6
CONTINUOUS
 62
     2
  5
63C
 10
30958.48621
 20
26674.668493
 30
0.0
 11
30954.98621
 21
26668.668493
 31
0.0
  0
ARC
  8
31
  6
DIVIDE
 62
     2
  5
63D
 10
30930.786209
 20
26642.168493
 30
0.0
 40
42.700001
 50
19.71
 51
81.38
  0
ARC
  8
3
  6
CONTINUOUS
 62
     2
  5
63E
 10
30930.786209
 20
26642.168493
 30
0.0
 40
45.000001
 50
18.68
 51
81.82
  0
CIRCLE
  8
34
  6
CONTINUOUS
 62
     2
  5
63F
 10
30948.28621
 20
26672.468493
 30
0.0
 40
4.0
  0
CIRCLE
  8
34
  6
CONTINUOUS
 62
     2
  5
640
 10
30948.28621
 20
26672.468493
 30
0.0
 40
4.4
  0
ARC
  8
3
  6
CONTINUOUS
 62
     2
  5
641
 10
30930.786209
 20
26642.168493
 30
0.0
 40
45.000001
 50
119.87
 51
240.13
  0
ARC
  8
33
  6
CONTINUOUS
 62
     2
  5
642
 10
30930.786209
 20
26642.168493
 30
0.0
 40
41.800001
 50
170.63
 51
189.02
  0
LINE
  8
33
  6
CONTINUOUS
 62
     2
  5
643
 10
30888.786209
 20
26634.568493
 30
0.0
 11
30895.786209
 21
26634.568493
 31
0.0
  0
LINE
  8
33
  6
CONTINUOUS
 62
     2
  5
644
 10
30895.786209
 20
26648.968493
 30
0.0
 11
30889.586209
 21
26648.968493
 31
0.0
  0
LINE
  8
33
  6
CONTINUOUS
 62
     2
  5
645
 10
30888.786209
 20
26649.868493
 30
0.0
 11
30895.786209
 21
26649.868493
 31
0.0
  0
LINE
  8
33
  6
CONTINUOUS
 62
     2
  5
646
 10
30895.786209
 20
26635.468493
 30
0.0
 11
30889.486209
 21
26635.468493
 31
0.0
  0
ARC
  8
33
  6
CONTINUOUS
 62
     2
  5
647
 10
30895.786209
 20
26642.168493
 30
0.0
 40
7.7
 50
270.0
 51
90.0
  0
CIRCLE
  8
34
  6
CONTINUOUS
 62
     2
  5
648
 10
30895.786209
 20
26642.168493
 30
0.0
 40
4.4
  0
ARC
  8
33
  6
CONTINUOUS
 62
     2
  5
649
 10
30895.786209
 20
26642.168493
 30
0.0
 40
6.8
 50
270.0
 51
90.0
  0
CIRCLE
  8
34
  6
CONTINUOUS
 62
     2
  5
64A
 10
30895.786209
 20
26642.168493
 30
0.0
 40
4.0
  0
LINE
  8
105
  6
CENTER
 62
     2
  5
64B
 10
30872.586209
 20
26642.168493
 30
0.0
 11
30938.58621
 21
26642.168493
 31
0.0
  0
CIRCLE
  8
4
  6
CONTINUOUS
 62
     2
  5
64C
 10
31364.786216
 20
26642.168493
 30
0.0
 40
10.5
  0
ARC
  8
3
  6
CONTINUOUS
 62
     2
  5
64D
 10
31364.786216
 20
26642.168493
 30
0.0
 40
45.000001
 50
198.68
 51
261.82
  0
ARC
  8
33
  6
CONTINUOUS
 62
     2
  5
64E
 10
31364.786216
 20
26642.168493
 30
0.0
 40
41.800001
 50
230.63
 51
249.02
  0
ARC
  8
31
  6
DIVIDE
 62
     2
  5
64F
 10
31364.786216
 20
26642.168493
 30
0.0
 40
42.700001
 50
199.71
 51
261.38
  0
LINE
  8
33
  6
CONTINUOUS
 62
     2
  5
650
 10
31350.386216
 20
26601.968492
 30
0.0
 11
31353.886216
 21
26608.068492
 31
0.0
  0
LINE
  8
33
  6
CONTINUOUS
 62
     2
  5
651
 10
31353.086216
 20
26608.468492
 30
0.0
 11
31349.986216
 21
26603.068492
 31
0.0
  0
LINE
  8
33
  6
CONTINUOUS
 62
     2
  5
652
 10
31341.386216
 20
26615.268493
 30
0.0
 11
31338.286216
 21
26609.868492
 31
0.0
  0
LINE
  8
33
  6
CONTINUOUS
 62
     2
  5
653
 10
31337.086215
 20
26609.668492
 30
0.0
 11
31340.586216
 21
26615.668493
 31
0.0
  0
CIRCLE
  8
34
  6
CONTINUOUS
 62
     2
  5
654
 10
31347.286216
 20
26611.868492
 30
0.0
 40
4.4
  0
CIRCLE
  8
34
  6
CONTINUOUS
 62
     2
  5
655
 10
31347.286216
 20
26611.868492
 30
0.0
 40
4.0
  0
ARC
  8
3
  6
CONTINUOUS
 62
     2
  5
656
 10
31364.786216
 20
26642.168493
 30
0.0
 40
45.000001
 50
299.87
 51
60.13
  0
CIRCLE
  8
34
  6
CONTINUOUS
 62
     2
  5
657
 10
31399.786216
 20
26642.168493
 30
0.0
 40
4.0
  0
CIRCLE
  8
34
  6
CONTINUOUS
 62
     2
  5
658
 10
31399.786216
 20
26642.168493
 30
0.0
 40
4.4
  0
LINE
  8
33
  6
CONTINUOUS
 62
     2
  5
659
 10
31399.786216
 20
26635.368493
 30
0.0
 11
31405.986217
 21
26635.368493
 31
0.0
  0
ARC
  8
33
  6
CONTINUOUS
 62
     2
  5
65A
 10
31364.786216
 20
26642.168493
 30
0.0
 40
41.800001
 50
350.63
 51
9.02
  0
LINE
  8
33
  6
CONTINUOUS
 62
     2
  5
65B
 10
31406.786217
 20
26649.768493
 30
0.0
 11
31399.786216
 21
26649.768493
 31
0.0
  0
LINE
  8
33
  6
CONTINUOUS
 62
     2
  5
65C
 10
31406.786217
 20
26634.468493
 30
0.0
 11
31399.786216
 21
26634.468493
 31
0.0
  0
LINE
  8
33
  6
CONTINUOUS
 62
     2
  5
65D
 10
31399.786216
 20
26648.868493
 30
0.0
 11
31406.086217
 21
26648.868493
 31
0.0
  0
LINE
  8
105
  6
CENTER
 62
     2
  5
65E
 10
31417.386217
 20
26642.168493
 30
0.0
 11
31357.986216
 21
26642.168493
 31
0.0
  0
ARC
  8
3
  6
CONTINUOUS
 62
     2
  5
65F
 10
31364.786216
 20
26642.168493
 30
0.0
 40
45.000001
 50
98.18
 51
161.32
  0
ARC
  8
31
  6
DIVIDE
 62
     2
  5
660
 10
31364.786216
 20
26642.168493
 30
0.0
 40
42.700001
 50
98.62
 51
160.29
  0
ARC
  8
33
  6
CONTINUOUS
 62
     2
  5
661
 10
31347.286216
 20
26672.468493
 30
0.0
 40
7.7
 50
210.0
 51
30.0
  0
ARC
  8
33
  6
CONTINUOUS
 62
     2
  5
662
 10
31347.286216
 20
26672.468493
 30
0.0
 40
6.8
 50
210.0
 51
30.0
  0
LINE
  8
33
  6
CONTINUOUS
 62
     2
  5
663
 10
31337.186215
 20
26674.768493
 30
0.0
 11
31340.686216
 21
26668.668493
 31
0.0
  0
LINE
  8
33
  6
CONTINUOUS
 62
     2
  5
664
 10
31341.486216
 20
26669.168493
 30
0.0
 11
31338.286216
 21
26674.568493
 31
0.0
  0
CIRCLE
  8
34
  6
CONTINUOUS
 62
     2
  5
665
 10
31347.286216
 20
26672.468493
 30
0.0
 40
4.0
  0
CIRCLE
  8
34
  6
CONTINUOUS
 62
     2
  5
666
 10
31347.286216
 20
26672.468493
 30
0.0
 40
4.4
  0
ARC
  8
33
  6
CONTINUOUS
 62
     2
  5
667
 10
31364.786216
 20
26642.168493
 30
0.0
 40
41.800001
 50
110.63
 51
129.02
  0
ARC
  8
33
  6
CONTINUOUS
 62
     2
  5
668
 10
30948.28621
 20
26372.468489
 30
0.0
 40
7.7
 50
150.0
 51
330.0
  0
ARC
  8
33
  6
CONTINUOUS
 62
     2
  5
669
 10
30948.28621
 20
26372.468489
 30
0.0
 40
6.8
 50
150.0
 51
330.0
  0
ARC
  8
33
  6
CONTINUOUS
 62
     2
  5
66A
 10
30930.786209
 20
26342.168488
 30
0.0
 40
41.800001
 50
50.63
 51
69.02
  0
LINE
  8
33
  6
CONTINUOUS
 62
     2
  5
66B
 10
30954.18621
 20
26369.068489
 30
0.0
 11
30957.28621
 21
26374.468489
 31
0.0
  0
LINE
  8
33
  6
CONTINUOUS
 62
     2
  5
66C
 10
30958.48621
 20
26374.668489
 30
0.0
 11
30954.98621
 21
26368.668489
 31
0.0
  0
ARC
  8
31
  6
DIVIDE
 62
     2
  5
66D
 10
30930.786209
 20
26342.168488
 30
0.0
 40
42.700001
 50
19.71
 51
81.38
  0
ARC
  8
3
  6
CONTINUOUS
 62
     2
  5
66E
 10
30930.786209
 20
26342.168488
 30
0.0
 40
45.000001
 50
18.68
 51
81.82
  0
CIRCLE
  8
34
  6
CONTINUOUS
 62
     2
  5
66F
 10
30948.28621
 20
26372.468489
 30
0.0
 40
4.0
  0
CIRCLE
  8
34
  6
CONTINUOUS
 62
     2
  5
670
 10
30948.28621
 20
26372.468489
 30
0.0
 40
4.4
  0
LINE
  8
33
  6
CONTINUOUS
 62
     2
  5
671
 10
30942.48621
 20
26375.868489
 30
0.0
 11
30945.58621
 21
26381.268489
 31
0.0
  0
CIRCLE
  8
4
  6
CONTINUOUS
 62
     2
  5
672
 10
30930.786209
 20
26342.168488
 30
0.0
 40
10.5
  0
ARC
  8
33
  6
CONTINUOUS
 62
     2
  5
673
 10
30895.786209
 20
26342.168488
 30
0.0
 40
7.7
 50
270.0
 51
90.0
  0
ARC
  8
33
  6
CONTINUOUS
 62
     2
  5
674
 10
30895.786209
 20
26342.168488
 30
0.0
 40
6.8
 50
270.0
 51
90.0
  0
LINE
  8
33
  6
CONTINUOUS
 62
     2
  5
675
 10
30888.786209
 20
26334.568488
 30
0.0
 11
30895.786209
 21
26334.568488
 31
0.0
  0
LINE
  8
33
  6
CONTINUOUS
 62
     2
  5
676
 10
30895.786209
 20
26335.468488
 30
0.0
 11
30889.486209
 21
26335.468488
 31
0.0
  0
LINE
  8
33
  6
CONTINUOUS
 62
     2
  5
677
 10
30895.786209
 20
26348.968489
 30
0.0
 11
30889.586209
 21
26348.968489
 31
0.0
  0
LINE
  8
33
  6
CONTINUOUS
 62
     2
  5
678
 10
30888.786209
 20
26349.868489
 30
0.0
 11
30895.786209
 21
26349.868489
 31
0.0
  0
CIRCLE
  8
34
  6
CONTINUOUS
 62
     2
  5
679
 10
30895.786209
 20
26342.168488
 30
0.0
 40
4.0
  0
CIRCLE
  8
34
  6
CONTINUOUS
 62
     2
  5
67A
 10
30895.786209
 20
26342.168488
 30
0.0
 40
4.4
  0
LINE
  8
105
  6
CENTER
 62
     2
  5
67B
 10
30872.586209
 20
26342.168488
 30
0.0
 11
30939.78621
 21
26342.168488
 31
0.0
  0
LINE
  8
33
  6
CONTINUOUS
 62
     2
  5
67C
 10
30958.38621
 20
26309.568488
 30
0.0
 11
30954.88621
 21
26315.668488
 31
0.0
  0
LINE
  8
33
  6
CONTINUOUS
 62
     2
  5
67D
 10
30942.38621
 20
26308.468488
 30
0.0
 11
30945.48621
 21
26303.068488
 31
0.0
  0
LINE
  8
33
  6
CONTINUOUS
 62
     2
  5
67E
 10
30945.08621
 20
26301.968488
 30
0.0
 11
30941.58621
 21
26307.968488
 31
0.0
  0
LINE
  8
33
  6
CONTINUOUS
 62
     2
  5
67F
 10
30954.08621
 20
26315.168488
 30
0.0
 11
30957.28621
 21
26309.768488
 31
0.0
  0
ARC
  8
33
  6
CONTINUOUS
 62
     2
  5
680
 10
30930.786209
 20
26342.168488
 30
0.0
 40
41.800001
 50
290.63
 51
309.02
  0
ARC
  8
31
  6
DIVIDE
 62
     2
  5
681
 10
30930.786209
 20
26342.168488
 30
0.0
 40
42.700001
 50
278.62
 51
340.29
  0
ARC
  8
3
  6
CONTINUOUS
 62
     2
  5
682
 10
30930.786209
 20
26342.168488
 30
0.0
 40
45.000001
 50
278.18
 51
341.32
  0
CIRCLE
  8
34
  6
CONTINUOUS
 62
     2
  5
683
 10
30948.28621
 20
26311.868488
 30
0.0
 40
4.0
  0
CIRCLE
  8
34
  6
CONTINUOUS
 62
     2
  5
684
 10
30948.28621
 20
26311.868488
 30
0.0
 40
4.4
  0
ARC
  8
33
  6
CONTINUOUS
 62
     2
  5
685
 10
30948.28621
 20
26311.868488
 30
0.0
 40
6.8
 50
30.0
 51
210.0
  0
ARC
  8
33
  6
CONTINUOUS
 62
     2
  5
686
 10
30948.28621
 20
26311.868488
 30
0.0
 40
7.7
 50
30.0
 51
210.0
  0
LINE
  8
33
  6
CONTINUOUS
 62
     2
  5
687
 10
30945.18621
 20
26382.368489
 30
0.0
 11
30941.68621
 21
26376.268489
 31
0.0
  0
ARC
  8
3
  6
CONTINUOUS
 62
     2
  5
688
 10
30930.786209
 20
26342.168488
 30
0.0
 40
45.000001
 50
119.87
 51
240.13
  0
LINE
  8
33
  6
CONTINUOUS
 62
     2
  5
689
 10
31337.186215
 20
26374.768489
 30
0.0
 11
31340.686216
 21
26368.668489
 31
0.0
  0
LINE
  8
33
  6
CONTINUOUS
 62
     2
  5
68A
 10
31341.486216
 20
26369.168489
 30
0.0
 11
31338.286216
 21
26374.568489
 31
0.0
  0
LINE
  8
33
  6
CONTINUOUS
 62
     2
  5
68B
 10
31353.186216
 20
26375.868489
 30
0.0
 11
31350.086216
 21
26381.268489
 31
0.0
  0
LINE
  8
33
  6
CONTINUOUS
 62
     2
  5
68C
 10
31350.486216
 20
26382.368489
 30
0.0
 11
31353.986216
 21
26376.368489
 31
0.0
  0
CIRCLE
  8
34
  6
CONTINUOUS
 62
     2
  5
68D
 10
31347.286216
 20
26372.468489
 30
0.0
 40
4.0
  0
CIRCLE
  8
34
  6
CONTINUOUS
 62
     2
  5
68E
 10
31347.286216
 20
26372.468489
 30
0.0
 40
4.4
  0
ARC
  8
31
  6
DIVIDE
 62
     2
  5
68F
 10
31364.786216
 20
26342.168488
 30
0.0
 40
42.700001
 50
98.62
 51
160.29
  0
ARC
  8
3
  6
CONTINUOUS
 62
     2
  5
690
 10
31364.786216
 20
26342.168488
 30
0.0
 40
45.000001
 50
98.18
 51
161.32
  0
ARC
  8
33
  6
CONTINUOUS
 62
     2
  5
691
 10
31347.286216
 20
26372.468489
 30
0.0
 40
7.7
 50
210.0
 51
30.0
  0
ARC
  8
33
  6
CONTINUOUS
 62
     2
  5
692
 10
31347.286216
 20
26372.468489
 30
0.0
 40
6.8
 50
210.0
 51
30.0
  0
ARC
  8
33
  6
CONTINUOUS
 62
     2
  5
693
 10
31364.786216
 20
26342.168488
 30
0.0
 40
41.800001
 50
110.63
 51
129.02
  0
ARC
  8
3
  6
CONTINUOUS
 62
     2
  5
694
 10
31364.786216
 20
26342.168488
 30
0.0
 40
45.000001
 50
299.87
 51
60.13
  0
ARC
  8
33
  6
CONTINUOUS
 62
     2
  5
695
 10
31399.786216
 20
26342.168488
 30
0.0
 40
7.7
 50
90.0
 51
270.0
  0
ARC
  8
33
  6
CONTINUOUS
 62
     2
  5
696
 10
31399.786216
 20
26342.168488
 30
0.0
 40
6.8
 50
90.0
 51
270.0
  0
LINE
  8
33
  6
CONTINUOUS
 62
     2
  5
697
 10
31406.786217
 20
26349.768489
 30
0.0
 11
31399.786216
 21
26349.768489
 31
0.0
  0
LINE
  8
33
  6
CONTINUOUS
 62
     2
  5
698
 10
31399.786216
 20
26348.868489
 30
0.0
 11
31406.086217
 21
26348.868489
 31
0.0
  0
ARC
  8
33
  6
CONTINUOUS
 62
     2
  5
699
 10
31364.786216
 20
26342.168488
 30
0.0
 40
41.800001
 50
350.63
 51
9.02
  0
LINE
  8
33
  6
CONTINUOUS
 62
     2
  5
69A
 10
31399.786216
 20
26335.368488
 30
0.0
 11
31405.986217
 21
26335.368488
 31
0.0
  0
LINE
  8
33
  6
CONTINUOUS
 62
     2
  5
69B
 10
31406.786217
 20
26334.468488
 30
0.0
 11
31399.786216
 21
26334.468488
 31
0.0
  0
CIRCLE
  8
34
  6
CONTINUOUS
 62
     2
  5
69C
 10
31399.786216
 20
26342.168488
 30
0.0
 40
4.0
  0
CIRCLE
  8
34
  6
CONTINUOUS
 62
     2
  5
69D
 10
31399.786216
 20
26342.168488
 30
0.0
 40
4.4
  0
ARC
  8
33
  6
CONTINUOUS
 62
     2
  5
69E
 10
31347.286216
 20
26311.868488
 30
0.0
 40
7.7
 50
330.0
 51
150.0
  0
LINE
  8
33
  6
CONTINUOUS
 62
     2
  5
69F
 10
31350.386216
 20
26301.968488
 30
0.0
 11
31353.886216
 21
26308.068488
 31
0.0
  0
LINE
  8
33
  6
CONTINUOUS
 62
     2
  5
6A0
 10
31353.086216
 20
26308.468488
 30
0.0
 11
31349.986216
 21
26303.068488
 31
0.0
  0
ARC
  8
3
  6
CONTINUOUS
 62
     2
  5
6A1
 10
31364.786216
 20
26342.168488
 30
0.0
 40
45.000001
 50
198.68
 51
261.82
  0
ARC
  8
31
  6
DIVIDE
 62
     2
  5
6A2
 10
31364.786216
 20
26342.168488
 30
0.0
 40
42.700001
 50
199.71
 51
261.38
  0
ARC
  8
33
  6
CONTINUOUS
 62
     2
  5
6A3
 10
31347.286216
 20
26311.868488
 30
0.0
 40
6.8
 50
330.0
 51
150.0
  0
ARC
  8
33
  6
CONTINUOUS
 62
     2
  5
6A4
 10
31364.786216
 20
26342.168488
 30
0.0
 40
41.800001
 50
230.63
 51
249.02
  0
LINE
  8
33
  6
CONTINUOUS
 62
     2
  5
6A5
 10
31341.386216
 20
26315.268488
 30
0.0
 11
31338.286216
 21
26309.868488
 31
0.0
  0
LINE
  8
33
  6
CONTINUOUS
 62
     2
  5
6A6
 10
31337.086215
 20
26309.668488
 30
0.0
 11
31340.586216
 21
26315.668488
 31
0.0
  0
CIRCLE
  8
34
  6
CONTINUOUS
 62
     2
  5
6A7
 10
31347.286216
 20
26311.868488
 30
0.0
 40
4.4
  0
CIRCLE
  8
34
  6
CONTINUOUS
 62
     2
  5
6A8
 10
31347.286216
 20
26311.868488
 30
0.0
 40
4.0
  0
CIRCLE
  8
4
  6
CONTINUOUS
 62
     2
  5
6A9
 10
31364.786216
 20
26342.168488
 30
0.0
 40
10.5
  0
LINE
  8
105
  6
CENTER
 62
     2
  5
6AA
 10
31417.386217
 20
26342.168488
 30
0.0
 11
31357.286216
 21
26342.168488
 31
0.0
  0
LINE
  8
1
  6
CONTINUOUS
 62
     4
  5
6AB
 10
31087.186212
 20
26224.568487
 30
0.0
 11
31087.186212
 21
26309.768488
 31
0.0
  0
LINE
  8
1
  6
CONTINUOUS
 62
     4
  5
6AC
 10
30937.18621
 20
26224.568487
 30
0.0
 11
30937.18621
 21
26309.768488
 31
0.0
  0
LINE
  8
1
  6
CONTINUOUS
 62
     4
  5
6AD
 10
31058.386211
 20
26224.568487
 30
0.0
 11
31058.386211
 21
26309.768488
 31
0.0
  0
LINE
  8
1
  6
CONTINUOUS
 62
     4
  5
6AE
 10
30908.386209
 20
26222.768487
 30
0.0
 11
30908.386209
 21
26761.568495
 31
0.0
  0
ARC
  8
33
  6
CONTINUOUS
 62
     2
  5
6AF
 10
30930.786209
 20
26342.168488
 30
0.0
 40
41.800001
 50
170.63
 51
189.02
  0
LINE
  8
4
  6
CONTINUOUS
 62
     2
  5
6B0
 10
30932.986209
 20
26352.468489
 30
0.0
 11
30932.986209
 21
26349.768489
 31
0.0
  0
ARC
  8
3
  6
CONTINUOUS
 62
     2
  5
6B1
 10
30930.786209
 20
26342.168488
 30
0.0
 40
42.700001
 50
121.61
 51
238.39
  0
ARC
  8
3
  6
CONTINUOUS
 62
     2
  5
6B2
 10
31364.786216
 20
26342.168488
 30
0.0
 40
42.700001
 50
301.61
 51
58.39
  0
ARC
  8
3
  6
CONTINUOUS
 62
     2
  5
6B3
 10
31364.786216
 20
26642.168493
 30
0.0
 40
42.700001
 50
301.61
 51
58.39
  0
ARC
  8
3
  6
CONTINUOUS
 62
     2
  5
6B4
 10
30930.786209
 20
26642.168493
 30
0.0
 40
42.700001
 50
121.61
 51
238.39
  0
CIRCLE
  8
8
  6
CONTINUOUS
 62
     2
  5
6B5
 10
31698.202825
 20
26177.768486
 30
0.0
 40
5.0
  0
CIRCLE
  8
8
  6
CONTINUOUS
 62
     2
  5
6B6
 10
31698.202825
 20
25547.769317
 30
0.0
 40
5.0
  0
TEXT
  8
8
  6
CONTINUOUS
 62
     2
  5
6B7
 10
31698.202825
 20
25787.768902
 30
0.0
 40
100.0
  1
630
 50
90.0
 41
0.5
  7
DRACAD
 72
     5
 11
31698.202825
 21
25937.768902
 31
0.0
  0
LINE
  8
0
  6
CONTINUOUS
 62
     3
  5
6B8
 10
30927.432582
 20
26045.148875
 30
0.0
 11
30927.432582
 21
26129.148875
 31
0.0
  0
CIRCLE
  8
0
  6
CONTINUOUS
 62
     3
  5
6B9
 10
30968.665209
 20
26087.916248
 30
0.0
 40
18.742103
  0
LINE
  8
0
  6
CONTINUOUS
 62
     3
  5
6BA
 10
30927.432582
 20
26129.148875
 30
0.0
 11
31147.432582
 21
26129.148875
 31
0.0
  0
CIRCLE
  8
0
  6
CONTINUOUS
 62
     3
  5
6BB
 10
31069.299498
 20
26086.939216
 30
0.0
 40
18.742103
  0
CIRCLE
  8
0
  6
CONTINUOUS
 62
     3
  5
6BC
 10
31117.174063
 20
26086.939216
 30
0.0
 40
18.742103
  0
LINE
  8
0
  6
CONTINUOUS
 62
     3
  5
6BD
 10
31147.432582
 20
26045.148875
 30
0.0
 11
30927.432582
 21
26045.148875
 31
0.0
  0
LINE
  8
0
  6
CONTINUOUS
 62
     3
  5
6BE
 10
31147.432582
 20
26129.148875
 30
0.0
 11
31147.432582
 21
26045.148875
 31
0.0
  0
LINE
  8
160
  6
CONTINUOUS
 62
     3
  5
6BF
 10
31297.273134
 20
26080.769317
 30
0.0
 11
31283.273134
 21
26094.769317
 31
0.0
  0
LINE
  8
160
  6
CONTINUOUS
 62
     3
  5
6C0
 10
31283.273134
 20
26080.769317
 30
0.0
 11
31297.273134
 21
26094.769317
 31
0.0
  0
LINE
  8
160
  6
CONTINUOUS
 62
     3
  5
6C1
 10
31347.273134
 20
26031.769317
 30
0.0
 11
31360.773134
 21
26031.769317
 31
0.0
  0
ARC
  8
160
  6
CONTINUOUS
 62
     3
  5
6C2
 10
31123.773134
 20
26087.769317
 30
0.0
 40
250.0
 50
348.55
 51
353.45
  0
ARC
  8
160
  6
CONTINUOUS
 62
     3
  5
6C3
 10
31360.773134
 20
26135.769317
 30
0.0
 40
8.0
 50
11.43
 51
90.0
  0
ARC
  8
160
  6
CONTINUOUS
 62
     3
  5
6C4
 10
31360.773134
 20
26039.769317
 30
0.0
 40
8.0
 50
270.0
 51
348.55
  0
ARC
  8
160
  6
CONTINUOUS
 62
     3
  5
6C5
 10
31219.773134
 20
26135.769317
 30
0.0
 40
8.0
 50
90.0
 51
168.55
  0
ARC
  8
160
  6
CONTINUOUS
 62
     3
  5
6C6
 10
31456.773134
 20
26087.769317
 30
0.0
 40
250.0
 50
168.55
 51
173.45
  0
ARC
  8
160
  6
CONTINUOUS
 62
     3
  5
6C7
 10
31219.773134
 20
26039.769317
 30
0.0
 40
8.0
 50
191.44
 51
270.0
  0
ARC
  8
160
  6
CONTINUOUS
 62
     3
  5
6C8
 10
31123.773134
 20
26087.769317
 30
0.0
 40
250.0
 50
6.54
 51
11.43
  0
ARC
  8
160
  6
CONTINUOUS
 62
     3
  5
6C9
 10
31456.773134
 20
26087.769317
 30
0.0
 40
250.0
 50
186.54
 51
191.44
  0
LINE
  8
160
  6
CONTINUOUS
 62
     3
  5
6CA
 10
31347.273134
 20
26110.769317
 30
0.0
 11
31347.273134
 21
26025.519317
 31
0.0
  0
LINE
  8
160
  6
CONTINUOUS
 62
     3
  5
6CB
 10
31226.273134
 20
26110.769317
 30
0.0
 11
31354.273134
 21
26110.769317
 31
0.0
  0
LINE
  8
160
  6
CONTINUOUS
 62
     3
  5
6CC
 10
31224.773134
 20
26143.769317
 30
0.0
 11
31360.773134
 21
26143.769317
 31
0.0
  0
LINE
  8
160
  6
CONTINUOUS
 62
     3
  5
6CD
 10
31224.773134
 20
26031.769317
 30
0.0
 11
31233.273134
 21
26031.769317
 31
0.0
  0
LINE
  8
160
  6
CONTINUOUS
 62
     3
  5
6CE
 10
31226.273134
 20
26143.769317
 30
0.0
 11
31226.273134
 21
26031.769317
 31
0.0
  0
LINE
  8
160
  6
CONTINUOUS
 62
     3
  5
6CF
 10
31354.273134
 20
26143.769317
 30
0.0
 11
31354.273134
 21
26067.519317
 31
0.0
  0
LINE
  8
160
  6
CONTINUOUS
 62
     3
  5
6D0
 10
31219.773134
 20
26143.769317
 30
0.0
 11
31224.773134
 21
26143.769317
 31
0.0
  0
LINE
  8
160
  6
CONTINUOUS
 62
     3
  5
6D1
 10
31219.773134
 20
26031.769317
 30
0.0
 11
31224.773134
 21
26031.769317
 31
0.0
  0
LINE
  8
160
  6
CONTINUOUS
 62
     3
  5
6D2
 10
31372.023134
 20
26116.269317
 30
0.0
 11
31372.023134
 21
26059.269317
 31
0.0
  0
LINE
  8
160
  6
CONTINUOUS
 62
     3
  5
6D3
 10
31208.523134
 20
26116.269317
 30
0.0
 11
31208.523134
 21
26059.269317
 31
0.0
  0
LINE
  8
160
  6
CONTINUOUS
 62
     3
  5
6D4
 10
31233.273134
 20
26025.519317
 30
0.0
 11
31347.273134
 21
26025.519317
 31
0.0
  0
LINE
  8
160
  6
CONTINUOUS
 62
     3
  5
6D5
 10
31354.273134
 20
26093.519317
 30
0.0
 11
31347.273134
 21
26093.269317
 31
0.0
  0
LINE
  8
160
  6
CONTINUOUS
 62
     3
  5
6D6
 10
31354.273134
 20
26081.269317
 30
0.0
 11
31347.273134
 21
26082.769317
 31
0.0
  0
LINE
  8
160
  6
CONTINUOUS
 62
     3
  5
6D7
 10
31226.273134
 20
26093.519317
 30
0.0
 11
31233.273134
 21
26093.269317
 31
0.0
  0
LINE
  8
160
  6
CONTINUOUS
 62
     3
  5
6D8
 10
31226.273134
 20
26081.269317
 30
0.0
 11
31233.273134
 21
26082.769317
 31
0.0
  0
LINE
  8
160
  6
CONTINUOUS
 62
     3
  5
6D9
 10
31354.273134
 20
26067.519317
 30
0.0
 11
31354.273134
 21
26031.769317
 31
0.0
  0
LINE
  8
160
  6
CONTINUOUS
 62
     3
  5
6DA
 10
31233.273134
 20
26110.769317
 30
0.0
 11
31233.273134
 21
26025.519317
 31
0.0
  0
LINE
  8
0
  6
CONTINUOUS
 62
     2
  5
6DB
 10
31072.786212
 20
26757.168495
 30
0.0
 11
31072.786212
 21
26816.171613
 31
0.0
  0
LINE
  8
0
  6
CONTINUOUS
 62
     3
  5
6DC
 10
31698.202825
 20
26177.768486
 30
0.0
 11
31698.202825
 21
25547.769317
 31
0.0
  0
LINE
  8
100
  6
CENTER
 62
     2
  5
6DD
 10
30922.786209
 20
26816.171613
 30
0.0
 11
30922.786209
 21
26160.816368
 31
0.0
  0
LINE
  8
100
  6
CENTER
 62
     2
  5
6DE
 10
31147.786213
 20
26816.171613
 30
0.0
 11
31147.786213
 21
26161.795119
 31
0.0
  0
LINE
  8
100
  6
CENTER
 62
     2
  5
6DF
 10
31072.786212
 20
26757.968495
 30
0.0
 11
31072.786212
 21
26163.752621
 31
0.0
  0
LINE
  8
100
  6
CENTER
 62
     2
  5
6E0
 10
30818.3728
 20
26492.168491
 30
0.0
 11
31463.369599
 21
26492.168491
 31
0.0
  0
LINE
  8
0
  6
CONTINUOUS
 62
     2
  5
6E1
 10
31788.683866
 20
25547.769317
 30
0.0
 11
31753.948781
 21
25587.848261
 31
0.0
  0
LINE
  8
0
  6
CONTINUOUS
 62
     2
  5
6E2
 10
31753.948781
 20
25587.848261
 30
0.0
 11
31823.418951
 21
25587.848261
 31
0.0
  0
LINE
  8
0
  6
CONTINUOUS
 62
     2
  5
6E3
 10
31823.418951
 20
25587.848261
 30
0.0
 11
31788.683866
 21
25547.769317
 31
0.0
  0
LINE
  8
0
  6
CONTINUOUS
 62
     2
  5
6E4
 10
31788.683866
 20
25547.769317
 30
0.0
 11
31823.418951
 21
25507.690373
 31
0.0
  0
LINE
  8
0
  6
CONTINUOUS
 62
     2
  5
6E5
 10
31823.418951
 20
25507.690373
 30
0.0
 11
31753.948781
 21
25507.690373
 31
0.0
  0
LINE
  8
0
  6
CONTINUOUS
 62
     2
  5
6E6
 10
31753.948781
 20
25507.690373
 30
0.0
 11
31788.683866
 21
25547.769317
 31
0.0
  0
LINE
  8
0
  6
CONTINUOUS
 62
     3
  5
6E7
 10
31698.202825
 20
26177.768486
 30
0.0
 11
31397.197613
 21
26177.768486
 31
0.0
  0
LINE
  8
10
  6
CENTER
 62
     2
  5
6E8
 10
30997.786213
 20
26816.171613
 30
0.0
 11
30997.786213
 21
26021.303579
 31
0.0
  0
LINE
  8
0
  6
CONTINUOUS
 62
     3
  5
6E9
 10
31698.202825
 20
25547.769317
 30
0.0
 11
31448.202825
 21
25547.769317
 31
0.0
  0
LINE
  8
4
  6
CONTINUOUS
 62
     5
  5
6EA
 10
30307.786213
 20
25547.769317
 30
0.0
 11
31834.77127
 21
25547.769317
 31
0.0
  0
LINE
  8
0
  6
CONTINUOUS
 62
     2
  5
6EB
 10
30998.8124
 20
27526.329427
 30
0.0
 11
31047.684422
 21
27526.329427
 31
0.0
  0
ARC
  8
0
  6
CONTINUOUS
 62
     2
  5
6EC
 10
30998.812437
 20
27526.329464
 30
0.0
 40
48.871985
 50
359.999957
 51
90.000043
  0
LINE
  8
0
  6
CONTINUOUS
 62
     2
  5
6ED
 10
30998.8124
 20
27575.201449
 30
0.0
 11
30998.8124
 21
27477.457405
 31
0.0
  0
ARC
  8
0
  6
CONTINUOUS
 62
     2
  5
6EE
 10
30998.812363
 20
27526.32939
 30
0.0
 40
48.871985
 50
179.999957
 51
270.000043
  0
LINE
  8
0
  6
CONTINUOUS
 62
     2
  5
6EF
 10
30949.940378
 20
27526.329427
 30
0.0
 11
30998.8124
 21
27526.329427
 31
0.0
  0
LINE
  8
0
  6
CONTINUOUS
 62
     2
  5
6F0
 10
30930.270898
 20
27526.329427
 30
0.0
 11
31067.353903
 21
27526.329427
 31
0.0
  0
LINE
  8
0
  6
CONTINUOUS
 62
     2
  5
6F1
 10
31067.353903
 20
27526.329427
 30
0.0
 11
30930.270898
 21
27526.329427
 31
0.0
  0
LINE
  8
0
  6
CONTINUOUS
 62
     2
  5
6F2
 10
30998.8124
 20
27457.305238
 30
0.0
 11
30998.8124
 21
27595.353616
 31
0.0
  0
CIRCLE
  8
0
  6
CONTINUOUS
 62
     2
  5
6F3
 10
30998.8124
 20
27526.329427
 30
0.0
 40
48.872022
  0
CIRCLE
  8
8
  6
CONTINUOUS
 62
     2
  5
6F4
 10
31387.186216
 20
25392.769317
 30
0.0
 40
5.0
  0
LINE
  8
0
  6
CONTINUOUS
 62
     3
  5
6F5
 10
30997.786213
 20
25392.769317
 30
0.0
 11
31387.186216
 21
25392.769317
 31
0.0
  0
CIRCLE
  8
8
  6
CONTINUOUS
 62
     2
  5
6F6
 10
30997.786213
 20
25392.769317
 30
0.0
 40
5.0
  0
TEXT
  8
8
  6
CONTINUOUS
 62
     2
  5
6F7
 10
31117.486214
 20
25392.769317
 30
0.0
 40
100.0
  1
390
 41
0.5
  7
DRACAD
 72
     5
 11
31267.486214
 21
25392.769317
 31
0.0
  0
LINE
  8
0
  6
CONTINUOUS
 62
     3
  5
6F8
 10
31387.186216
 20
25392.769317
 30
0.0
 11
31387.186216
 21
26161.647325
 31
0.0
  0
LINE
  8
0
  6
CONTINUOUS
 62
     2
  5
6F9
 10
30997.786213
 20
25547.769317
 30
0.0
 11
31046.658235
 21
25547.769317
 31
0.0
  0
ARC
  8
0
  6
CONTINUOUS
 62
     2
  5
6FA
 10
30997.78625
 20
25547.769354
 30
0.0
 40
48.871985
 50
359.999957
 51
90.000043
  0
LINE
  8
0
  6
CONTINUOUS
 62
     2
  5
6FB
 10
30997.786213
 20
25596.641339
 30
0.0
 11
30997.786213
 21
25498.897295
 31
0.0
  0
ARC
  8
0
  6
CONTINUOUS
 62
     2
  5
6FC
 10
30997.786176
 20
25547.76928
 30
0.0
 40
48.871985
 50
179.999957
 51
270.000043
  0
LINE
  8
0
  6
CONTINUOUS
 62
     2
  5
6FD
 10
30948.914191
 20
25547.769317
 30
0.0
 11
30997.786213
 21
25547.769317
 31
0.0
  0
LINE
  8
0
  6
CONTINUOUS
 62
     2
  5
6FE
 10
30929.24471
 20
25547.769317
 30
0.0
 11
31066.327715
 21
25547.769317
 31
0.0
  0
LINE
  8
0
  6
CONTINUOUS
 62
     2
  5
6FF
 10
31066.327715
 20
25547.769317
 30
0.0
 11
30929.24471
 21
25547.769317
 31
0.0
  0
LINE
  8
0
  6
CONTINUOUS
 62
     2
  5
700
 10
30997.786213
 20
25478.745128
 30
0.0
 11
30997.786213
 21
25616.793506
 31
0.0
  0
CIRCLE
  8
0
  6
CONTINUOUS
 62
     2
  5
701
 10
30997.786213
 20
25547.769317
 30
0.0
 40
48.872022
  0
CIRCLE
  8
8
  6
CONTINUOUS
 62
     2
  5
702
 10
31388.212404
 20
27526.329427
 30
0.0
 40
5.0
  0
LINE
  8
0
  6
CONTINUOUS
 62
     3
  5
703
 10
30998.8124
 20
27526.329427
 30
0.0
 11
31388.212404
 21
27526.329427
 31
0.0
  0
CIRCLE
  8
8
  6
CONTINUOUS
 62
     2
  5
704
 10
30998.8124
 20
27526.329427
 30
0.0
 40
5.0
  0
TEXT
  8
8
  6
CONTINUOUS
 62
     2
  5
705
 10
31118.512402
 20
27526.329427
 30
0.0
 40
100.0
  1
390
 41
0.5
  7
DRACAD
 72
     5
 11
31268.512402
 21
27526.329427
 31
0.0
  0
LINE
  8
0
  6
CONTINUOUS
 62
     2
  5
706
 10
31387.186216
 20
26761.568495
 30
0.0
 11
31387.186216
 21
27847.826232
 31
0.0
  0
CIRCLE
  8
8
  6
CONTINUOUS
 62
     2
  5
707
 10
31542.951763
 20
27915.72943
 30
0.0
 40
5.0
  0
LINE
  8
0
  6
CONTINUOUS
 62
     3
  5
708
 10
31542.951763
 20
27526.329427
 30
0.0
 11
31542.951763
 21
27915.72943
 31
0.0
  0
CIRCLE
  8
8
  6
CONTINUOUS
 62
     2
  5
709
 10
31542.951763
 20
27526.329427
 30
0.0
 40
5.0
  0
TEXT
  8
8
  6
CONTINUOUS
 62
     2
  5
70A
 10
31542.951763
 20
27646.029429
 30
0.0
 40
100.0
  1
390
 50
90.0
 41
0.5
  7
DRACAD
 72
     5
 11
31542.951763
 21
27796.029429
 31
0.0
  0
LINE
  8
1
  6
CONTINUOUS
 62
     5
  5
70B
 10
31409.786213
 20
27978.504905
 30
0.0
 11
31319.786213
 21
27978.504905
 31
0.0
  0
LINE
  8
1
  6
CONTINUOUS
 62
     5
  5
70C
 10
31409.786213
 20
27978.504905
 30
0.0
 11
31409.786213
 21
27968.149794
 31
0.0
  0
ARC
  8
1
  6
CONTINUOUS
 62
     5
  5
70D
 10
31407.786213
 20
27968.149794
 30
0.0
 40
2.0
 50
281.129189
 51
360.0
  0
ARC
  8
1
  6
CONTINUOUS
 62
     5
  5
70E
 10
31321.786213
 20
27968.149794
 30
0.0
 40
2.0
 50
180.0
 51
258.870811
  0
LINE
  8
1
  6
CONTINUOUS
 62
     5
  5
70F
 10
31319.786213
 20
27978.504905
 30
0.0
 11
31319.786213
 21
27968.149794
 31
0.0
  0
LINE
  8
1
  6
CONTINUOUS
 62
     5
  5
710
 10
31350.349442
 20
27956.458239
 30
0.0
 11
31350.786213
 21
27928.504905
 31
0.0
  0
ARC
  8
1
  6
CONTINUOUS
 62
     5
  5
711
 10
31345.350052
 20
27956.380123
 30
0.0
 40
5.0
 50
0.895174
 51
78.870811
  0
LINE
  8
1
  6
CONTINUOUS
 62
     5
  5
712
 10
31346.315161
 20
27961.286095
 30
0.0
 11
31321.400169
 21
27966.187405
 31
0.0
  0
LINE
  8
1
  6
CONTINUOUS
 62
     5
  5
713
 10
31378.786213
 20
27928.504905
 30
0.0
 11
31379.222983
 21
27956.458239
 31
0.0
  0
ARC
  8
1
  6
CONTINUOUS
 62
     5
  5
714
 10
31384.222373
 20
27956.380123
 30
0.0
 40
5.0
 50
101.129189
 51
179.104826
  0
LINE
  8
1
  6
CONTINUOUS
 62
     5
  5
715
 10
31408.172256
 20
27966.187405
 30
0.0
 11
31383.257264
 21
27961.286095
 31
0.0
  0
LINE
  8
1
  6
CONTINUOUS
 62
     5
  5
716
 10
30885.786213
 20
27978.504905
 30
0.0
 11
30975.786213
 21
27978.504905
 31
0.0
  0
LINE
  8
1
  6
CONTINUOUS
 62
     5
  5
717
 10
30885.786213
 20
27978.504905
 30
0.0
 11
30885.786213
 21
27968.149794
 31
0.0
  0
ARC
  8
1
  6
CONTINUOUS
 62
     5
  5
718
 10
30887.786213
 20
27968.149794
 30
0.0
 40
2.0
 50
180.0
 51
258.870811
  0
ARC
  8
1
  6
CONTINUOUS
 62
     5
  5
719
 10
30973.786213
 20
27968.149794
 30
0.0
 40
2.0
 50
281.129189
 51
360.0
  0
LINE
  8
1
  6
CONTINUOUS
 62
     5
  5
71A
 10
30975.786213
 20
27978.504905
 30
0.0
 11
30975.786213
 21
27968.149794
 31
0.0
  0
LINE
  8
1
  6
CONTINUOUS
 62
     5
  5
71B
 10
30945.222984
 20
27956.458239
 30
0.0
 11
30944.786213
 21
27928.504905
 31
0.0
  0
ARC
  8
1
  6
CONTINUOUS
 62
     5
  5
71C
 10
30950.222373
 20
27956.380123
 30
0.0
 40
5.0
 50
101.129189
 51
179.104826
  0
LINE
  8
1
  6
CONTINUOUS
 62
     5
  5
71D
 10
30949.257264
 20
27961.286095
 30
0.0
 11
30974.172257
 21
27966.187405
 31
0.0
  0
LINE
  8
1
  6
CONTINUOUS
 62
     5
  5
71E
 10
30916.786213
 20
27928.504905
 30
0.0
 11
30916.349442
 21
27956.458239
 31
0.0
  0
ARC
  8
1
  6
CONTINUOUS
 62
     5
  5
71F
 10
30911.350052
 20
27956.380123
 30
0.0
 40
5.0
 50
0.895174
 51
78.870811
  0
LINE
  8
1
  6
CONTINUOUS
 62
     5
  5
720
 10
30887.400169
 20
27966.187405
 30
0.0
 11
30912.315161
 21
27961.286095
 31
0.0
  0
ARC
  8
1
  6
CONTINUOUS
 62
     6
  5
721
 10
30922.786212
 20
27927.504905
 30
0.0
 40
1.0
 50
90.0
 51
180.0
  0
ARC
  8
1
  6
CONTINUOUS
 62
     6
  5
722
 10
30917.286212
 20
27926.504905
 30
0.0
 40
1.0
 50
90.0
 51
180.0
  0
ARC
  8
1
  6
CONTINUOUS
 62
     6
  5
723
 10
31378.286213
 20
27926.504905
 30
0.0
 40
1.0
 50
0.0
 51
90.0
  0
ARC
  8
1
  6
CONTINUOUS
 62
     6
  5
724
 10
31372.786213
 20
27927.504905
 30
0.0
 40
1.0
 50
0.0
 51
90.0
  0
LINE
  8
1
  6
CONTINUOUS
 62
     5
  5
725
 10
31374.186213
 20
27900.504905
 30
0.0
 11
30921.386213
 21
27900.504905
 31
0.0
  0
ARC
  8
1
  6
CONTINUOUS
 62
     5
  5
726
 10
31374.186213
 20
27913.504905
 30
0.0
 40
13.0
 50
270.0
 51
360.0
  0
LINE
  8
1
  6
CONTINUOUS
 62
     5
  5
727
 10
31387.186213
 20
27922.504905
 30
0.0
 11
31387.186213
 21
27913.504905
 31
0.0
  0
ARC
  8
1
  6
CONTINUOUS
 62
     5
  5
728
 10
31386.186213
 20
27922.504905
 30
0.0
 40
1.0
 50
0.0
 51
90.0
  0
LINE
  8
1
  6
CONTINUOUS
 62
     5
  5
729
 10
31379.286213
 20
27928.504905
 30
0.0
 11
31379.286213
 21
27923.504905
 31
0.0
  0
ARC
  8
1
  6
CONTINUOUS
 62
     5
  5
72A
 10
30921.386212
 20
27913.504905
 30
0.0
 40
13.0
 50
180.0
 51
270.0
  0
LINE
  8
1
  6
CONTINUOUS
 62
     5
  5
72B
 10
30908.386212
 20
27922.504905
 30
0.0
 11
30908.386212
 21
27913.504905
 31
0.0
  0
ARC
  8
1
  6
CONTINUOUS
 62
     5
  5
72C
 10
30909.386212
 20
27922.504905
 30
0.0
 40
1.0
 50
90.0
 51
180.0
  0
LINE
  8
1
  6
CONTINUOUS
 62
     5
  5
72D
 10
30916.286212
 20
27928.504905
 30
0.0
 11
30916.286212
 21
27923.504905
 31
0.0
  0
ARC
  8
160
  6
CONTINUOUS
 62
     2
  5
72E
 10
31230.286213
 20
27970.504905
 30
0.0
 40
8.0
 50
90.0
 51
168.57
  0
LINE
  8
160
  6
CONTINUOUS
 62
     2
  5
72F
 10
31366.286213
 20
27978.504905
 30
0.0
 11
31230.286213
 21
27978.504905
 31
0.0
  0
LINE
  8
160
  6
CONTINUOUS
 62
     2
  5
730
 10
31371.286213
 20
27978.504905
 30
0.0
 11
31366.286213
 21
27978.504905
 31
0.0
  0
LINE
  8
160
  6
CONTINUOUS
 62
     2
  5
731
 10
31364.786213
 20
27928.254905
 30
0.0
 11
31357.786213
 21
27928.004905
 31
0.0
  0
LINE
  8
160
  6
CONTINUOUS
 62
     2
  5
732
 10
31382.536213
 20
27903.541095
 30
0.0
 11
31382.536213
 21
27894.004905
 31
0.0
  0
ARC
  8
160
  6
CONTINUOUS
 62
     2
  5
733
 10
31134.286213
 20
27922.504905
 30
0.0
 40
250.0
 50
11.449359
 51
11.45
  0
ARC
  8
160
  6
CONTINUOUS
 62
     2
  5
734
 10
31134.286213
 20
27922.504905
 30
0.0
 40
250.0
 50
6.55
 51
8.740677
  0
LINE
  8
160
  6
CONTINUOUS
 62
     2
  5
735
 10
31219.036213
 20
27900.504905
 30
0.0
 11
31219.036213
 21
27894.004905
 31
0.0
  0
LINE
  8
0
  6
CONTINUOUS
 62
     2
  5
736
 10
31175.734766
 20
27978.504905
 30
0.0
 11
30928.586328
 21
27978.504905
 31
0.0
  0
LINE
  8
1
  6
CONTINUOUS
 62
     5
  5
737
 10
31379.286213
 20
27928.504905
 30
0.0
 11
30916.286212
 21
27928.504905
 31
0.0
  0
LINE
  8
1
  6
CONTINUOUS
 62
     5
  5
738
 10
31386.186213
 20
27923.504905
 30
0.0
 11
31382.536213
 21
27923.504905
 31
0.0
  0
LINE
  8
1
  6
CONTINUOUS
 62
     5
  5
739
 10
30916.286212
 20
27923.504905
 30
0.0
 11
30909.386206
 21
27923.504905
 31
0.0
  0
LINE
  8
100
  6
CENTER
 62
     2
  5
73A
 10
31147.786213
 20
27885.782485
 30
0.0
 11
31147.786213
 21
27945.766224
 31
0.0
  0
LINE
  8
105
  6
CENTER
 62
     2
  5
73B
 10
31364.786213
 20
27885.782485
 30
0.0
 11
31364.786213
 21
27995.382875
 31
0.0
  0
LINE
  8
105
  6
CENTER
 62
     2
  5
73C
 10
30930.786213
 20
27885.782485
 30
0.0
 11
30930.786213
 21
27995.382875
 31
0.0
  0
LINE
  8
0
  6
CONTINUOUS
 62
     2
  5
73D
 10
30992.179596
 20
27953.504905
 30
0.0
 11
30992.179596
 21
27950.504905
 31
0.0
  0
LINE
  8
0
  6
CONTINUOUS
 62
     2
  5
73E
 10
30954.746357
 20
27953.504905
 30
0.0
 11
30954.746357
 21
27950.504905
 31
0.0
  0
LINE
  8
0
  6
CONTINUOUS
 62
     2
  5
73F
 10
31056.02461
 20
27953.504905
 30
0.0
 11
31056.02461
 21
27950.504905
 31
0.0
  0
LINE
  8
0
  6
CONTINUOUS
 62
     3
  5
740
 10
31161.558106
 20
27953.504905
 30
0.0
 11
30945.197031
 21
27953.504905
 31
0.0
  0
LINE
  8
0
  6
CONTINUOUS
 62
     3
  5
741
 10
31161.558106
 20
27978.504905
 30
0.0
 11
31161.558106
 21
27953.504905
 31
0.0
  0
LINE
  8
0
  6
CONTINUOUS
 62
     3
  5
742
 10
31140.713934
 20
27953.504905
 30
0.0
 11
31140.713934
 21
27950.504905
 31
0.0
  0
LINE
  8
0
  6
CONTINUOUS
 62
     3
  5
743
 10
31103.229728
 20
27953.504905
 30
0.0
 11
31103.229728
 21
27950.504905
 31
0.0
  0
LINE
  8
0
  6
CONTINUOUS
 62
     3
  5
744
 10
31140.713934
 20
27950.504905
 30
0.0
 11
31103.229728
 21
27950.504905
 31
0.0
  0
LINE
  8
0
  6
CONTINUOUS
 62
     3
  5
745
 10
31093.457848
 20
27953.504905
 30
0.0
 11
31093.457848
 21
27950.504905
 31
0.0
  0
LINE
  8
0
  6
CONTINUOUS
 62
     3
  5
746
 10
31093.457848
 20
27950.504905
 30
0.0
 11
31056.02461
 21
27950.504905
 31
0.0
  0
LINE
  8
0
  6
CONTINUOUS
 62
     3
  5
747
 10
30992.179596
 20
27950.504905
 30
0.0
 11
30954.746357
 21
27950.504905
 31
0.0
  0
ARC
  8
160
  6
CONTINUOUS
 62
     3
  5
748
 10
31467.286213
 20
27922.504905
 30
0.0
 40
250.0
 50
168.57
 51
173.46
  0
LINE
  8
160
  6
CONTINUOUS
 62
     3
  5
749
 10
31243.786213
 20
27945.504905
 30
0.0
 11
31243.786213
 21
27928.504905
 31
0.0
  0
LINE
  8
160
  6
CONTINUOUS
 62
     3
  5
74A
 10
31236.786213
 20
27978.504905
 30
0.0
 11
31236.786213
 21
27928.504905
 31
0.0
  0
LINE
  8
160
  6
CONTINUOUS
 62
     3
  5
74B
 10
31219.036213
 20
27951.004905
 30
0.0
 11
31219.036213
 21
27928.504905
 31
0.0
  0
LINE
  8
160
  6
CONTINUOUS
 62
     3
  5
74C
 10
31236.786213
 20
27945.504905
 30
0.0
 11
31350.520588
 21
27945.504905
 31
0.0
  0
LINE
  8
160
  6
CONTINUOUS
 62
     3
  5
74D
 10
31243.786213
 20
27866.504905
 30
0.0
 11
31230.286213
 21
27866.504905
 31
0.0
  0
ARC
  8
160
  6
CONTINUOUS
 62
     3
  5
74E
 10
31467.286213
 20
27922.504905
 30
0.0
 40
250.0
 50
186.55
 51
191.45
  0
ARC
  8
160
  6
CONTINUOUS
 62
     3
  5
74F
 10
31230.286213
 20
27874.504905
 30
0.0
 40
8.0
 50
191.45
 51
270.0
  0
LINE
  8
160
  6
CONTINUOUS
 62
     3
  5
750
 10
31243.786213
 20
27900.504905
 30
0.0
 11
31243.786213
 21
27860.254905
 31
0.0
  0
LINE
  8
160
  6
CONTINUOUS
 62
     3
  5
751
 10
31236.786213
 20
27866.504905
 30
0.0
 11
31236.786213
 21
27900.504905
 31
0.0
  0
ARC
  8
160
  6
CONTINUOUS
 62
     3
  5
752
 10
31371.286213
 20
27874.504905
 30
0.0
 40
8.0
 50
270.0
 51
348.56
  0
LINE
  8
160
  6
CONTINUOUS
 62
     3
  5
753
 10
31366.286213
 20
27866.504905
 30
0.0
 11
31357.786213
 21
27866.504905
 31
0.0
  0
LINE
  8
160
  6
CONTINUOUS
 62
     3
  5
754
 10
31371.286213
 20
27866.504905
 30
0.0
 11
31366.286213
 21
27866.504905
 31
0.0
  0
LINE
  8
160
  6
CONTINUOUS
 62
     3
  5
755
 10
31357.786213
 20
27860.254905
 30
0.0
 11
31357.786213
 21
27900.504905
 31
0.0
  0
LINE
  8
160
  6
CONTINUOUS
 62
     3
  5
756
 10
31357.786213
 20
27860.254905
 30
0.0
 11
31243.786213
 21
27860.254905
 31
0.0
  0
ARC
  8
160
  6
CONTINUOUS
 62
     3
  5
757
 10
31134.286213
 20
27922.504905
 30
0.0
 40
250.0
 50
348.56
 51
353.46
  0
LINE
  8
160
  6
CONTINUOUS
 62
     3
  5
758
 10
31382.536213
 20
27951.004905
 30
0.0
 11
31382.536213
 21
27922.504905
 31
0.0
  0
LINE
  8
0
  6
CONTINUOUS
 62
     2
  5
759
 10
30995.8727
 20
26962.132274
 30
0.0
 11
30955.793755
 21
26927.397189
 31
0.0
  0
LINE
  8
0
  6
CONTINUOUS
 62
     2
  5
75A
 10
30955.793755
 20
26927.397189
 30
0.0
 11
30955.793755
 21
26996.867359
 31
0.0
  0
LINE
  8
0
  6
CONTINUOUS
 62
     2
  5
75B
 10
30955.793755
 20
26996.867359
 30
0.0
 11
30995.8727
 21
26962.132274
 31
0.0
  0
LINE
  8
0
  6
CONTINUOUS
 62
     2
  5
75C
 10
30995.8727
 20
26962.132274
 30
0.0
 11
31035.951644
 21
26996.867359
 31
0.0
  0
LINE
  8
0
  6
CONTINUOUS
 62
     2
  5
75D
 10
31035.951644
 20
26996.867359
 30
0.0
 11
31035.951644
 21
26927.397189
 31
0.0
  0
LINE
  8
0
  6
CONTINUOUS
 62
     2
  5
75E
 10
31035.951644
 20
26927.397189
 30
0.0
 11
30995.8727
 21
26962.132274
 31
0.0
  0
LINE
  8
1
  6
DOT
 62
     5
  5
75F
 10
31409.786213
 20
27068.504905
 30
0.0
 11
31319.786213
 21
27068.504905
 31
0.0
  0
LINE
  8
1
  6
DOT
 62
     5
  5
760
 10
31409.786213
 20
27068.504905
 30
0.0
 11
31409.786213
 21
27078.860016
 31
0.0
  0
ARC
  8
1
  6
DOT
 62
     5
  5
761
 10
31407.786213
 20
27078.860016
 30
0.0
 40
2.0
 50
0.0
 51
78.870811
  0
ARC
  8
1
  6
DOT
 62
     5
  5
762
 10
31321.786213
 20
27078.860016
 30
0.0
 40
2.0
 50
101.129189
 51
180.0
  0
LINE
  8
1
  6
DOT
 62
     5
  5
763
 10
31319.786213
 20
27068.504905
 30
0.0
 11
31319.786213
 21
27078.860016
 31
0.0
  0
LINE
  8
1
  6
DOT
 62
     5
  5
764
 10
31350.349442
 20
27090.551571
 30
0.0
 11
31350.786213
 21
27118.504905
 31
0.0
  0
ARC
  8
1
  6
DOT
 62
     5
  5
765
 10
31345.350052
 20
27090.629687
 30
0.0
 40
5.0
 50
281.129189
 51
359.104826
  0
LINE
  8
1
  6
DOT
 62
     5
  5
766
 10
31346.315161
 20
27085.723715
 30
0.0
 11
31321.400169
 21
27080.822405
 31
0.0
  0
LINE
  8
1
  6
DOT
 62
     5
  5
767
 10
31378.786213
 20
27118.504905
 30
0.0
 11
31379.222983
 21
27090.551571
 31
0.0
  0
ARC
  8
1
  6
DOT
 62
     5
  5
768
 10
31384.222373
 20
27090.629687
 30
0.0
 40
5.0
 50
180.895174
 51
258.870811
  0
LINE
  8
1
  6
DOT
 62
     5
  5
769
 10
31408.172256
 20
27080.822405
 30
0.0
 11
31383.257264
 21
27085.723715
 31
0.0
  0
LINE
  8
1
  6
DOT
 62
     5
  5
76A
 10
30885.786213
 20
27068.504905
 30
0.0
 11
30975.786213
 21
27068.504905
 31
0.0
  0
LINE
  8
1
  6
DOT
 62
     5
  5
76B
 10
30885.786213
 20
27068.504905
 30
0.0
 11
30885.786213
 21
27078.860016
 31
0.0
  0
ARC
  8
1
  6
DOT
 62
     5
  5
76C
 10
30887.786213
 20
27078.860016
 30
0.0
 40
2.0
 50
101.129189
 51
180.0
  0
ARC
  8
1
  6
DOT
 62
     5
  5
76D
 10
30973.786213
 20
27078.860016
 30
0.0
 40
2.0
 50
0.0
 51
78.870811
  0
LINE
  8
1
  6
DOT
 62
     5
  5
76E
 10
30975.786213
 20
27068.504905
 30
0.0
 11
30975.786213
 21
27078.860016
 31
0.0
  0
LINE
  8
1
  6
DOT
 62
     5
  5
76F
 10
30945.222984
 20
27090.551571
 30
0.0
 11
30944.786213
 21
27118.504905
 31
0.0
  0
ARC
  8
1
  6
DOT
 62
     5
  5
770
 10
30950.222373
 20
27090.629687
 30
0.0
 40
5.0
 50
180.895174
 51
258.870811
  0
LINE
  8
1
  6
DOT
 62
     5
  5
771
 10
30949.257264
 20
27085.723715
 30
0.0
 11
30974.172257
 21
27080.822405
 31
0.0
  0
LINE
  8
1
  6
DOT
 62
     5
  5
772
 10
30916.786213
 20
27118.504905
 30
0.0
 11
30916.349442
 21
27090.551571
 31
0.0
  0
ARC
  8
1
  6
DOT
 62
     5
  5
773
 10
30911.350052
 20
27090.629687
 30
0.0
 40
5.0
 50
281.129189
 51
359.104826
  0
LINE
  8
1
  6
DOT
 62
     5
  5
774
 10
30887.400169
 20
27080.822405
 30
0.0
 11
30912.315161
 21
27085.723715
 31
0.0
  0
ARC
  8
1
  6
DOT
 62
     6
  5
775
 10
30922.786212
 20
27119.504905
 30
0.0
 40
1.0
 50
180.0
 51
270.0
  0
ARC
  8
1
  6
DOT
 62
     6
  5
776
 10
30917.286212
 20
27120.504905
 30
0.0
 40
1.0
 50
180.0
 51
270.0
  0
ARC
  8
1
  6
DOT
 62
     6
  5
777
 10
31378.286213
 20
27120.504905
 30
0.0
 40
1.0
 50
270.0
 51
360.0
  0
ARC
  8
1
  6
DOT
 62
     6
  5
778
 10
31372.786213
 20
27119.504905
 30
0.0
 40
1.0
 50
270.0
 51
360.0
  0
LINE
  8
1
  6
DOT
 62
     5
  5
779
 10
31374.186213
 20
27146.504905
 30
0.0
 11
30921.386213
 21
27146.504905
 31
0.0
  0
ARC
  8
1
  6
DOT
 62
     5
  5
77A
 10
31374.186213
 20
27133.504905
 30
0.0
 40
13.0
 50
0.0
 51
90.0
  0
LINE
  8
1
  6
DOT
 62
     5
  5
77B
 10
31387.186213
 20
27124.504905
 30
0.0
 11
31387.186213
 21
27133.504905
 31
0.0
  0
ARC
  8
1
  6
DOT
 62
     5
  5
77C
 10
31386.186213
 20
27124.504905
 30
0.0
 40
1.0
 50
270.0
 51
360.0
  0
LINE
  8
1
  6
DOT
 62
     5
  5
77D
 10
31379.286213
 20
27118.504905
 30
0.0
 11
31379.286213
 21
27123.504905
 31
0.0
  0
ARC
  8
1
  6
DOT
 62
     5
  5
77E
 10
30921.386212
 20
27133.504905
 30
0.0
 40
13.0
 50
90.0
 51
180.0
  0
LINE
  8
1
  6
DOT
 62
     5
  5
77F
 10
30908.386212
 20
27124.504905
 30
0.0
 11
30908.386212
 21
27133.504905
 31
0.0
  0
ARC
  8
1
  6
DOT
 62
     5
  5
780
 10
30909.386212
 20
27124.504905
 30
0.0
 40
1.0
 50
180.0
 51
270.0
  0
LINE
  8
1
  6
DOT
 62
     5
  5
781
 10
30916.286212
 20
27118.504905
 30
0.0
 11
30916.286212
 21
27123.504905
 31
0.0
  0
ARC
  8
160
  6
DOT
 62
     2
  5
782
 10
31230.286213
 20
27076.504905
 30
0.0
 40
8.0
 50
191.43
 51
270.0
  0
LINE
  8
160
  6
DOT
 62
     2
  5
783
 10
31366.286213
 20
27068.504905
 30
0.0
 11
31230.286213
 21
27068.504905
 31
0.0
  0
LINE
  8
160
  6
DOT
 62
     2
  5
784
 10
31371.286213
 20
27068.504905
 30
0.0
 11
31366.286213
 21
27068.504905
 31
0.0
  0
LINE
  8
160
  6
DOT
 62
     2
  5
785
 10
31364.786213
 20
27118.754905
 30
0.0
 11
31357.786213
 21
27119.004905
 31
0.0
  0
LINE
  8
160
  6
DOT
 62
     2
  5
786
 10
31382.536213
 20
27143.468715
 30
0.0
 11
31382.536213
 21
27153.004905
 31
0.0
  0
ARC
  8
160
  6
DOT
 62
     2
  5
787
 10
31134.286213
 20
27124.504905
 30
0.0
 40
250.0
 50
348.55
 51
348.550641
  0
ARC
  8
160
  6
DOT
 62
     2
  5
788
 10
31134.286213
 20
27124.504905
 30
0.0
 40
250.0
 50
351.259323
 51
353.45
  0
LINE
  8
160
  6
DOT
 62
     2
  5
789
 10
31219.036213
 20
27146.504905
 30
0.0
 11
31219.036213
 21
27153.004905
 31
0.0
  0
LINE
  8
0
  6
DOT
 62
     2
  5
78A
 10
31175.734766
 20
27068.504905
 30
0.0
 11
30928.586328
 21
27068.504905
 31
0.0
  0
LINE
  8
1
  6
DOT
 62
     5
  5
78B
 10
31379.286213
 20
27118.504905
 30
0.0
 11
30916.286212
 21
27118.504905
 31
0.0
  0
LINE
  8
1
  6
DOT
 62
     5
  5
78C
 10
31386.186213
 20
27123.504905
 30
0.0
 11
31382.536213
 21
27123.504905
 31
0.0
  0
LINE
  8
1
  6
DOT
 62
     5
  5
78D
 10
30916.286212
 20
27123.504905
 30
0.0
 11
30909.386206
 21
27123.504905
 31
0.0
  0
LINE
  8
100
  6
DOT
 62
     2
  5
78E
 10
31147.786213
 20
27161.227325
 30
0.0
 11
31147.786213
 21
27101.243586
 31
0.0
  0
LINE
  8
105
  6
DOT
 62
     2
  5
78F
 10
31364.786213
 20
27161.227325
 30
0.0
 11
31364.786213
 21
27051.626935
 31
0.0
  0
LINE
  8
105
  6
DOT
 62
     2
  5
790
 10
30930.786213
 20
27161.227325
 30
0.0
 11
30930.786213
 21
27051.626935
 31
0.0
  0
LINE
  8
0
  6
DOT
 62
     2
  5
791
 10
30992.179596
 20
27093.504905
 30
0.0
 11
30992.179596
 21
27096.504905
 31
0.0
  0
LINE
  8
0
  6
DOT
 62
     2
  5
792
 10
30954.746357
 20
27093.504905
 30
0.0
 11
30954.746357
 21
27096.504905
 31
0.0
  0
LINE
  8
0
  6
DOT
 62
     2
  5
793
 10
31056.02461
 20
27093.504905
 30
0.0
 11
31056.02461
 21
27096.504905
 31
0.0
  0
LINE
  8
0
  6
DOT
 62
     3
  5
794
 10
31161.558106
 20
27093.504905
 30
0.0
 11
30945.197031
 21
27093.504905
 31
0.0
  0
LINE
  8
0
  6
DOT
 62
     3
  5
795
 10
31161.558106
 20
27068.504905
 30
0.0
 11
31161.558106
 21
27093.504905
 31
0.0
  0
LINE
  8
0
  6
DOT
 62
     3
  5
796
 10
31140.713934
 20
27093.504905
 30
0.0
 11
31140.713934
 21
27096.504905
 31
0.0
  0
LINE
  8
0
  6
DOT
 62
     3
  5
797
 10
31103.229728
 20
27093.504905
 30
0.0
 11
31103.229728
 21
27096.504905
 31
0.0
  0
LINE
  8
0
  6
DOT
 62
     3
  5
798
 10
31140.713934
 20
27096.504905
 30
0.0
 11
31103.229728
 21
27096.504905
 31
0.0
  0
LINE
  8
0
  6
DOT
 62
     3
  5
799
 10
31093.457848
 20
27093.504905
 30
0.0
 11
31093.457848
 21
27096.504905
 31
0.0
  0
LINE
  8
0
  6
DOT
 62
     3
  5
79A
 10
31093.457848
 20
27096.504905
 30
0.0
 11
31056.02461
 21
27096.504905
 31
0.0
  0
LINE
  8
0
  6
DOT
 62
     3
  5
79B
 10
30992.179596
 20
27096.504905
 30
0.0
 11
30954.746357
 21
27096.504905
 31
0.0
  0
ARC
  8
160
  6
DOT
 62
     3
  5
79C
 10
31467.286213
 20
27124.504905
 30
0.0
 40
250.0
 50
186.54
 51
191.43
  0
LINE
  8
160
  6
DOT
 62
     3
  5
79D
 10
31243.786213
 20
27101.504905
 30
0.0
 11
31243.786213
 21
27118.504905
 31
0.0
  0
LINE
  8
160
  6
DOT
 62
     3
  5
79E
 10
31236.786213
 20
27068.504905
 30
0.0
 11
31236.786213
 21
27118.504905
 31
0.0
  0
LINE
  8
160
  6
DOT
 62
     3
  5
79F
 10
31219.036213
 20
27096.004905
 30
0.0
 11
31219.036213
 21
27118.504905
 31
0.0
  0
LINE
  8
160
  6
DOT
 62
     3
  5
7A0
 10
31236.786213
 20
27101.504905
 30
0.0
 11
31350.520588
 21
27101.504905
 31
0.0
  0
LINE
  8
160
  6
DOT
 62
     3
  5
7A1
 10
31243.786213
 20
27180.504905
 30
0.0
 11
31230.286213
 21
27180.504905
 31
0.0
  0
ARC
  8
160
  6
DOT
 62
     3
  5
7A2
 10
31467.286213
 20
27124.504905
 30
0.0
 40
250.0
 50
168.55
 51
173.45
  0
ARC
  8
160
  6
DOT
 62
     3
  5
7A3
 10
31230.286213
 20
27172.504905
 30
0.0
 40
8.0
 50
90.0
 51
168.55
  0
LINE
  8
160
  6
DOT
 62
     3
  5
7A4
 10
31243.786213
 20
27146.504905
 30
0.0
 11
31243.786213
 21
27186.754905
 31
0.0
  0
LINE
  8
160
  6
DOT
 62
     3
  5
7A5
 10
31236.786213
 20
27180.504905
 30
0.0
 11
31236.786213
 21
27146.504905
 31
0.0
  0
ARC
  8
160
  6
DOT
 62
     3
  5
7A6
 10
31371.286213
 20
27172.504905
 30
0.0
 40
8.0
 50
11.44
 51
90.0
  0
LINE
  8
160
  6
DOT
 62
     3
  5
7A7
 10
31366.286213
 20
27180.504905
 30
0.0
 11
31357.786213
 21
27180.504905
 31
0.0
  0
LINE
  8
160
  6
DOT
 62
     3
  5
7A8
 10
31371.286213
 20
27180.504905
 30
0.0
 11
31366.286213
 21
27180.504905
 31
0.0
  0
LINE
  8
160
  6
DOT
 62
     3
  5
7A9
 10
31357.786213
 20
27186.754905
 30
0.0
 11
31357.786213
 21
27146.504905
 31
0.0
  0
LINE
  8
160
  6
DOT
 62
     3
  5
7AA
 10
31357.786213
 20
27186.754905
 30
0.0
 11
31243.786213
 21
27186.754905
 31
0.0
  0
ARC
  8
160
  6
DOT
 62
     3
  5
7AB
 10
31134.286213
 20
27124.504905
 30
0.0
 40
250.0
 50
6.54
 51
11.44
  0
LINE
  8
160
  6
DOT
 62
     3
  5
7AC
 10
31382.536213
 20
27096.004905
 30
0.0
 11
31382.536213
 21
27124.504905
 31
0.0
  0
LINE
  8
1
  6
CONTINUOUS
 62
     5
  5
7AD
 10
30307.786213
 20
27978.504905
 30
0.0
 11
30307.786213
 21
27068.504905
 31
0.0
  0
LINE
  8
1
  6
CONTINUOUS
 62
     5
  5
7AE
 10
30307.786213
 20
27978.504905
 30
0.0
 11
31590.425373
 21
27978.504905
 31
0.0
  0
LINE
  8
1
  6
CONTINUOUS
 62
     5
  5
7AF
 10
30307.786213
 20
27068.504905
 30
0.0
 11
31590.425373
 21
27068.504905
 31
0.0
  0
LINE
  8
100
  6
CENTER
 62
     2
  5
7B0
 10
30605.6874
 20
27526.329427
 30
0.0
 11
31590.425373
 21
27526.329427
 31
0.0
  0
LINE
  8
100
  6
CENTER
 62
     2
  5
7B1
 10
30845.288282
 20
27915.72943
 30
0.0
 11
31590.425373
 21
27915.72943
 31
0.0
  0
LINE
  8
0
  6
CONTINUOUS
 62
     3
  5
7B2
 10
30997.786213
 20
25392.769317
 30
0.0
 11
30997.786213
 21
27418.789807
 31
0.0
  0
TEXT
  8
0
  6
CONTINUOUS
 62
     2
  5
7B3
 10
30073.568447
 20
26711.714212
 30
0.0
 40
100.0
  1
テスリックスの
 41
0.71432
  7
DRACAD
 72
     5
 11
30670.968447
 21
26711.714212
 31
0.0
  0
TEXT
  8
0
  6
CONTINUOUS
 62
     2
  5
7B4
 10
30074.968447
 20
26611.714212
 30
0.0
 40
100.0
  1
取付けの一例
 41
0.829467
  7
DRACAD
 72
     5
 11
30669.568447
 21
26611.714212
 31
0.0
  0
LINE
  8
4
  6
CONTINUOUS
 62
     5
  5
7B5
 10
30307.786213
 20
25547.769317
 30
0.0
 11
30307.786213
 21
26515.360278
 31
0.0
  0
TEXT
  8
0
  6
CONTINUOUS
 62
     2
  5
7B6
 10
29991.359005
 20
25234.159509
 30
0.0
 40
70.0
  1
tesrix.com
 41
0.4276
  7
DRACAD
 72
     5
 11
30290.679005
 21
25234.159509
 31
0.0
  0
TEXT
  8
0
  6
CONTINUOUS
 62
     2
  5
7B7
 10
31452.705172
 20
25237.0067
 30
0.0
 40
50.0
  1
松屋産業株式会社
 41
0.837
  7
DRACAD
 72
     5
 11
31852.705172
 21
25237.0067
 31
0.0
  0
ENDSEC
  0
EOF
